  0
SECTION
  2
HEADER
  9
$ACADVER
  1
AC1015
  9
$ACADMAINTVER
 70
    20
  9
$DWGCODEPAGE
  3
ANSI_932
  9
$INSBASE
 10
0.0
 20
0.0
 30
0.0
  9
$EXTMIN
 10
-1133.080828563683
 20
-1370.759950238715
 30
0.0
  9
$EXTMAX
 10
1302.213129015362
 20
615.2578212458883
 30
50.0
  9
$LIMMIN
 10
-2970.0
 20
-2100.0
  9
$LIMMAX
 10
2970.0
 20
2100.0
  9
$ORTHOMODE
 70
     1
  9
$REGENMODE
 70
     0
  9
$FILLMODE
 70
     1
  9
$QTEXTMODE
 70
     0
  9
$MIRRTEXT
 70
     0
  9
$LTSCALE
 40
20.0
  9
$ATTMODE
 70
     1
  9
$TEXTSIZE
 40
64.0
  9
$TRACEWID
 40
0.05
  9
$TEXTSTYLE
  7
STANDARD
  9
$CLAYER
  8
0
  9
$CELTYPE
  6
ByLayer
  9
$CECOLOR
 62
   256
  9
$CELTSCALE
 40
1.0
  9
$DISPSILH
 70
     0
  9
$DIMSCALE
 40
1.0
  9
$DIMASZ
 40
0.12
  9
$DIMEXO
 40
0.05
  9
$DIMDLI
 40
0.5
  9
$DIMRND
 40
0.0
  9
$DIMDLE
 40
0.0
  9
$DIMEXE
 40
0.1
  9
$DIMTP
 40
0.1
  9
$DIMTM
 40
0.1
  9
$DIMTXT
 40
0.12
  9
$DIMCEN
 40
0.0
  9
$DIMTSZ
 40
0.0
  9
$DIMTOL
 70
     0
  9
$DIMLIM
 70
     0
  9
$DIMTIH
 70
     1
  9
$DIMTOH
 70
     1
  9
$DIMSE1
 70
     0
  9
$DIMSE2
 70
     0
  9
$DIMTAD
 70
     0
  9
$DIMZIN
 70
     7
  9
$DIMBLK
  1

  9
$DIMASO
 70
     1
  9
$DIMSHO
 70
     0
  9
$DIMPOST
  1

  9
$DIMAPOST
  1
mm
  9
$DIMALT
 70
     0
  9
$DIMALTD
 70
     2
  9
$DIMALTF
 40
25.4
  9
$DIMLFAC
 40
1.0
  9
$DIMTOFL
 70
     0
  9
$DIMTVP
 40
0.0
  9
$DIMTIX
 70
     0
  9
$DIMSOXD
 70
     0
  9
$DIMSAH
 70
     0
  9
$DIMBLK1
  1

  9
$DIMBLK2
  1

  9
$DIMSTYLE
  2
AM_ANSI
  9
$DIMCLRD
 70
   256
  9
$DIMCLRE
 70
   256
  9
$DIMCLRT
 70
     2
  9
$DIMTFAC
 40
0.71
  9
$DIMGAP
 40
0.06
  9
$DIMJUST
 70
     0
  9
$DIMSD1
 70
     0
  9
$DIMSD2
 70
     0
  9
$DIMTOLJ
 70
     1
  9
$DIMTZIN
 70
     7
  9
$DIMALTZ
 70
     0
  9
$DIMALTTZ
 70
     0
  9
$DIMUPT
 70
     0
  9
$DIMDEC
 70
     4
  9
$DIMTDEC
 70
     4
  9
$DIMALTU
 70
     2
  9
$DIMALTTD
 70
     4
  9
$DIMTXSTY
  7
STANDARD
  9
$DIMAUNIT
 70
     0
  9
$DIMADEC
 70
     0
  9
$DIMALTRND
 40
0.0
  9
$DIMAZIN
 70
     2
  9
$DIMDSEP
 70
    46
  9
$DIMATFIT
 70
     3
  9
$DIMFRAC
 70
     0
  9
$DIMLDRBLK
  1

  9
$DIMLUNIT
 70
     2
  9
$DIMLWD
 70
    -1
  9
$DIMLWE
 70
    -1
  9
$DIMTMOVE
 70
     0
  9
$LUNITS
 70
     2
  9
$LUPREC
 70
     4
  9
$SKETCHINC
 40
0.1
  9
$FILLETRAD
 40
4.0
  9
$AUNITS
 70
     1
  9
$AUPREC
 70
     3
  9
$MENU
  1
ACAD
  9
$ELEVATION
 40
0.0
  9
$PELEVATION
 40
0.0
  9
$THICKNESS
 40
50.0
  9
$LIMCHECK
 70
     0
  9
$CHAMFERA
 40
0.0
  9
$CHAMFERB
 40
0.0
  9
$CHAMFERC
 40
0.0
  9
$CHAMFERD
 40
0.0
  9
$SKPOLY
 70
     0
  9
$TDCREATE
 40
2452321.396199653
  9
$TDUCREATE
 40
2452321.021199653
  9
$TDUPDATE
 40
2456213.410898264
  9
$TDUUPDATE
 40
2456213.035898264
  9
$TDINDWG
 40
1.0450827083
  9
$TDUSRTIMER
 40
1.0450771181
  9
$USRTIMER
 70
     1
  9
$ANGBASE
 50
0.0
  9
$ANGDIR
 70
     0
  9
$PDMODE
 70
     3
  9
$PDSIZE
 40
-2.0
  9
$PLINEWID
 40
0.0
  9
$SPLFRAME
 70
     0
  9
$SPLINETYPE
 70
     6
  9
$SPLINESEGS
 70
     8
  9
$HANDSEED
  5
358A
  9
$SURFTAB1
 70
     6
  9
$SURFTAB2
 70
     6
  9
$SURFTYPE
 70
     6
  9
$SURFU
 70
     6
  9
$SURFV
 70
     6
  9
$UCSBASE
  2

  9
$UCSNAME
  2

  9
$UCSORG
 10
0.0
 20
0.0
 30
0.0
  9
$UCSXDIR
 10
1.0
 20
0.0
 30
0.0
  9
$UCSYDIR
 10
0.0
 20
1.0
 30
0.0
  9
$UCSORTHOREF
  2

  9
$UCSORTHOVIEW
 70
     0
  9
$UCSORGTOP
 10
0.0
 20
0.0
 30
0.0
  9
$UCSORGBOTTOM
 10
0.0
 20
0.0
 30
0.0
  9
$UCSORGLEFT
 10
0.0
 20
0.0
 30
0.0
  9
$UCSORGRIGHT
 10
0.0
 20
0.0
 30
0.0
  9
$UCSORGFRONT
 10
0.0
 20
0.0
 30
0.0
  9
$UCSORGBACK
 10
0.0
 20
0.0
 30
0.0
  9
$PUCSBASE
  2

  9
$PUCSNAME
  2

  9
$PUCSORG
 10
0.0
 20
0.0
 30
0.0
  9
$PUCSXDIR
 10
1.0
 20
0.0
 30
0.0
  9
$PUCSYDIR
 10
0.0
 20
1.0
 30
0.0
  9
$PUCSORTHOREF
  2

  9
$PUCSORTHOVIEW
 70
     0
  9
$PUCSORGTOP
 10
0.0
 20
0.0
 30
0.0
  9
$PUCSORGBOTTOM
 10
0.0
 20
0.0
 30
0.0
  9
$PUCSORGLEFT
 10
0.0
 20
0.0
 30
0.0
  9
$PUCSORGRIGHT
 10
0.0
 20
0.0
 30
0.0
  9
$PUCSORGFRONT
 10
0.0
 20
0.0
 30
0.0
  9
$PUCSORGBACK
 10
0.0
 20
0.0
 30
0.0
  9
$USERI1
 70
     0
  9
$USERI2
 70
     0
  9
$USERI3
 70
     0
  9
$USERI4
 70
     0
  9
$USERI5
 70
     0
  9
$USERR1
 40
20.0
  9
$USERR2
 40
0.0
  9
$USERR3
 40
0.0
  9
$USERR4
 40
0.0
  9
$USERR5
 40
0.0
  9
$WORLDVIEW
 70
     1
  9
$SHADEDGE
 70
     3
  9
$SHADEDIF
 70
    70
  9
$TILEMODE
 70
     1
  9
$MAXACTVP
 70
    64
  9
$PINSBASE
 10
0.0
 20
0.0
 30
0.0
  9
$PLIMCHECK
 70
     0
  9
$PEXTMIN
 10
1.000000000000000E+20
 20
1.000000000000000E+20
 30
1.000000000000000E+20
  9
$PEXTMAX
 10
-1.000000000000000E+20
 20
-1.000000000000000E+20
 30
-1.000000000000000E+20
  9
$PLIMMIN
 10
0.0
 20
0.0
  9
$PLIMMAX
 10
12.0
 20
9.0
  9
$UNITMODE
 70
     0
  9
$VISRETAIN
 70
     1
  9
$PLINEGEN
 70
     0
  9
$PSLTSCALE
 70
     1
  9
$TREEDEPTH
 70
  3020
  9
$CMLSTYLE
  2
Standard
  9
$CMLJUST
 70
     0
  9
$CMLSCALE
 40
1.0
  9
$PROXYGRAPHICS
 70
     1
  9
$MEASUREMENT
 70
     0
  9
$CELWEIGHT
370
    -1
  9
$ENDCAPS
280
     0
  9
$JOINSTYLE
280
     0
  9
$LWDISPLAY
290
     0
  9
$INSUNITS
 70
     0
  9
$HYPERLINKBASE
  1

  9
$STYLESHEET
  1

  9
$XEDIT
290
     1
  9
$CEPSNTYPE
380
     0
  9
$PSTYLEMODE
290
     1
  9
$FINGERPRINTGUID
  2
{AFF3DF22-ADBB-4B2F-9071-7488D523CFD7}
  9
$VERSIONGUID
  2
{0BD038CB-41E2-42FA-B429-79210ACA85FE}
  9
$EXTNAMES
290
     1
  9
$PSVPSCALE
 40
0.0
  9
$OLESTARTUP
290
     0
  0
ENDSEC
  0
SECTION
  2
CLASSES
  0
CLASS
  1
ACDBDICTIONARYWDFLT
  2
AcDbDictionaryWithDefault
  3
ObjectDBX Classes
 90
        0
280
     0
281
     0
  0
CLASS
  1
MATERIAL
  2
AcDbMaterial
  3
ObjectDBX Classes
 90
     1153
280
     0
281
     0
  0
CLASS
  1
VISUALSTYLE
  2
AcDbVisualStyle
  3
ObjectDBX Classes
 90
     4095
280
     0
281
     0
  0
CLASS
  1
SCALE
  2
AcDbScale
  3
ObjectDBX Classes
 90
     1153
280
     0
281
     0
  0
CLASS
  1
TABLESTYLE
  2
AcDbTableStyle
  3
ObjectDBX Classes
 90
     4095
280
     0
281
     0
  0
CLASS
  1
MLEADERSTYLE
  2
AcDbMLeaderStyle
  3
ACDB_MLEADERSTYLE_CLASS
 90
     4095
280
     0
281
     0
  0
CLASS
  1
AMGSETTINGSOBJ
  2
AmgSettingsObj
  3
"AcadM|Product Description: AutoCAD Mechanical|Company: Autodesk, Inc."
 90
     1024
280
     0
281
     0
  0
CLASS
  1
ACME_DOCUMENT
  2
AcMeDbDoc
  3
AcMeServices
 90
     1024
280
     0
281
     0
  0
CLASS
  1
ACMESCOPE
  2
AcMeScope
  3
AcMeServices
 90
     1024
280
     0
281
     0
  0
CLASS
  1
ACMECOMMANDHISTORY
  2
AcMeCommandHistory
  3
AcMeServices
 90
     1024
280
     0
281
     0
  0
CLASS
  1
ACIMSYSVARMAN
  2
AcImSysVarManager
  3
AcMeServices
 90
     1024
280
     0
281
     0
  0
CLASS
  1
ACIMREALSYSVAR
  2
AcImRealSysVar
  3
AcMeServices
 90
     1024
280
     0
281
     0
  0
CLASS
  1
ACIMINTSYSVAR
  2
AcImIntSysVar
  3
AcMeServices
 90
     1024
280
     0
281
     0
  0
CLASS
  1
ACMEDRAWINGMAN
  2
AcMeDrawingMan
  3
AcMeServices
 90
     1024
280
     0
281
     0
  0
CLASS
  1
ACMEVIEW
  2
AcMeView
  3
AcMeServices
 90
     1024
280
     0
281
     0
  0
CLASS
  1
ACDBENTITYCACHE
  2
AcMeEntityCache
  3
AcMeServices
 90
     1024
280
     0
281
     0
  0
CLASS
  1
GSMANAGER
  2
AcMeGSManager
  3
AcMeServices
 90
     1024
280
     0
281
     0
  0
CLASS
  1
AMDTINTERNALREACTOR
  2
AmdtInternalReactor
  3
AcMeServices
 90
     1024
280
     0
281
     0
  0
CLASS
  1
ACMESTATEMGR
  2
AcMeStateMgr
  3
AcMeServices
 90
     1024
280
     0
281
     0
  0
CLASS
  1
ACGREFMASTER
  2
AcGrefMaster
  3
AcAttribServices
 90
     1024
280
     0
281
     0
  0
CLASS
  1
AM_DRAWING_MGR
  2
AcDmDwgMgr
  3
AcMechDwgViewMgmt
 90
     1024
280
     0
281
     0
  0
CLASS
  1
AM_DWG_DOCUMENT
  2
AcDmDwgDocument
  3
AcMechDwgViewMgmt
 90
     1024
280
     0
281
     0
  0
CLASS
  1
AM_DWG_SHEET
  2
AcDmSheet
  3
AcMechDwgViewMgmt
 90
     1024
280
     0
281
     0
  0
CLASS
  1
AM_VIEWDIMPARMAP
  2
AcDmViewDimParMap
  3
AcMechDwgViewMgmt
 90
     1024
280
     0
281
     0
  0
CLASS
  1
AM_DWGMGR_NAME
  2
AcDmDwgMgrName
  3
AcMechDwgViewMgmt
 90
     1024
280
     0
281
     0
  0
CLASS
  1
ACME_DATABASE
  2
AcMeDbDatabase
  3
AcMeServices
 90
     1024
280
     0
281
     0
  0
CLASS
  1
ACRFINSADJUSTERMGR
  2
AcRfInsAdjusterMgr
  3
AcMeServices
 90
     1024
280
     0
281
     0
  0
CLASS
  1
ACGREFACADMASTER
  2
AcGrefacadMaster
  3
AcGrefServices
 90
     1024
280
     0
281
     0
  0
CLASS
  1
AMDTMENUSTATEMGR
  2
AmdtMenuStateMgr
  3
McadcomServices
 90
     1024
280
     0
281
     0
  0
CLASS
  1
AMDTMCOMMENUSTATE
  2
AmdtMcomMenuState
  3
McadcomServices
 90
     1024
280
     0
281
     0
  0
CLASS
  1
AMIMASTER
  2
AmiMaster
  3
AmiServices
 90
     1024
280
     0
281
     0
  0
CLASS
  1
ASAPP
  2
AcAsAppObject
  3
AutoSurfServices
 90
     1024
280
     0
281
     0
  0
CLASS
  1
IM_STATIC_MAN
  2
AcImStaticVarManager
  3
AcMeServices
 90
     1024
280
     0
281
     0
  0
CLASS
  1
ACIMSTRSYSVAR
  2
AcImStrSysVar
  3
AcMeServices
 90
     1024
280
     0
281
     0
  0
CLASS
  1
ACIMDBLSTATICVAR
  2
AcImDblStaticVar
  3
AcMeServices
 90
     1024
280
     0
281
     0
  0
CLASS
  1
ACIMSTRSTATICVAR
  2
AcImStrStaticVar
  3
AcMeServices
 90
     1024
280
     0
281
     0
  0
CLASS
  1
ACIMINTSTATICVAR
  2
AcImIntStaticVar
  3
AcMeServices
 90
     1024
280
     0
281
     0
  0
CLASS
  1
ACASGREFMASTER
  2
AcAsGrefMaster
  3
AutoSurfResolverServices
 90
     1024
280
     0
281
     0
  0
CLASS
  1
ACADGREFMODULE
  2
AcAdGrefModule
  3
AdGrefServices
 90
     1024
280
     0
281
     0
  0
CLASS
  1
AMDTMAPISURFMOUDULE
  2
AmdtMApiSurfModule
  3
MApiSurfServices
 90
     1024
280
     0
281
     0
  0
CLASS
  1
MAPIAMMOUDLE
  2
MApiAmModule
  3
MApiAmServices
 90
     1024
280
     0
281
     0
  0
CLASS
  1
AMDTADMENUSTATE
  2
AmdtAdMenuState
  3
DesignerServices
 90
     1024
280
     0
281
     0
  0
CLASS
  1
ADAPPL
  2
AcAdAppl
  3
DesignerServices
 90
     1024
280
     0
281
     0
  0
CLASS
  1
DEPMGR
  2
AcAdDepMgr
  3
DesignerServices
 90
     1024
280
     0
281
     0
  0
CLASS
  1
PARAMMGR
  2
AcAdParamMgr
  3
DesignerServices
 90
     1024
280
     0
281
     0
  0
CLASS
  1
PARAMSCOPE
  2
AcAdParamScope
  3
DesignerServices
 90
     1024
280
     0
281
     0
  0
CLASS
  1
NAMEDAPPL
  2
AcAdNamedAppl
  3
DesignerServices
 90
     1024
280
     0
281
     0
  0
CLASS
  1
AMDTDMMENUSTATE
  2
AmdtDmMenuState
  3
AcMechDwgViewMgmt
 90
     1024
280
     0
281
     0
  0
CLASS
  1
MAPIADMODULE
  2
MApiAdModule
  3
MApiAdServices
 90
     1024
280
     0
281
     0
  0
CLASS
  1
AMDTAMMENUSTATE
  2
AmdtAmMenuState
  3
DesignerAssemblies
 90
     1024
280
     0
281
     0
  0
CLASS
  1
ACAMPROJECT
  2
AcAmProject
  3
DesignerAssemblies
 90
     1024
280
     0
281
     0
  0
CLASS
  1
ACAMGRCOMPDEF
  2
AcAmGrCompDef
  3
DesignerAssemblies
 90
     1024
280
     0
281
     0
  0
CLASS
  1
ACCMCONTEXT
  2
AcCmContext
  3
DesignerAssemblies
 90
     1024
280
     0
281
     0
  0
CLASS
  1
ACAMCOMPDEF
  2
AcAmCompDef
  3
DesignerAssemblies
 90
     1024
280
     0
281
     0
  0
CLASS
  1
ACAMCOMPDEFMGR
  2
AcAmCompDefMgr
  3
DesignerAssemblies
 90
     1024
280
     0
281
     0
  0
CLASS
  1
AMCONTEXTMGR
  2
AcAmContextMgr
  3
DesignerAssemblies
 90
     1024
280
     0
281
     0
  0
CLASS
  1
ACAMCONTEXTMODELER
  2
AcAmContextModeler
  3
DesignerAssemblies
 90
     1024
280
     0
281
     0
  0
CLASS
  1
ACMDATADICTIONARY
  2
AcmDataDictionary
  3
"AcmSymBB|Product Description: AutoCAD Mechanical|Company: Autodesk, Inc."
 90
     1024
280
     0
281
     0
  0
CLASS
  1
ACMDATAENTRYBLOCK
  2
AcmDataEntryBlock
  3
AcmSymBB|Product Description: AutoCAD Mechanical|Company: Autodesk, Inc.
 90
     1024
280
     0
281
     0
  0
CLASS
  1
ACRFATTGENMGR
  2
AcRfAttGeneralMgr
  3
AcAttribServices
 90
     1024
280
     0
281
     0
  0
CLASS
  1
ACRFOBJATTMGR
  2
AcRfObjAttGroupMgr
  3
AcAttribServices
 90
     1024
280
     0
281
     0
  0
CLASS
  1
ACRFMCADAPIATTHOLDER
  2
AcRfMCADAPIAttHolder
  3
AcAttribServices
 90
     1024
280
     0
281
     0
  0
CLASS
  1
AMDTSYSATTR
  2
AmdtSystemAttribute
  3
AcAttribServices
 90
     1024
280
     0
281
     0
  0
CLASS
  1
CATALOGSTATE
  2
AcAmCatalogState
  3
DesignerAssemblies
 90
     1024
280
     0
281
     0
  0
CLASS
  1
ACAMGRCOMPDEFSET
  2
AcAmGrCompDefSet
  3
DesignerAssemblies
 90
     1024
280
     0
281
     0
  0
CLASS
  1
AMDTBROWSERDBTAB
  2
AmdtBrowserDbTab
  3
McadcomServices
 90
     1024
280
     0
281
     0
  0
CLASS
  1
CBROWSERAPPOBJECT
  2
CBrowserAppObject
  3
McadcomServices
 90
     1024
280
     0
281
     0
  0
CLASS
  1
DM_PLACEHOLDER
  2
AcDmSelsetPlaceholder
  3
AcMechDwgViewMgmt
 90
     1024
280
     0
281
     0
  0
CLASS
  1
ACMSTANDARDANSI
  2
AcmStandardANSI
  3
"Amdt_StdImp|Product Description: AutoCAD Mechanical|Company: Autodesk, Inc."
 90
     1024
280
     0
281
     0
  0
CLASS
  1
ACMSURFSTANDARDANSI
  2
AcmSurfTextStdANSI
  3
"Amdt_StdImp|Product Description: AutoCAD Mechanical|Company: Autodesk, Inc."
 90
     1024
280
     0
281
     0
  0
CLASS
  1
ACMFCFSTANDARDANSI
  2
AcmFCFStdANSI
  3
"Amdt_StdImp|Product Description: AutoCAD Mechanical|Company: Autodesk, Inc."
 90
     1024
280
     0
281
     0
  0
CLASS
  1
ACMWELDSTANDARDANSI
  2
AcmWeldingStdANSI
  3
"Amdt_StdImp|Product Description: AutoCAD Mechanical|Company: Autodesk, Inc."
 90
     1024
280
     0
281
     0
  0
CLASS
  1
ACMIDSTANDARDANSI
  2
AcmIdStdANSI
  3
"Amdt_StdImp|Product Description: AutoCAD Mechanical|Company: Autodesk, Inc."
 90
     1024
280
     0
281
     0
  0
CLASS
  1
ACMDATUMSTANDARDANSI
  2
AcmDatumStdANSI
  3
"Amdt_StdImp|Product Description: AutoCAD Mechanical|Company: Autodesk, Inc."
 90
     1024
280
     0
281
     0
  0
CLASS
  1
ACMBOMSTANDARDANSI
  2
AcmBOMStdANSI
  3
"Amdt_StdImp|Product Description: AutoCAD Mechanical|Company: Autodesk, Inc."
 90
     1024
280
     0
281
     0
  0
CLASS
  1
ACMDETAILSTANDARDANSI
  2
AmdtDetailSymStdANSI
  3
"Amdt_StdImp|Product Description: AutoCAD Mechanical|Company: Autodesk, Inc."
 90
     1024
280
     0
281
     0
  0
CLASS
  1
ACMSECTIONSTANDARDANSI
  2
AmdtSectionSymStdANSI
  3
"Amdt_StdImp|Product Description: AutoCAD Mechanical|Company: Autodesk, Inc."
 90
     1024
280
     0
281
     0
  0
CLASS
  1
ACMCENTERLINESTANDARDANSI
  2
AmdtCenterLineStdANSI
  3
"Amdt_StdImp|Product Description: AutoCAD Mechanical|Company: Autodesk, Inc."
 90
     1024
280
     0
281
     0
  0
CLASS
  1
ACMTHREADLINESTANDARDANSI
  2
AmdtThreadLineStdANSI
  3
"Amdt_StdImp|Product Description: AutoCAD Mechanical|Company: Autodesk, Inc."
 90
     1024
280
     0
281
     0
  0
CLASS
  1
ACMNOTESTANDARDANSI
  2
AmdtNoteStdANSI
  3
"Amdt_StdImp|Product Description: AutoCAD Mechanical|Company: Autodesk, Inc."
 90
     1024
280
     0
281
     0
  0
CLASS
  1
ACMTAPERSTANDARDANSI
  2
AcmTaperStdANSI
  3
"Amdt_StdImp|Product Description: AutoCAD Mechanical|Company: Autodesk, Inc."
 90
     1024
280
     0
281
     0
  0
CLASS
  1
ACMANOOTATIONVIEWSTANDARDANSI
  2
AmdtAnViewStdANSI
  3
"Amdt_StdImp|Product Description: AutoCAD Mechanical|Company: Autodesk, Inc."
 90
     1024
280
     0
281
     0
  0
CLASS
  1
ACAMGLAYSTD
  2
AcAmgLayStd
  3
"AmgLay|Product Description: AutoCAD Mechanical|Company: Autodesk, Inc."
 90
     1024
280
     0
281
     0
  0
CLASS
  1
ACAMGDIMSTD
  2
AcAmgDimStd
  3
"AmgDim|Product Description: AutoCAD Mechanical|Company: Autodesk, Inc."
 90
     1024
280
     0
281
     0
  0
CLASS
  1
ACAMGHOLECHARTSTDANSI
  2
AcAmgHoleChartStdANSI
  3
AmgDim|Product Description: AutoCAD Mechanical|Company: Autodesk, Inc.
 90
     1024
280
     0
281
     0
  0
CLASS
  1
AMGOBJPROPCFG
  2
AmgObjPropCfg
  3
"AmgLay|Product Description: AutoCAD Mechanical|Company: Autodesk, Inc."
 90
     1025
280
     0
281
     0
  0
CLASS
  1
ACAMGTITLESTD
  2
AcAmgTitleStd
  3
"AmgTitle|Product Description: AutoCAD Mechanical|Company: Autodesk, Inc."
 90
     4095
280
     0
281
     0
  0
CLASS
  1
AMDTNOTETEMPLATEDB
  2
AmdtNoteTemplateDB
  3
AcmSymBB|Product Description: AutoCAD Mechanical|Company: Autodesk, Inc.
 90
     1024
280
     0
281
     0
  0
CLASS
  1
LAYER_INDEX
  2
AcDbLayerIndex
  3
ObjectDBX Classes
 90
        0
280
     0
281
     0
  0
CLASS
  1
IDBUFFER
  2
AcDbIdBuffer
  3
ObjectDBX Classes
 90
        0
280
     0
281
     0
  0
CLASS
  1
DICTIONARYVAR
  2
AcDbDictionaryVar
  3
ObjectDBX Classes
 90
        0
280
     0
281
     0
  0
CLASS
  1
CELLSTYLEMAP
  2
AcDbCellStyleMap
  3
ObjectDBX Classes
 90
     1152
280
     0
281
     0
  0
CLASS
  1
ACDBPLACEHOLDER
  2
AcDbPlaceHolder
  3
ObjectDBX Classes
 90
        0
280
     0
281
     0
  0
CLASS
  1
LAYOUT
  2
AcDbLayout
  3
ObjectDBX Classes
 90
        0
280
     0
281
     0
  0
ENDSEC
  0
SECTION
  2
TABLES
  0
TABLE
  2
VPORT
  5
3369
330
0
100
AcDbSymbolTable
 70
     1
  0
VPORT
  5
33D9
330
3369
100
AcDbSymbolTableRecord
100
AcDbViewportTableRecord
  2
*ACTIVE
 70
     0
 10
0.0
 20
0.0
 11
1.0
 21
1.0
 12
0.0
 22
0.0
 13
0.0
 23
0.0
 14
1.0
 24
1.0
 15
0.0
 25
0.0
 16
0.0
 26
0.0
 36
1.0
 17
84.51920948517374
 27
-377.6321317740158
 37
0.0
 40
1999.485277660089
 41
1.712555066079295
 42
50.0
 43
0.0
 44
0.0
 50
0.0
 51
0.0
 71
     0
 72
   100
 73
     1
 74
     0
 75
     0
 76
     0
 77
     0
 78
     0
281
     0
 65
     0
110
0.0
120
0.0
130
0.0
111
1.0
121
0.0
131
0.0
112
0.0
122
1.0
132
0.0
 79
     0
146
0.0
  0
ENDTAB
  0
TABLE
  2
LTYPE
  5
3366
330
0
100
AcDbSymbolTable
 70
    20
  0
LTYPE
  5
33C3
330
3366
100
AcDbSymbolTableRecord
100
AcDbLinetypeTableRecord
  2
ByBlock
 70
     0
  3

 72
    65
 73
     0
 40
0.0
  0
LTYPE
  5
33C4
330
3366
100
AcDbSymbolTableRecord
100
AcDbLinetypeTableRecord
  2
ByLayer
 70
     0
  3

 72
    65
 73
     0
 40
0.0
  0
LTYPE
  5
33C5
330
3366
100
AcDbSymbolTableRecord
100
AcDbLinetypeTableRecord
  2
CONTINUOUS
 70
     0
  3
実線
 72
    65
 73
     0
 40
0.0
  0
LTYPE
  5
33DA
330
3366
100
AcDbSymbolTableRecord
100
AcDbLinetypeTableRecord
  2
DASHDOT
 70
     0
  3
____ _ ____ _ ____ _ ____ _ ____ _ ____ _ ____
 72
    65
 73
     4
 40
5.5
 49
4.0
 74
     0
 49
-0.6
 74
     0
 49
0.3
 74
     0
 49
-0.6
 74
     0
  0
LTYPE
  5
33DB
330
3366
100
AcDbSymbolTableRecord
100
AcDbLinetypeTableRecord
  2
HIDDEN
 70
     0
  3
Hidden __ __ __ __ __ __ __ __ __ __ __ __ __ _
 72
    65
 73
     2
 40
0.375
 49
0.25
 74
     0
 49
-0.125
 74
     0
  0
LTYPE
  5
33DC
330
3366
100
AcDbSymbolTableRecord
100
AcDbLinetypeTableRecord
  2
PHANTOM2
 70
     0
  3
Phantom (.5x) ___ _ _ ___ _ _ ___ _ _ ___ _ _
 72
    65
 73
     6
 40
1.25
 49
0.625
 74
     0
 49
-0.125
 74
     0
 49
0.125
 74
     0
 49
-0.125
 74
     0
 49
0.125
 74
     0
 49
-0.125
 74
     0
  0
LTYPE
  5
33DD
330
3366
100
AcDbSymbolTableRecord
100
AcDbLinetypeTableRecord
  2
CENTER
 70
     0
  3
Center ____ _ ____ _ ____ _ ____ _ ____ _ ____
 72
    65
 73
     4
 40
2.0
 49
1.25
 74
     0
 49
-0.25
 74
     0
 49
0.25
 74
     0
 49
-0.25
 74
     0
  0
LTYPE
  5
33DE
330
3366
100
AcDbSymbolTableRecord
100
AcDbLinetypeTableRecord
  2
ASULTYPE
 70
     0
  3
実線
 72
    65
 73
     2
 40
3.0
 49
2.5
 74
     0
 49
0.5
 74
     0
  0
LTYPE
  5
33DF
330
3366
100
AcDbSymbolTableRecord
100
AcDbLinetypeTableRecord
  2
ASVLTYPE
 70
     0
  3
__ __ __ __ __ __ __ __ __ __ __ __ __ __ __ __ __ __ __ __ __
 72
    65
 73
     2
 40
0.75
 49
0.5
 74
     0
 49
-0.25
 74
     0
  0
LTYPE
  5
33E0
330
3366
100
AcDbSymbolTableRecord
100
AcDbLinetypeTableRecord
  2
AM_ISO02W050
 70
     0
  3
__ __ __ __ __ __ __ __ __ __ __ __ __ __ __
 72
    65
 73
     2
 40
7.5
 49
6.0
 74
     0
 49
-1.5
 74
     0
  0
LTYPE
  5
33E1
330
3366
100
AcDbSymbolTableRecord
100
AcDbLinetypeTableRecord
  2
AM_ISO08W050
 70
     0
  3
____ . ____ . ____ . ____ . ____ . ____ . ____
 72
    65
 73
     4
 40
18.0
 49
12.0
 74
     0
 49
-1.5
 74
     0
 49
3.0
 74
     0
 49
-1.5
 74
     0
  0
LTYPE
  5
33E2
330
3366
100
AcDbSymbolTableRecord
100
AcDbLinetypeTableRecord
  2
AM_ISO09W050
 70
     0
  3
_____ . . _____ . . _____ . . ____ .. ____
 72
    65
 73
     6
 40
22.5
 49
12.0
 74
     0
 49
-1.5
 74
     0
 49
3.0
 74
     0
 49
-1.5
 74
     0
 49
3.0
 74
     0
 49
-1.5
 74
     0
  0
LTYPE
  5
33E3
330
3366
100
AcDbSymbolTableRecord
100
AcDbLinetypeTableRecord
  2
AMCONSTR
 70
     0
  3
_______________________
 72
    65
 73
     2
 40
9999.0
 49
9999.0
 74
     0
 49
0.0
 74
     0
  0
LTYPE
  5
33E4
330
3366
100
AcDbSymbolTableRecord
100
AcDbLinetypeTableRecord
  2
AM_ISO08W050X2
 70
     0
  3
__ . __ . __ . __ . __ . __
 72
    65
 73
     4
 40
9.0
 49
6.0
 74
     0
 49
-0.75
 74
     0
 49
1.5
 74
     0
 49
-0.75
 74
     0
  0
LTYPE
  5
33E5
330
3366
100
AcDbSymbolTableRecord
100
AcDbLinetypeTableRecord
  2
AM_ISO02W050X2
 70
     0
  3
 _ _ _ _ _ _ _ _ _ _ _ _
 72
    65
 73
     2
 40
3.75
 49
3.0
 74
     0
 49
-0.75
 74
     0
  0
LTYPE
  5
33E6
330
3366
100
AcDbSymbolTableRecord
100
AcDbLinetypeTableRecord
  2
AMZIGZAG
 70
     0
  3
/\/-/\/-/\/-/\/-/\/-/\/
 72
    65
 73
     2
 40
11.0001
 49
0.0001
 74
     0
 49
-11.0
 74
     0
  0
LTYPE
  5
33E7
330
3366
100
AcDbSymbolTableRecord
100
AcDbLinetypeTableRecord
  2
CENTER2
 70
     0
  3
Center (.5x) ___ _ ___ _ ___ _ ___ _ ___ _ ___
 72
    65
 73
     4
 40
1.125
 49
0.75
 74
     0
 49
-0.125
 74
     0
 49
0.125
 74
     0
 49
-0.125
 74
     0
  0
LTYPE
  5
33E8
330
3366
100
AcDbSymbolTableRecord
100
AcDbLinetypeTableRecord
  2
HIDDEN2
 70
     0
  3
Hidden (.5x) _ _ _ _ _ _ _ _ _ _ _ _ _ _ _ _ _
 72
    65
 73
     2
 40
0.1875
 49
0.125
 74
     0
 49
-0.0625
 74
     0
  0
LTYPE
  5
33E9
330
3366
100
AcDbSymbolTableRecord
100
AcDbLinetypeTableRecord
  2
AMZIGZAG2
 70
     0
  3
/\/-/\/-/\/-/\/-/\/-/\/
 72
    65
 73
     2
 40
0.4401
 49
0.0001
 74
     0
 49
-0.4400000000000003
 74
     0
  0
LTYPE
  5
33EA
330
3366
100
AcDbSymbolTableRecord
100
AcDbLinetypeTableRecord
  2
ACANSTGB
 70
     0
  3
__ . . __ . .
 72
    65
 73
     6
 40
0.35433070866
 49
0.15748031496
 74
     0
 49
-0.03937007874
 74
     0
 49
0.03937007874
 74
     0
 49
-0.03937007874
 74
     0
 49
0.03937007874
 74
     0
 49
-0.03937007874
 74
     0
  0
LTYPE
  5
33EB
330
3366
100
AcDbSymbolTableRecord
100
AcDbLinetypeTableRecord
  2
ACANSTGL
 70
     0
  3
_ _ _ _ _
 72
    65
 73
     2
 40
0.11811023622
 49
0.07874015748
 74
     0
 49
-0.03937007874
 74
     0
  0
LTYPE
  5
33EC
330
3366
100
AcDbSymbolTableRecord
100
AcDbLinetypeTableRecord
  2
CENTERX2
 70
     0
  3
________  __  ________  __  ________  __  _____
 72
    65
 73
     4
 40
4.0
 49
2.5
 74
     0
 49
-0.5
 74
     0
 49
0.5
 74
     0
 49
-0.5
 74
     0
  0
ENDTAB
  0
TABLE
  2
LAYER
  5
3363
330
0
100
AcDbSymbolTable
 70
    14
  0
LAYER
  5
33BD
102
{ACAD_XDICTIONARY
360
3543
102
}
330
3363
100
AcDbSymbolTableRecord
100
AcDbLayerTableRecord
  2
0
 70
     0
 62
     7
  6
CONTINUOUS
370
    -3
390
3370
  0
LAYER
  5
33ED
102
{ACAD_XDICTIONARY
360
3545
102
}
330
3363
100
AcDbSymbolTableRecord
100
AcDbLayerTableRecord
  2
OUTLINE
 70
     0
 62
     3
  6
CONTINUOUS
370
    -3
390
3370
  0
LAYER
  5
33EE
102
{ACAD_XDICTIONARY
360
3547
102
}
330
3363
100
AcDbSymbolTableRecord
100
AcDbLayerTableRecord
  2
SIZE
 70
     0
 62
    30
  6
CONTINUOUS
370
    -3
390
3370
  0
LAYER
  5
33EF
102
{ACAD_XDICTIONARY
360
3549
102
}
330
3363
100
AcDbSymbolTableRecord
100
AcDbLayerTableRecord
  2
BASIS
 70
     0
 62
     6
  6
DASHDOT
370
    -3
390
3370
  0
LAYER
  5
33F0
102
{ACAD_XDICTIONARY
360
354B
102
}
330
3363
100
AcDbSymbolTableRecord
100
AcDbLayerTableRecord
  2
DETAIL
 70
     0
 62
     5
  6
CONTINUOUS
370
    -3
390
3370
  0
LAYER
  5
33F1
102
{ACAD_XDICTIONARY
360
354D
102
}
330
3363
100
AcDbSymbolTableRecord
100
AcDbLayerTableRecord
  2
ARRANGE
 70
     0
 62
     1
  6
CONTINUOUS
370
    -3
390
3370
  0
LAYER
  5
33F2
330
3363
100
AcDbSymbolTableRecord
100
AcDbLayerTableRecord
  2
DEFPOINTS
 70
     0
 62
     7
  6
CONTINUOUS
290
     0
370
    -3
390
3370
  0
LAYER
  5
33F3
102
{ACAD_XDICTIONARY
360
354F
102
}
330
3363
100
AcDbSymbolTableRecord
100
AcDbLayerTableRecord
  2
ETC
 70
     0
 62
    61
  6
CONTINUOUS
370
    -3
390
3370
  0
LAYER
  5
33F4
102
{ACAD_XDICTIONARY
360
3551
102
}
330
3363
100
AcDbSymbolTableRecord
100
AcDbLayerTableRecord
  2
FIX
 70
     0
 62
    11
  6
CONTINUOUS
370
    -3
390
3370
  0
LAYER
  5
33F5
102
{ACAD_XDICTIONARY
360
3553
102
}
330
3363
100
AcDbSymbolTableRecord
100
AcDbLayerTableRecord
  2
NOTE
 70
     0
 62
     4
  6
CONTINUOUS
370
    -3
390
3370
  0
LAYER
  5
33F6
102
{ACAD_XDICTIONARY
360
3555
102
}
330
3363
100
AcDbSymbolTableRecord
100
AcDbLayerTableRecord
  2
SERVICESPACE
 70
     0
 62
     2
  6
DASHDOT
370
    -3
390
3370
  0
LAYER
  5
33F7
102
{ACAD_XDICTIONARY
360
3557
102
}
330
3363
100
AcDbSymbolTableRecord
100
AcDbLayerTableRecord
  2
SYMBOLLINE
 70
     0
 62
    15
  6
CONTINUOUS
370
    -3
390
3370
  0
LAYER
  5
33F8
102
{ACAD_XDICTIONARY
360
3559
102
}
330
3363
100
AcDbSymbolTableRecord
100
AcDbLayerTableRecord
  2
DETAIL___1
 70
     0
 62
     5
  6
CONTINUOUS
370
    -3
390
3370
  0
LAYER
  5
33F9
102
{ACAD_XDICTIONARY
360
355B
102
}
330
3363
100
AcDbSymbolTableRecord
100
AcDbLayerTableRecord
  2
BASIC
 70
     0
 62
     6
  6
CENTERX2
370
    -3
390
3370
  0
ENDTAB
  0
TABLE
  2
STYLE
  5
3364
330
0
100
AcDbSymbolTable
 70
     5
  0
STYLE
  5
33BE
330
3364
100
AcDbSymbolTableRecord
100
AcDbTextStyleTableRecord
  2
STANDARD
 70
     0
 40
64.0
 41
0.9
 50
0.0
 71
     0
 42
64.0
  3
SIMPLEX.shx
  4
BIGFONT.shx
  0
STYLE
  5
33C2
330
3364
100
AcDbSymbolTableRecord
100
AcDbTextStyleTableRecord
  2
ANNOTATIVE
 70
     0
 40
0.0
 41
1.0
 50
0.0
 71
     0
 42
0.2
  3
txt
  4

1001
ACADANNOTATIVE
1000
AnnotativeData
1002
{
1070
     1
1070
     1
1002
}
  0
STYLE
  5
33FA
330
3364
100
AcDbSymbolTableRecord
100
AcDbTextStyleTableRecord
  2

 70
     1
 40
0.0
 41
1.0
 50
0.0
 71
     0
 42
64.0
  3
genltshp.shx
  4

  0
STYLE
  5
33FB
330
3364
100
AcDbSymbolTableRecord
100
AcDbTextStyleTableRecord
  2
ACANSTS
 70
     0
 40
1.0
 41
1.0
 50
0.0
 71
     0
 42
64.0
  3
romans.shx
  4
extfont.shx
  0
STYLE
  5
33FC
330
3364
100
AcDbSymbolTableRecord
100
AcDbTextStyleTableRecord
  2
ACANSGDT
 70
     0
 40
0.0
 41
1.0
 50
0.0
 71
     0
 42
64.0
  3
amgdt.shx
  4

  0
ENDTAB
  0
TABLE
  2
VIEW
  5
3367
330
0
100
AcDbSymbolTable
 70
     1
  0
VIEW
  5
33FD
330
3367
100
AcDbSymbolTableRecord
100
AcDbViewTableRecord
  2
ALL
 70
     0
 40
4282.619807999997
 10
0.0
 20
41.30990399999999
 41
5940.0
 11
0.0
 21
0.0
 31
1.0
 12
0.0
 22
0.0
 32
0.0
 42
50.0
 43
0.0
 44
0.0
 50
0.0
 71
     0
281
     0
 72
     1
110
0.0
120
0.0
130
0.0
111
1.0
121
0.0
131
0.0
112
0.0
122
1.0
132
0.0
 79
     0
146
0.0
  0
ENDTAB
  0
TABLE
  2
UCS
  5
3368
330
0
100
AcDbSymbolTable
 70
     0
  0
ENDTAB
  0
TABLE
  2
APPID
  5
336A
330
0
100
AcDbSymbolTable
 70
    31
  0
APPID
  5
33BF
330
336A
100
AcDbSymbolTableRecord
100
AcDbRegAppTableRecord
  2
ACAD
 70
     0
  0
APPID
  5
33C6
330
336A
100
AcDbSymbolTableRecord
100
AcDbRegAppTableRecord
  2
ACADANNOTATIVE
 70
     0
  0
APPID
  5
33D0
330
336A
100
AcDbSymbolTableRecord
100
AcDbRegAppTableRecord
  2
ACAD_MLEADERVER
 70
     0
  0
APPID
  5
33FE
330
336A
100
AcDbSymbolTableRecord
100
AcDbRegAppTableRecord
  2
GENIUS_GENDIM_13
 70
     0
  0
APPID
  5
33FF
330
336A
100
AcDbSymbolTableRecord
100
AcDbRegAppTableRecord
  2
GENIUS_GENDTOL_13
 70
     0
  0
APPID
  5
3400
330
336A
100
AcDbSymbolTableRecord
100
AcDbRegAppTableRecord
  2
GENIUS_GE3DTOL_13
 70
     0
  0
APPID
  5
3401
330
336A
100
AcDbSymbolTableRecord
100
AcDbRegAppTableRecord
  2
MCAD_NO_VIS
 70
     0
  0
APPID
  5
3402
330
336A
100
AcDbSymbolTableRecord
100
AcDbRegAppTableRecord
  2
ACAD_TEMP_GRAPHIC
 70
     0
  0
APPID
  5
3403
330
336A
100
AcDbSymbolTableRecord
100
AcDbRegAppTableRecord
  2
AD_DRAW
 70
     0
  0
APPID
  5
3404
330
336A
100
AcDbSymbolTableRecord
100
AcDbRegAppTableRecord
  2
ACATTRIBSERVICES
 70
     0
  0
APPID
  5
3405
330
336A
100
AcDbSymbolTableRecord
100
AcDbRegAppTableRecord
  2
ASURF_PCURVE_APPNAME
 70
     0
  0
APPID
  5
3406
330
336A
100
AcDbSymbolTableRecord
100
AcDbRegAppTableRecord
  2
AMG_3D2D_5_0
 70
     0
  0
APPID
  5
3407
330
336A
100
AcDbSymbolTableRecord
100
AcDbRegAppTableRecord
  2
DESIGNERASSEMBLIES
 70
     0
  0
APPID
  5
3408
330
336A
100
AcDbSymbolTableRecord
100
AcDbRegAppTableRecord
  2
ACADM_DIM_EDIT
 70
     0
  0
APPID
  5
3409
330
336A
100
AcDbSymbolTableRecord
100
AcDbRegAppTableRecord
  2
AMDT_DM_ADJ
 70
     0
  0
APPID
  5
340A
330
336A
100
AcDbSymbolTableRecord
100
AcDbRegAppTableRecord
  2
ACAD_DSTYLE_DIMARC_LENGTH_
 70
     0
  0
APPID
  5
340B
330
336A
100
AcDbSymbolTableRecord
100
AcDbRegAppTableRecord
  2
ACAD_DSTYLE_DIMJOGGED_JOGA
 70
     0
  0
APPID
  5
340C
330
336A
100
AcDbSymbolTableRecord
100
AcDbRegAppTableRecord
  2
ACAD_PSEXT
 70
     0
  0
APPID
  5
340D
330
336A
100
AcDbSymbolTableRecord
100
AcDbRegAppTableRecord
  2
ACAD_EXEMPT_FROM_CAD_STANDARDS
 70
     0
  0
APPID
  5
340E
330
336A
100
AcDbSymbolTableRecord
100
AcDbRegAppTableRecord
  2
ACAD_DSTYLE_DIMJAG
 70
     0
  0
APPID
  5
340F
330
336A
100
AcDbSymbolTableRecord
100
AcDbRegAppTableRecord
  2
ACAD_DSTYLE_DIMTALN
 70
     0
  0
APPID
  5
3410
330
336A
100
AcDbSymbolTableRecord
100
AcDbRegAppTableRecord
  2
AMG_3D2D_5_00
 70
     0
  0
APPID
  5
3411
330
336A
100
AcDbSymbolTableRecord
100
AcDbRegAppTableRecord
  2
AMG_3D2D_5_01
 70
     0
  0
APPID
  5
3412
330
336A
100
AcDbSymbolTableRecord
100
AcDbRegAppTableRecord
  2
AMG_3D2D_5_02
 70
     0
  0
APPID
  5
3413
330
336A
100
AcDbSymbolTableRecord
100
AcDbRegAppTableRecord
  2
AMG_3D2D_5_03
 70
     0
  0
APPID
  5
3414
330
336A
100
AcDbSymbolTableRecord
100
AcDbRegAppTableRecord
  2
AMG_3D2D_5_04
 70
     0
  0
APPID
  5
34EA
330
336A
100
AcDbSymbolTableRecord
100
AcDbRegAppTableRecord
  2
AMG_3D2D_5.0
 70
     0
  0
APPID
  5
3586
330
336A
100
AcDbSymbolTableRecord
100
AcDbRegAppTableRecord
  2
ACAD_DSTYLE_DIMARC_LENGTH_SYMBOL
 70
     0
  0
APPID
  5
3587
330
336A
100
AcDbSymbolTableRecord
100
AcDbRegAppTableRecord
  2
ACAD_DSTYLE_DIM_LINETYPE
 70
     0
  0
APPID
  5
3588
330
336A
100
AcDbSymbolTableRecord
100
AcDbRegAppTableRecord
  2
ACAD_DSTYLE_DIM_EXT1_LINETYPE
 70
     0
  0
APPID
  5
3589
330
336A
100
AcDbSymbolTableRecord
100
AcDbRegAppTableRecord
  2
ACAD_DSTYLE_DIM_EXT2_LINETYPE
 70
     0
  0
ENDTAB
  0
TABLE
  2
DIMSTYLE
  5
336B
330
0
100
AcDbSymbolTable
 70
    10
100
AcDbDimStyleTable
 71
     1
340
3415
  0
DIMSTYLE
105
33C0
330
336B
100
AcDbSymbolTableRecord
100
AcDbDimStyleTableRecord
  2
STANDARD
 70
     0
 41
12.0
 42
20.0
 44
20.0
 77
     1
 78
     8
140
64.0
141
0.0
147
10.0
172
     1
275
     1
279
     2
284
     7
285
     7
286
     7
340
33BE
  0
DIMSTYLE
105
33C1
330
336B
100
AcDbSymbolTableRecord
100
AcDbDimStyleTableRecord
  2
ANNOTATIVE
 70
     0
275
     1
279
     2
284
     7
285
     7
286
     7
340
33BE
1001
ACADANNOTATIVE
1000
AnnotativeData
1002
{
1070
     1
1070
     1
1002
}
  0
DIMSTYLE
105
3415
330
336B
100
AcDbSymbolTableRecord
100
AcDbDimStyleTableRecord
  2
AM_ANSI
 70
     0
  4
mm
 41
0.12
 42
0.05
 43
0.5
 44
0.1
 47
0.1
 48
0.1
 78
     7
 79
     2
140
0.12
141
0.0
146
0.71
147
0.06
176
   256
177
   256
178
     2
274
     4
284
     7
340
33BE
371
    -1
372
    -1
1001
ACAD_DSTYLE_DIMARC_LENGTH_SYMBOL
1070
   379
1070
     1
1001
ACAD_DSTYLE_DIM_LINETYPE
1070
   380
1005
33C3
1001
ACAD_DSTYLE_DIM_EXT1_LINETYPE
1070
   381
1005
33C3
1001
ACAD_DSTYLE_DIM_EXT2_LINETYPE
1070
   382
1005
33C3
  0
DIMSTYLE
105
3416
330
336B
100
AcDbSymbolTableRecord
100
AcDbDimStyleTableRecord
  2
AM_ANSI$3
 70
     0
  4
mm
 41
0.12
 42
0.05
 43
0.5
 44
0.1
 47
0.1
 48
0.1
 78
     7
 79
     2
140
0.12
141
0.0
146
0.71
147
0.06
176
   256
177
   256
178
     2
274
     4
284
     7
288
     1
289
     0
340
33BE
371
    -1
372
    -1
1001
ACAD_DSTYLE_DIMARC_LENGTH_SYMBOL
1070
   379
1070
     1
1001
ACAD_DSTYLE_DIM_LINETYPE
1070
   380
1005
33C3
1001
ACAD_DSTYLE_DIM_EXT1_LINETYPE
1070
   381
1005
33C3
1001
ACAD_DSTYLE_DIM_EXT2_LINETYPE
1070
   382
1005
33C3
  0
DIMSTYLE
105
3417
330
336B
100
AcDbSymbolTableRecord
100
AcDbDimStyleTableRecord
  2
AM_ANSI$4
 70
     0
  4
mm
 41
0.12
 42
0.05
 43
0.5
 44
0.1
 47
0.1
 48
0.1
 78
     7
 79
     2
140
0.12
141
0.0
146
0.71
147
0.06
176
   256
177
   256
178
     2
274
     4
284
     7
340
33BE
371
    -1
372
    -1
1001
ACAD_DSTYLE_DIMARC_LENGTH_SYMBOL
1070
   379
1070
     1
1001
ACAD_DSTYLE_DIM_LINETYPE
1070
   380
1005
33C3
1001
ACAD_DSTYLE_DIM_EXT1_LINETYPE
1070
   381
1005
33C3
1001
ACAD_DSTYLE_DIM_EXT2_LINETYPE
1070
   382
1005
33C3
  0
DIMSTYLE
105
3418
330
336B
100
AcDbSymbolTableRecord
100
AcDbDimStyleTableRecord
  2
AM_ANSI$7
 70
     0
  4
mm
 41
0.12
 42
0.05
 43
0.5
 44
0.1
 47
0.1
 48
0.1
 78
     7
 79
     2
140
0.12
141
0.0
146
0.71
147
0.06
176
   256
177
   256
178
     2
274
     4
284
     7
340
33BE
371
    -1
372
    -1
1001
ACAD_DSTYLE_DIMARC_LENGTH_SYMBOL
1070
   379
1070
     1
1001
ACAD_DSTYLE_DIM_LINETYPE
1070
   380
1005
33C3
1001
ACAD_DSTYLE_DIM_EXT1_LINETYPE
1070
   381
1005
33C3
1001
ACAD_DSTYLE_DIM_EXT2_LINETYPE
1070
   382
1005
33C3
  0
DIMSTYLE
105
3419
330
336B
100
AcDbSymbolTableRecord
100
AcDbDimStyleTableRecord
  2
AM_ANSI$SF
 70
     0
  4
mm
 41
0.12
 42
0.05
 43
0.5
 44
0.1
 47
0.1
 48
0.1
 75
     1
 76
     1
 78
     7
 79
     2
140
0.12
141
0.0
146
0.71
147
0.06
176
   256
177
   256
178
     2
274
     4
284
     7
340
33BE
371
    -1
372
    -1
1001
ACAD_DSTYLE_DIMARC_LENGTH_SYMBOL
1070
   379
1070
     1
1001
ACAD_DSTYLE_DIM_LINETYPE
1070
   380
1005
33C3
1001
ACAD_DSTYLE_DIM_EXT1_LINETYPE
1070
   381
1005
33C3
1001
ACAD_DSTYLE_DIM_EXT2_LINETYPE
1070
   382
1005
33C3
  0
DIMSTYLE
105
341A
330
336B
100
AcDbSymbolTableRecord
100
AcDbDimStyleTableRecord
  2
AM_ANSI$SH
 70
     0
  4
mm
 41
0.12
 42
0.05
 43
0.5
 44
0.1
 47
0.1
 48
0.1
 75
     1
 76
     1
 78
     7
 79
     2
140
0.12
141
0.0
146
0.71
147
0.06
173
     1
176
   256
177
   256
178
     2
274
     4
284
     7
340
33BE
343
342E
371
    -1
372
    -1
1001
ACAD_DSTYLE_DIMARC_LENGTH_SYMBOL
1070
   379
1070
     1
1001
ACAD_DSTYLE_DIM_LINETYPE
1070
   380
1005
33C3
1001
ACAD_DSTYLE_DIM_EXT1_LINETYPE
1070
   381
1005
33C3
1001
ACAD_DSTYLE_DIM_EXT2_LINETYPE
1070
   382
1005
33C3
  0
DIMSTYLE
105
341B
330
336B
100
AcDbSymbolTableRecord
100
AcDbDimStyleTableRecord
  2
STANDARD1
 70
     0
 40
6.0
 41
2.5
 42
0.625
 43
6.0
 44
1.25
 47
1.0
 48
0.5
 77
     1
 78
     8
140
2.5
141
0.0
146
0.6
147
1.0
173
     1
275
     1
279
     2
284
     7
285
     7
286
     7
340
33BE
  0
DIMSTYLE
105
341C
330
336B
100
AcDbSymbolTableRecord
100
AcDbDimStyleTableRecord
  2
STANDARD$0
 70
     0
 41
12.0
 42
20.0
 44
20.0
 73
     0
 74
     0
 77
     1
 78
     8
140
64.0
141
0.0
147
10.0
172
     1
275
     1
279
     2
284
     7
285
     7
286
     7
340
33BE
  0
ENDTAB
  0
TABLE
  2
BLOCK_RECORD
  5
3362
330
0
100
AcDbSymbolTable
 70
    35
  0
BLOCK_RECORD
  5
33D5
102
{ACAD_XDICTIONARY
360
355D
102
}
330
3362
100
AcDbSymbolTableRecord
100
AcDbBlockTableRecord
  2
*Model_Space
340
33D8
  0
BLOCK_RECORD
  5
33D1
330
3362
100
AcDbSymbolTableRecord
100
AcDbBlockTableRecord
  2
*Paper_Space
340
33D4
  0
BLOCK_RECORD
  5
3424
330
3362
100
AcDbSymbolTableRecord
100
AcDbBlockTableRecord
  2
$MODEL_SPACE
340
0
  0
BLOCK_RECORD
  5
3426
330
3362
100
AcDbSymbolTableRecord
100
AcDbBlockTableRecord
  2
$PAPER_SPACE
340
0
  0
BLOCK_RECORD
  5
3428
330
3362
100
AcDbSymbolTableRecord
100
AcDbBlockTableRecord
  2
_ORIGIN
340
0
  0
BLOCK_RECORD
  5
342A
330
3362
100
AcDbSymbolTableRecord
100
AcDbBlockTableRecord
  2
_DOTBLANK
340
0
102
{BLKREFS
331
202C
331
202D
331
2035
331
2036
331
203E
331
203F
331
2047
331
2048
331
2052
331
2053
331
205D
331
205E
331
32FD
331
32FE
331
3302
331
3303
331
3307
331
3308
331
330E
331
330F
331
3313
331
3314
331
3318
331
3319
102
}
  0
BLOCK_RECORD
  5
342C
330
3362
100
AcDbSymbolTableRecord
100
AcDbBlockTableRecord
  2
_OPEN30
340
0
102
{BLKREFS
331
2199
331
261A
331
2A62
331
3045
102
}
  0
BLOCK_RECORD
  5
342E
330
3362
100
AcDbSymbolTableRecord
100
AcDbBlockTableRecord
  2
GENAXEH
340
0
  0
BLOCK_RECORD
  5
3430
330
3362
100
AcDbSymbolTableRecord
100
AcDbBlockTableRecord
  2
*U6
340
0
  0
BLOCK_RECORD
  5
3432
330
3362
100
AcDbSymbolTableRecord
100
AcDbBlockTableRecord
  2
*D7
340
0
  0
BLOCK_RECORD
  5
3434
330
3362
100
AcDbSymbolTableRecord
100
AcDbBlockTableRecord
  2
*U8
340
0
102
{BLKREFS
331
202E
102
}
  0
BLOCK_RECORD
  5
3436
330
3362
100
AcDbSymbolTableRecord
100
AcDbBlockTableRecord
  2
*D9
340
0
  0
BLOCK_RECORD
  5
3438
330
3362
100
AcDbSymbolTableRecord
100
AcDbBlockTableRecord
  2
*U10
340
0
102
{BLKREFS
331
2037
102
}
  0
BLOCK_RECORD
  5
343A
330
3362
100
AcDbSymbolTableRecord
100
AcDbBlockTableRecord
  2
*D11
340
0
  0
BLOCK_RECORD
  5
343C
330
3362
100
AcDbSymbolTableRecord
100
AcDbBlockTableRecord
  2
*U12
340
0
102
{BLKREFS
331
2040
102
}
  0
BLOCK_RECORD
  5
343E
330
3362
100
AcDbSymbolTableRecord
100
AcDbBlockTableRecord
  2
*D13
340
0
  0
BLOCK_RECORD
  5
3440
330
3362
100
AcDbSymbolTableRecord
100
AcDbBlockTableRecord
  2
*U14
340
0
102
{BLKREFS
331
2049
102
}
  0
BLOCK_RECORD
  5
3442
330
3362
100
AcDbSymbolTableRecord
100
AcDbBlockTableRecord
  2
*D15
340
0
  0
BLOCK_RECORD
  5
3444
330
3362
100
AcDbSymbolTableRecord
100
AcDbBlockTableRecord
  2
*U16
340
0
102
{BLKREFS
331
2054
102
}
  0
BLOCK_RECORD
  5
3446
330
3362
100
AcDbSymbolTableRecord
100
AcDbBlockTableRecord
  2
*D17
340
0
  0
BLOCK_RECORD
  5
3448
330
3362
100
AcDbSymbolTableRecord
100
AcDbBlockTableRecord
  2
*U18
340
0
102
{BLKREFS
331
205F
102
}
  0
BLOCK_RECORD
  5
344A
330
3362
100
AcDbSymbolTableRecord
100
AcDbBlockTableRecord
  2
*U19
340
0
  0
BLOCK_RECORD
  5
344C
330
3362
100
AcDbSymbolTableRecord
100
AcDbBlockTableRecord
  2
*U20
340
0
  0
BLOCK_RECORD
  5
344E
330
3362
100
AcDbSymbolTableRecord
100
AcDbBlockTableRecord
  2
*X21
340
0
  0
BLOCK_RECORD
  5
3450
330
3362
100
AcDbSymbolTableRecord
100
AcDbBlockTableRecord
  2
*X22
340
0
  0
BLOCK_RECORD
  5
3452
330
3362
100
AcDbSymbolTableRecord
100
AcDbBlockTableRecord
  2
*U23
340
0
  0
BLOCK_RECORD
  5
3454
330
3362
100
AcDbSymbolTableRecord
100
AcDbBlockTableRecord
  2
*X24
340
0
  0
BLOCK_RECORD
  5
3456
330
3362
100
AcDbSymbolTableRecord
100
AcDbBlockTableRecord
  2
*X25
340
0
  0
BLOCK_RECORD
  5
3458
330
3362
100
AcDbSymbolTableRecord
100
AcDbBlockTableRecord
  2
*X26
340
0
  0
BLOCK_RECORD
  5
345A
330
3362
100
AcDbSymbolTableRecord
100
AcDbBlockTableRecord
  2
*X27
340
0
  0
BLOCK_RECORD
  5
345C
330
3362
100
AcDbSymbolTableRecord
100
AcDbBlockTableRecord
  2
*U28
340
0
  0
BLOCK_RECORD
  5
345E
330
3362
100
AcDbSymbolTableRecord
100
AcDbBlockTableRecord
  2
*X29
340
0
  0
BLOCK_RECORD
  5
3460
330
3362
100
AcDbSymbolTableRecord
100
AcDbBlockTableRecord
  2
*X30
340
0
  0
BLOCK_RECORD
  5
3462
330
3362
100
AcDbSymbolTableRecord
100
AcDbBlockTableRecord
  2
*U31
340
0
102
{BLKREFS
331
32B1
102
}
  0
BLOCK_RECORD
  5
3464
330
3362
100
AcDbSymbolTableRecord
100
AcDbBlockTableRecord
  2
*X32
340
0
102
{BLKREFS
331
32E7
102
}
  0
BLOCK_RECORD
  5
3466
330
3362
100
AcDbSymbolTableRecord
100
AcDbBlockTableRecord
  2
*X33
340
0
102
{BLKREFS
331
32E8
102
}
  0
ENDTAB
  0
ENDSEC
  0
SECTION
  2
BLOCKS
  0
BLOCK
  5
33D6
330
33D5
100
AcDbEntity
  8
0
100
AcDbBlockBegin
  2
*Model_Space
 70
     0
 10
0.0
 20
0.0
 30
0.0
  3
*Model_Space
  1

  0
ENDBLK
  5
33D7
330
33D5
100
AcDbEntity
  8
0
100
AcDbBlockEnd
  0
BLOCK
  5
33D2
330
33D1
100
AcDbEntity
 67
     1
  8
0
100
AcDbBlockBegin
  2
*Paper_Space
 70
     0
 10
0.0
 20
0.0
 30
0.0
  3
*Paper_Space
  1

  0
ENDBLK
  5
33D3
330
33D1
100
AcDbEntity
 67
     1
  8
0
100
AcDbBlockEnd
  0
BLOCK
  5
3425
330
3424
100
AcDbEntity
  8
0
100
AcDbBlockBegin
  2
$MODEL_SPACE
 70
     0
 10
0.0
 20
0.0
 30
0.0
  3
$MODEL_SPACE
  1

  0
ENDBLK
  5
2EDF
330
3424
100
AcDbEntity
  8
0
100
AcDbBlockEnd
  0
BLOCK
  5
3427
330
3426
100
AcDbEntity
  8
0
100
AcDbBlockBegin
  2
$PAPER_SPACE
 70
     0
 10
0.0
 20
0.0
 30
0.0
  3
$PAPER_SPACE
  1

  0
ENDBLK
  5
2EDB
330
3426
100
AcDbEntity
  8
0
100
AcDbBlockEnd
  0
BLOCK
  5
3429
330
3428
100
AcDbEntity
  8
0
100
AcDbBlockBegin
  2
_ORIGIN
 70
     0
 10
0.0
 20
0.0
 30
0.0
  3
_ORIGIN
  1

  0
CIRCLE
  5
880
330
3428
100
AcDbEntity
  8
0
  6
Continuous
 62
     7
100
AcDbCircle
 10
0.0
 20
0.0
 30
0.0
 40
0.5
  0
LINE
  5
881
330
3428
100
AcDbEntity
  8
0
  6
Continuous
 62
     7
100
AcDbLine
 10
0.0
 20
0.0
 30
0.0
 11
-1.0
 21
0.0
 31
0.0
  0
ENDBLK
  5
882
330
3428
100
AcDbEntity
  8
0
100
AcDbBlockEnd
  0
BLOCK
  5
342B
330
342A
100
AcDbEntity
  8
0
 62
     1
100
AcDbBlockBegin
  2
_DOTBLANK
 70
     0
 10
0.0
 20
0.0
 30
0.0
  3
_DOTBLANK
  1

  0
CIRCLE
  5
AB3
330
342A
100
AcDbEntity
  8
0
  6
ByBlock
 62
     0
100
AcDbCircle
 10
0.0
 20
0.0
 30
0.0
 40
0.5
  0
LINE
  5
AB4
330
342A
100
AcDbEntity
  8
0
  6
ByBlock
 62
     0
100
AcDbLine
 10
-0.5
 20
0.0
 30
0.0
 11
-1.0
 21
0.0
 31
0.0
  0
ENDBLK
  5
AB6
330
342A
100
AcDbEntity
  8
0
 62
     1
100
AcDbBlockEnd
  0
BLOCK
  5
342D
330
342C
100
AcDbEntity
  8
0
 62
     1
100
AcDbBlockBegin
  2
_OPEN30
 70
     0
 10
0.0
 20
0.0
 30
0.0
  3
_OPEN30
  1

  0
LINE
  5
AB8
330
342C
100
AcDbEntity
  8
0
  6
ByBlock
 62
     0
100
AcDbLine
 10
-1.0
 20
0.26794919
 30
0.0
 11
0.0
 21
0.0
 31
0.0
  0
LINE
  5
AB9
330
342C
100
AcDbEntity
  8
0
  6
ByBlock
 62
     0
100
AcDbLine
 10
0.0
 20
0.0
 30
0.0
 11
-1.0
 21
-0.26794919
 31
0.0
  0
LINE
  5
ABA
330
342C
100
AcDbEntity
  8
0
  6
ByBlock
 62
     0
100
AcDbLine
 10
0.0
 20
0.0
 30
0.0
 11
-1.0
 21
0.0
 31
0.0
  0
ENDBLK
  5
ABC
330
342C
100
AcDbEntity
  8
0
 62
     1
100
AcDbBlockEnd
  0
BLOCK
  5
342F
330
342E
100
AcDbEntity
  8
0
100
AcDbBlockBegin
  2
GENAXEH
 70
     0
 10
0.0
 20
0.0
 30
0.0
  3
GENAXEH
  1

  0
LINE
  5
FDB
330
342E
100
AcDbEntity
  8
0
100
AcDbLine
 10
-1.0
 20
0.0
 30
0.0
 11
1.0
 21
0.0
 31
0.0
  0
ENDBLK
  5
FDD
330
342E
100
AcDbEntity
  8
0
100
AcDbBlockEnd
  0
BLOCK
  5
3431
330
3430
100
AcDbEntity
  8
0
100
AcDbBlockBegin
  2
*U6
 70
     1
 10
0.0
 20
0.0
 30
0.0
  3
*U6
  1

  0
ENDBLK
  5
1ED4
330
3430
100
AcDbEntity
  8
0
100
AcDbBlockEnd
  0
BLOCK
  5
3433
330
3432
100
AcDbEntity
  8
0
100
AcDbBlockBegin
  2
*D7
 70
     1
 10
0.0
 20
0.0
 30
0.0
  3
*D7
  1

  0
LINE
  5
2029
330
3432
100
AcDbEntity
  8
SIZE
 62
     0
100
AcDbLine
 10
-135.5
 20
-449.4732256776551
 30
0.0
 11
-135.5
 21
-638.0173952306003
 31
0.0
  0
LINE
  5
202A
330
3432
100
AcDbEntity
  8
SIZE
 62
     0
100
AcDbLine
 10
135.5
 20
-449.4732256776551
 30
0.0
 11
135.5
 21
-638.0173952306003
 31
0.0
  0
LINE
  5
202B
330
3432
100
AcDbEntity
  8
SIZE
 62
     0
100
AcDbLine
 10
-123.5
 20
-618.0173952306001
 30
0.0
 11
123.5
 21
-618.0173952306001
 31
0.0
  0
INSERT
  5
202C
330
3432
100
AcDbEntity
  8
SIZE
 62
     0
100
AcDbBlockReference
  2
_DOTBLANK
 10
-135.5
 20
-618.0173952306001
 30
0.0
 41
12.0
 42
12.0
 43
12.0
 50
180.0
  0
INSERT
  5
202D
330
3432
100
AcDbEntity
  8
SIZE
 62
     0
100
AcDbBlockReference
  2
_DOTBLANK
 10
135.5
 20
-618.0173952306001
 30
0.0
 41
12.0
 42
12.0
 43
12.0
  0
INSERT
  5
202E
330
3432
100
AcDbEntity
  8
0
100
AcDbBlockReference
  2
*U8
 10
0.0
 20
0.0
 30
0.0
  0
POINT
  5
202F
330
3432
100
AcDbEntity
  8
DEFPOINTS
 62
     0
100
AcDbPoint
 10
-135.5
 20
-429.473225677655
 30
0.0
  0
POINT
  5
2030
330
3432
100
AcDbEntity
  8
DEFPOINTS
 62
     0
100
AcDbPoint
 10
135.5
 20
-429.473225677655
 30
0.0
  0
POINT
  5
2031
330
3432
100
AcDbEntity
  8
DEFPOINTS
 62
     0
100
AcDbPoint
 10
135.5
 20
-618.0173952306001
 30
0.0
  0
ENDBLK
  5
1FDF
330
3432
100
AcDbEntity
  8
0
100
AcDbBlockEnd
  0
BLOCK
  5
3435
330
3434
100
AcDbEntity
  8
0
100
AcDbBlockBegin
  2
*U8
 70
     1
 10
0.0
 20
0.0
 30
0.0
  3
*U8
  1

  0
TEXT
  5
21A6
330
3434
100
AcDbEntity
  8
SIZE
 62
     0
100
AcDbText
 10
-61.7142857142857
 20
-608.0173952306003
 30
0.0
 40
64.0
  1
271
 41
0.9
100
AcDbText
  0
ENDBLK
  5
21A8
330
3434
100
AcDbEntity
  8
0
100
AcDbBlockEnd
  0
BLOCK
  5
3437
330
3436
100
AcDbEntity
  8
0
100
AcDbBlockBegin
  2
*D9
 70
     1
 10
0.0
 20
0.0
 30
0.0
  3
*D9
  1

  0
LINE
  5
2032
330
3436
100
AcDbEntity
  8
SIZE
 62
     0
100
AcDbLine
 10
143.7000000000007
 20
-430.0
 30
0.0
 11
304.6432844803784
 21
-430.0
 31
0.0
  0
LINE
  5
2033
330
3436
100
AcDbEntity
  8
SIZE
 62
     0
100
AcDbLine
 10
177.5
 20
-0.0000000000000057
 30
0.0
 11
304.6432844803785
 21
-0.0000000000000417
 31
0.0
  0
LINE
  5
2034
330
3436
100
AcDbEntity
  8
SIZE
 62
     0
100
AcDbLine
 10
284.6432844803784
 20
-418.0
 30
0.0
 11
284.6432844803785
 21
-12.00000000000003
 31
0.0
  0
INSERT
  5
2035
330
3436
100
AcDbEntity
  8
SIZE
 62
     0
100
AcDbBlockReference
  2
_DOTBLANK
 10
284.6432844803784
 20
-430.0
 30
0.0
 41
12.0
 42
12.0
 43
12.0
 50
270.0
  0
INSERT
  5
2036
330
3436
100
AcDbEntity
  8
SIZE
 62
     0
100
AcDbBlockReference
  2
_DOTBLANK
 10
284.6432844803785
 20
-0.000000000000036
 30
0.0
 41
12.0
 42
12.0
 43
12.0
 50
90.0
  0
INSERT
  5
2037
330
3436
100
AcDbEntity
  8
0
100
AcDbBlockReference
  2
*U10
 10
0.0
 20
0.0
 30
0.0
  0
POINT
  5
2038
330
3436
100
AcDbEntity
  8
DEFPOINTS
 62
     0
100
AcDbPoint
 10
123.7000000000007
 20
-430.0
 30
0.0
  0
POINT
  5
2039
330
3436
100
AcDbEntity
  8
DEFPOINTS
 62
     0
100
AcDbPoint
 10
157.5
 20
0.0
 30
0.0
  0
POINT
  5
203A
330
3436
100
AcDbEntity
  8
DEFPOINTS
 62
     0
100
AcDbPoint
 10
284.6432844803785
 20
-0.000000000000036
 30
0.0
  0
ENDBLK
  5
1FEB
330
3436
100
AcDbEntity
  8
0
100
AcDbBlockEnd
  0
BLOCK
  5
3439
330
3438
100
AcDbEntity
  8
0
100
AcDbBlockBegin
  2
*U10
 70
     1
 10
0.0
 20
0.0
 30
0.0
  3
*U10
  1

  0
TEXT
  5
21AA
330
3438
100
AcDbEntity
  8
SIZE
 62
     0
100
AcDbText
 10
274.6432844803785
 20
-289.0571428571429
 30
0.0
 40
64.0
  1
430
 50
90.0
 41
0.9
100
AcDbText
  0
ENDBLK
  5
21AC
330
3438
100
AcDbEntity
  8
0
100
AcDbBlockEnd
  0
BLOCK
  5
343B
330
343A
100
AcDbEntity
  8
0
100
AcDbBlockBegin
  2
*D11
 70
     1
 10
0.0
 20
0.0
 30
0.0
  3
*D11
  1

  0
LINE
  5
203B
330
343A
100
AcDbEntity
  8
SIZE
 62
     0
100
AcDbLine
 10
-140.0
 20
32.5
 30
0.0
 11
-140.0
 21
136.4516878685499
 31
0.0
  0
LINE
  5
203C
330
343A
100
AcDbEntity
  8
SIZE
 62
     0
100
AcDbLine
 10
140.0
 20
32.5
 30
0.0
 11
140.0
 21
136.4516878685499
 31
0.0
  0
LINE
  5
203D
330
343A
100
AcDbEntity
  8
SIZE
 62
     0
100
AcDbLine
 10
-128.0
 20
116.4516878685499
 30
0.0
 11
128.0
 21
116.4516878685499
 31
0.0
  0
INSERT
  5
203E
330
343A
100
AcDbEntity
  8
SIZE
 62
     0
100
AcDbBlockReference
  2
_DOTBLANK
 10
-140.0
 20
116.4516878685499
 30
0.0
 41
12.0
 42
12.0
 43
12.0
 50
180.0
  0
INSERT
  5
203F
330
343A
100
AcDbEntity
  8
SIZE
 62
     0
100
AcDbBlockReference
  2
_DOTBLANK
 10
140.0
 20
116.4516878685499
 30
0.0
 41
12.0
 42
12.0
 43
12.0
  0
INSERT
  5
2040
330
343A
100
AcDbEntity
  8
0
100
AcDbBlockReference
  2
*U12
 10
0.0
 20
0.0
 30
0.0
  0
POINT
  5
2041
330
343A
100
AcDbEntity
  8
DEFPOINTS
 62
     0
100
AcDbPoint
 10
-140.0
 20
12.5
 30
0.0
  0
POINT
  5
2042
330
343A
100
AcDbEntity
  8
DEFPOINTS
 62
     0
100
AcDbPoint
 10
140.0
 20
12.5
 30
0.0
  0
POINT
  5
2043
330
343A
100
AcDbEntity
  8
DEFPOINTS
 62
     0
100
AcDbPoint
 10
140.0
 20
116.4516878685499
 30
0.0
  0
ENDBLK
  5
1FF7
330
343A
100
AcDbEntity
  8
0
100
AcDbBlockEnd
  0
BLOCK
  5
343D
330
343C
100
AcDbEntity
  8
0
100
AcDbBlockBegin
  2
*U12
 70
     1
 10
0.0
 20
0.0
 30
0.0
  3
*U12
  1

  0
TEXT
  5
21AE
330
343C
100
AcDbEntity
  8
SIZE
 62
     0
100
AcDbText
 10
-74.05714285714283
 20
126.4516878685499
 30
0.0
 40
64.0
  1
280
 41
0.9
100
AcDbText
  0
ENDBLK
  5
21B0
330
343C
100
AcDbEntity
  8
0
100
AcDbBlockEnd
  0
BLOCK
  5
343F
330
343E
100
AcDbEntity
  8
0
100
AcDbBlockBegin
  2
*D13
 70
     1
 10
0.0
 20
0.0
 30
0.0
  3
*D13
  1

  0
LINE
  5
2044
330
343E
100
AcDbEntity
  8
SIZE
 62
     0
100
AcDbLine
 10
-157.5
 20
20.0
 30
0.0
 11
-157.5
 21
245.5794621189598
 31
0.0
  0
LINE
  5
2045
330
343E
100
AcDbEntity
  8
SIZE
 62
     0
100
AcDbLine
 10
157.5
 20
20.0
 30
0.0
 11
157.5
 21
245.5794621189598
 31
0.0
  0
LINE
  5
2046
330
343E
100
AcDbEntity
  8
SIZE
 62
     0
100
AcDbLine
 10
-145.5
 20
225.5794621189598
 30
0.0
 11
145.5
 21
225.5794621189598
 31
0.0
  0
INSERT
  5
2047
330
343E
100
AcDbEntity
  8
SIZE
 62
     0
100
AcDbBlockReference
  2
_DOTBLANK
 10
-157.5
 20
225.5794621189598
 30
0.0
 41
12.0
 42
12.0
 43
12.0
 50
180.0
  0
INSERT
  5
2048
330
343E
100
AcDbEntity
  8
SIZE
 62
     0
100
AcDbBlockReference
  2
_DOTBLANK
 10
157.5
 20
225.5794621189598
 30
0.0
 41
12.0
 42
12.0
 43
12.0
  0
INSERT
  5
2049
330
343E
100
AcDbEntity
  8
0
100
AcDbBlockReference
  2
*U14
 10
0.0
 20
0.0
 30
0.0
  0
POINT
  5
204A
330
343E
100
AcDbEntity
  8
DEFPOINTS
 62
     0
100
AcDbPoint
 10
-157.5
 20
0.0
 30
0.0
  0
POINT
  5
204B
330
343E
100
AcDbEntity
  8
DEFPOINTS
 62
     0
100
AcDbPoint
 10
157.5
 20
0.0
 30
0.0
  0
POINT
  5
204C
330
343E
100
AcDbEntity
  8
DEFPOINTS
 62
     0
100
AcDbPoint
 10
157.5
 20
225.5794621189598
 30
0.0
  0
ENDBLK
  5
2003
330
343E
100
AcDbEntity
  8
0
100
AcDbBlockEnd
  0
BLOCK
  5
3441
330
3440
100
AcDbEntity
  8
0
100
AcDbBlockBegin
  2
*U14
 70
     1
 10
0.0
 20
0.0
 30
0.0
  3
*U14
  1

  0
TEXT
  5
21B2
330
3440
100
AcDbEntity
  8
SIZE
 62
     0
100
AcDbText
 10
-68.57142857142857
 20
235.5794621189598
 30
0.0
 40
64.0
  1
315
 41
0.9
100
AcDbText
  0
ENDBLK
  5
21B4
330
3440
100
AcDbEntity
  8
0
100
AcDbBlockEnd
  0
BLOCK
  5
3443
330
3442
100
AcDbEntity
  8
0
100
AcDbBlockBegin
  2
*D15
 70
     1
 10
0.0
 20
0.0
 30
0.0
  3
*D15
  1

  0
LINE
  5
204D
330
3442
100
AcDbEntity
  8
SIZE
 62
     0
100
AcDbLine
 10
-177.5
 20
0.0000000000000057
 30
0.0
 11
-219.7694545525301
 21
0.0000000000000176
 31
0.0
  0
LINE
  5
204E
330
3442
100
AcDbEntity
  8
SIZE
 62
     0
100
AcDbLine
 10
-177.5
 20
-7.999999999999993
 30
0.0
 11
-219.7694545525301
 21
-7.999999999999982
 31
0.0
  0
LINE
  5
204F
330
3442
100
AcDbEntity
  8
SIZE
 62
     0
100
AcDbLine
 10
-199.76945455253
 20
12.00000000000001
 30
0.0
 11
-199.76945455253
 21
24.00000000000001
 31
0.0
  0
LINE
  5
2050
330
3442
100
AcDbEntity
  8
SIZE
 62
     0
100
AcDbLine
 10
-199.76945455253
 20
-19.99999999999999
 30
0.0
 11
-199.7694545525301
 21
-90.4
 31
0.0
  0
LINE
  5
2051
330
3442
100
AcDbEntity
  8
SIZE
 62
     0
100
AcDbLine
 10
-199.76945455253
 20
0.000000000000012
 30
0.0
 11
-199.76945455253
 21
-7.999999999999985
 31
0.0
  0
INSERT
  5
2052
330
3442
100
AcDbEntity
  8
SIZE
 62
     0
100
AcDbBlockReference
  2
_DOTBLANK
 10
-199.76945455253
 20
0.000000000000012
 30
0.0
 41
12.0
 42
12.0
 43
12.0
 50
270.0
  0
INSERT
  5
2053
330
3442
100
AcDbEntity
  8
SIZE
 62
     0
100
AcDbBlockReference
  2
_DOTBLANK
 10
-199.76945455253
 20
-7.999999999999985
 30
0.0
 41
12.0
 42
12.0
 43
12.0
 50
90.0
  0
INSERT
  5
2054
330
3442
100
AcDbEntity
  8
0
100
AcDbBlockReference
  2
*U16
 10
0.0
 20
0.0
 30
0.0
  0
POINT
  5
2055
330
3442
100
AcDbEntity
  8
DEFPOINTS
 62
     0
100
AcDbPoint
 10
-157.5
 20
0.0
 30
0.0
  0
POINT
  5
2056
330
3442
100
AcDbEntity
  8
DEFPOINTS
 62
     0
100
AcDbPoint
 10
-157.5
 20
-8.0
 30
0.0
  0
POINT
  5
2057
330
3442
100
AcDbEntity
  8
DEFPOINTS
 62
     0
100
AcDbPoint
 10
-199.76945455253
 20
-7.999999999999985
 30
0.0
  0
ENDBLK
  5
200F
330
3442
100
AcDbEntity
  8
0
100
AcDbBlockEnd
  0
BLOCK
  5
3445
330
3444
100
AcDbEntity
  8
0
100
AcDbBlockBegin
  2
*U16
 70
     1
 10
0.0
 20
0.0
 30
0.0
  3
*U16
  1

  0
TEXT
  5
21B6
330
3444
100
AcDbEntity
  8
SIZE
 62
     0
100
AcDbText
 10
-209.7694545525301
 20
-80.4
 30
0.0
 40
64.0
  1
8
 50
90.0
 41
0.9
100
AcDbText
  0
ENDBLK
  5
21B8
330
3444
100
AcDbEntity
  8
0
100
AcDbBlockEnd
  0
BLOCK
  5
3447
330
3446
100
AcDbEntity
  8
0
100
AcDbBlockBegin
  2
*D17
 70
     1
 10
0.0
 20
0.0
 30
0.0
  3
*D17
  1

  0
LINE
  5
2058
330
3446
100
AcDbEntity
  8
SIZE
 62
     0
100
AcDbLine
 10
143.7000000000007
 20
-430.0
 30
0.0
 11
304.626441221626
 21
-430.0
 31
0.0
  0
LINE
  5
2059
330
3446
100
AcDbEntity
  8
SIZE
 62
     0
100
AcDbLine
 10
143.1000000000022
 20
-441.0000000000001
 30
0.0
 11
304.626441221626
 21
-441.0000000000001
 31
0.0
  0
LINE
  5
205A
330
3446
100
AcDbEntity
  8
SIZE
 62
     0
100
AcDbLine
 10
284.626441221626
 20
-418.0
 30
0.0
 11
284.626441221626
 21
-406.0
 31
0.0
  0
LINE
  5
205B
330
3446
100
AcDbEntity
  8
SIZE
 62
     0
100
AcDbLine
 10
284.626441221626
 20
-453.0
 30
0.0
 11
284.626441221626
 21
-542.6000000000001
 31
0.0
  0
LINE
  5
205C
330
3446
100
AcDbEntity
  8
SIZE
 62
     0
100
AcDbLine
 10
284.626441221626
 20
-430.0
 30
0.0
 11
284.626441221626
 21
-441.0000000000001
 31
0.0
  0
INSERT
  5
205D
330
3446
100
AcDbEntity
  8
SIZE
 62
     0
100
AcDbBlockReference
  2
_DOTBLANK
 10
284.626441221626
 20
-430.0
 30
0.0
 41
12.0
 42
12.0
 43
12.0
 50
270.0
  0
INSERT
  5
205E
330
3446
100
AcDbEntity
  8
SIZE
 62
     0
100
AcDbBlockReference
  2
_DOTBLANK
 10
284.626441221626
 20
-441.0000000000001
 30
0.0
 41
12.0
 42
12.0
 43
12.0
 50
90.0
  0
INSERT
  5
205F
330
3446
100
AcDbEntity
  8
0
100
AcDbBlockReference
  2
*U18
 10
0.0
 20
0.0
 30
0.0
  0
POINT
  5
2060
330
3446
100
AcDbEntity
  8
DEFPOINTS
 62
     0
100
AcDbPoint
 10
123.7000000000007
 20
-430.0
 30
0.0
  0
POINT
  5
2061
330
3446
100
AcDbEntity
  8
DEFPOINTS
 62
     0
100
AcDbPoint
 10
123.1000000000022
 20
-441.0
 30
0.0
  0
POINT
  5
2062
330
3446
100
AcDbEntity
  8
DEFPOINTS
 62
     0
100
AcDbPoint
 10
284.626441221626
 20
-441.0000000000001
 30
0.0
  0
ENDBLK
  5
201D
330
3446
100
AcDbEntity
  8
0
100
AcDbBlockEnd
  0
BLOCK
  5
3449
330
3448
100
AcDbEntity
  8
0
100
AcDbBlockBegin
  2
*U18
 70
     1
 10
0.0
 20
0.0
 30
0.0
  3
*U18
  1

  0
TEXT
  5
21BA
330
3448
100
AcDbEntity
  8
SIZE
 62
     0
100
AcDbText
 10
274.6264412216261
 20
-532.6
 30
0.0
 40
64.0
  1
11
 50
90.0
 41
0.9
100
AcDbText
  0
ENDBLK
  5
21BC
330
3448
100
AcDbEntity
  8
0
100
AcDbBlockEnd
  0
BLOCK
  5
344B
330
344A
100
AcDbEntity
  8
0
100
AcDbBlockBegin
  2
*U19
 70
     1
 10
0.0
 20
0.0
 30
0.0
  3
*U19
  1

  0
INSERT
  5
2199
330
344A
100
AcDbEntity
  8
NOTE
100
AcDbBlockReference
  2
_OPEN30
 10
-140.0
 20
0.0
 30
0.0
 41
12.0
 42
12.0
 43
12.0
 50
312.6090116116894
  0
POLYLINE
  5
219A
330
344A
100
AcDbEntity
  8
NOTE
100
AcDb2dPolyline
 66
     1
 10
0.0
 20
0.0
 30
0.0
  0
VERTEX
  5
219B
330
219A
100
AcDbEntity
  8
NOTE
100
AcDbVertex
100
AcDb2dVertex
 10
-148.1239008361894
 20
8.831887408915472
 30
0.0
  0
VERTEX
  5
219C
330
219A
100
AcDbEntity
  8
NOTE
100
AcDbVertex
100
AcDb2dVertex
 10
-227.8693999922543
 20
95.5270950580134
 30
0.0
  0
VERTEX
  5
219D
330
219A
100
AcDbEntity
  8
NOTE
100
AcDbVertex
100
AcDb2dVertex
 10
-776.4522571351115
 20
95.5270950580134
 30
0.0
  0
SEQEND
  5
219E
330
219A
100
AcDbEntity
  8
NOTE
  0
ENDBLK
  5
21A0
330
344A
100
AcDbEntity
  8
0
100
AcDbBlockEnd
  0
BLOCK
  5
344D
330
344C
100
AcDbEntity
  8
0
100
AcDbBlockBegin
  2
*U20
 70
     1
 10
0.0
 20
0.0
 30
0.0
  3
*U20
  1

  0
TEXT
  5
21A2
330
344C
100
AcDbEntity
  8
NOTE
100
AcDbText
 10
-773.7093999922541
 20
113.5270950580134
 30
0.0
 40
64.0
  1
4×φ10取付穴
 41
0.9
100
AcDbText
  0
ENDBLK
  5
21A4
330
344C
100
AcDbEntity
  8
0
100
AcDbBlockEnd
  0
BLOCK
  5
344F
330
344E
100
AcDbEntity
  8
0
100
AcDbBlockBegin
  2
*X21
 70
     1
 10
0.0
 20
0.0
 30
0.0
  3
*X21
  1

  0
LINE
  5
258E
330
344E
100
AcDbEntity
  8
0
 62
     0
100
AcDbLine
 10
-111.3000000000047
 20
-412.8030970261443
 30
0.0
 11
-106.6695316305049
 21
-415.0080808012017
 31
0.0
  0
LINE
  5
258F
330
344E
100
AcDbEntity
  8
0
 62
     0
100
AcDbLine
 10
-111.3000000000065
 20
-402.8031452820105
 30
0.0
 11
-85.66962189351579
 21
-415.0080808012035
 31
0.0
  0
LINE
  5
2590
330
344E
100
AcDbEntity
  8
0
 62
     0
100
AcDbLine
 10
-111.3000000000047
 20
-392.8031935378767
 30
0.0
 11
-64.66971215652304
 21
-415.0080808012035
 31
0.0
  0
LINE
  5
2591
330
344E
100
AcDbEntity
  8
0
 62
     0
100
AcDbLine
 10
-111.3000000000065
 20
-382.8032417937412
 30
0.0
 11
-43.66980241953569
 21
-415.0080808012017
 31
0.0
  0
LINE
  5
2592
330
344E
100
AcDbEntity
  8
0
 62
     0
100
AcDbLine
 10
-111.3000000000047
 20
-372.8032900496073
 30
0.0
 11
-22.66989268254475
 21
-415.0080808012017
 31
0.0
  0
LINE
  5
2593
330
344E
100
AcDbEntity
  8
0
 62
     0
100
AcDbLine
 10
-111.3000000000065
 20
-362.8033383054717
 30
0.0
 11
-1.669982945553782
 21
-415.0080808012017
 31
0.0
  0
LINE
  5
2594
330
344E
100
AcDbEntity
  8
0
 62
     0
100
AcDbLine
 10
-111.3000000000065
 20
-352.8033865613379
 30
0.0
 11
19.32992679143898
 21
-415.0080808012035
 31
0.0
  0
LINE
  5
2595
330
344E
100
AcDbEntity
  8
0
 62
     0
100
AcDbLine
 10
-111.3000000000065
 20
-342.8034348172041
 30
0.0
 11
40.32983652842449
 21
-415.0080808012017
 31
0.0
  0
LINE
  5
2596
330
344E
100
AcDbEntity
  8
0
 62
     0
100
AcDbLine
 10
-104.5000000000072
 20
-336.0415766035529
 30
0.0
 11
-92.42122712724812
 21
-341.7933701764177
 31
0.0
  0
LINE
  5
2597
330
344E
100
AcDbEntity
  8
0
 62
     0
100
AcDbLine
 10
-92.42122712724812
 20
-341.7933701764177
 30
0.0
 11
61.32974626541908
 21
-415.0080808012017
 31
0.0
  0
LINE
  5
2598
330
344E
100
AcDbEntity
  8
0
 62
     0
100
AcDbLine
 10
-111.3000000000065
 20
-332.8034830730694
 30
0.0
 11
-104.5000000000072
 21
-336.0415766035529
 31
0.0
  0
LINE
  5
2599
330
344E
100
AcDbEntity
  8
0
 62
     0
100
AcDbLine
 10
-104.5000000000054
 20
-326.0416248594192
 30
0.0
 11
-71.42131739025717
 21
-341.7933701764177
 31
0.0
  0
LINE
  5
259A
330
344E
100
AcDbEntity
  8
0
 62
     0
100
AcDbLine
 10
-71.42131739025717
 20
-341.7933701764177
 30
0.0
 11
82.3296560024082
 21
-415.0080808012017
 31
0.0
  0
LINE
  5
259B
330
344E
100
AcDbEntity
  8
0
 62
     0
100
AcDbLine
 10
-111.3000000000047
 20
-322.8035313289347
 30
0.0
 11
-104.5000000000054
 21
-326.0416248594192
 31
0.0
  0
LINE
  5
259C
330
344E
100
AcDbEntity
  8
0
 62
     0
100
AcDbLine
 10
-104.500000000009
 20
-316.0416731152836
 30
0.0
 11
-50.42140765326802
 21
-341.7933701764177
 31
0.0
  0
LINE
  5
259D
330
344E
100
AcDbEntity
  8
0
 62
     0
100
AcDbLine
 10
-50.42140765326802
 20
-341.7933701764177
 30
0.0
 11
103.3295657393992
 21
-415.0080808012007
 31
0.0
  0
LINE
  5
259E
330
344E
100
AcDbEntity
  8
0
 62
     0
100
AcDbLine
 10
-111.3000000000083
 20
-312.8035795848
 30
0.0
 11
-104.500000000009
 21
-316.0416731152836
 31
0.0
  0
LINE
  5
259F
330
344E
100
AcDbEntity
  8
0
 62
     0
100
AcDbLine
 10
-104.5000000000072
 20
-306.041721371148
 30
0.0
 11
-29.42149791627344
 21
-341.7933701764168
 31
0.0
  0
LINE
  5
25A0
330
344E
100
AcDbEntity
  8
0
 62
     0
100
AcDbLine
 10
-29.42149791627344
 20
-341.7933701764168
 30
0.0
 11
111.2999999999902
 21
-408.8035719415318
 31
0.0
  0
LINE
  5
25A1
330
344E
100
AcDbEntity
  8
0
 62
     0
100
AcDbLine
 10
-111.3000000000029
 20
-302.8036278406653
 30
0.0
 11
-104.5000000000072
 21
-306.041721371148
 31
0.0
  0
LINE
  5
25A2
330
344E
100
AcDbEntity
  8
0
 62
     0
100
AcDbLine
 10
-104.5000000000072
 20
-296.041769627016
 30
0.0
 11
-8.421588179284299
 21
-341.7933701764186
 31
0.0
  0
LINE
  5
25A3
330
344E
100
AcDbEntity
  8
0
 62
     0
100
AcDbLine
 10
-8.421588179284299
 20
-341.7933701764186
 30
0.0
 11
111.2999999999902
 21
-398.8036201974001
 31
0.0
  0
LINE
  5
25A4
330
344E
100
AcDbEntity
  8
0
 62
     0
100
AcDbLine
 10
-111.3000000000065
 20
-292.8036760965322
 30
0.0
 11
-104.5000000000072
 21
-296.041769627016
 31
0.0
  0
LINE
  5
25A5
330
344E
100
AcDbEntity
  8
0
 62
     0
100
AcDbLine
 10
-104.500000000009
 20
-286.0418178828804
 30
0.0
 11
12.57832155770848
 21
-341.7933701764186
 31
0.0
  0
LINE
  5
25A6
330
344E
100
AcDbEntity
  8
0
 62
     0
100
AcDbLine
 10
12.57832155770848
 20
-341.7933701764186
 30
0.0
 11
111.299999999992
 21
-388.8036684532663
 31
0.0
  0
LINE
  5
25A7
330
344E
100
AcDbEntity
  8
0
 62
     0
100
AcDbLine
 10
-111.3000000000047
 20
-282.8037243523986
 30
0.0
 11
-104.500000000009
 21
-286.0418178828804
 31
0.0
  0
LINE
  5
25A8
330
344E
100
AcDbEntity
  8
0
 62
     0
100
AcDbLine
 10
-104.5000000000054
 20
-276.0418661387466
 30
0.0
 11
33.57823129469944
 21
-341.7933701764186
 31
0.0
  0
LINE
  5
25A9
330
344E
100
AcDbEntity
  8
0
 62
     0
100
AcDbLine
 10
33.57823129469944
 20
-341.7933701764186
 30
0.0
 11
111.299999999992
 21
-378.8037167091307
 31
0.0
  0
LINE
  5
25AA
330
344E
100
AcDbEntity
  8
0
 62
     0
100
AcDbLine
 10
-111.3000000000047
 20
-272.803772608263
 30
0.0
 11
-104.5000000000054
 21
-276.0418661387466
 31
0.0
  0
LINE
  5
25AB
330
344E
100
AcDbEntity
  8
0
 62
     0
100
AcDbLine
 10
-104.500000000009
 20
-266.0419143946119
 30
0.0
 11
54.57814103168676
 21
-341.7933701764168
 31
0.0
  0
LINE
  5
25AC
330
344E
100
AcDbEntity
  8
0
 62
     0
100
AcDbLine
 10
54.57814103168676
 20
-341.7933701764168
 30
0.0
 11
111.299999999992
 21
-368.8037649649968
 31
0.0
  0
LINE
  5
25AD
330
344E
100
AcDbEntity
  8
0
 62
     0
100
AcDbLine
 10
-111.3000000000083
 20
-262.8038208641274
 30
0.0
 11
-104.500000000009
 21
-266.0419143946119
 31
0.0
  0
LINE
  5
25AE
330
344E
100
AcDbEntity
  8
0
 62
     0
100
AcDbLine
 10
-104.5000000000072
 20
-256.0419626504772
 30
0.0
 11
75.57805076867406
 21
-341.793370176415
 31
0.0
  0
LINE
  5
25AF
330
344E
100
AcDbEntity
  8
0
 62
     0
100
AcDbLine
 10
75.5780507686777
 20
-341.7933701764168
 30
0.0
 11
111.2999999999938
 21
-358.8038132208631
 31
0.0
  0
LINE
  5
25B0
330
344E
100
AcDbEntity
  8
0
 62
     0
100
AcDbLine
 10
-111.3000000000047
 20
-252.8038691199936
 30
0.0
 11
-104.500000000009
 21
-256.0419626504763
 31
0.0
  0
LINE
  5
25B1
330
344E
100
AcDbEntity
  8
0
 62
     0
100
AcDbLine
 10
-104.5000000000072
 20
-246.0420109063443
 30
0.0
 11
96.57796050566687
 21
-341.7933701764168
 31
0.0
  0
LINE
  5
25B2
330
344E
100
AcDbEntity
  8
0
 62
     0
100
AcDbLine
 10
96.57796050566869
 20
-341.7933701764186
 30
0.0
 11
111.2999999999938
 21
-348.8038614767293
 31
0.0
  0
LINE
  5
25B3
330
344E
100
AcDbEntity
  8
0
 62
     0
100
AcDbLine
 10
-111.3000000000065
 20
-242.8039173758598
 30
0.0
 11
-104.5000000000072
 21
-246.0420109063443
 31
0.0
  0
LINE
  5
25B4
330
344E
100
AcDbEntity
  8
0
 62
     0
100
AcDbLine
 10
-104.5000000000072
 20
-236.0420591622096
 30
0.0
 11
111.2999999999883
 21
-338.8039097325927
 31
0.0
  0
LINE
  5
25B5
330
344E
100
AcDbEntity
  8
0
 62
     0
100
AcDbLine
 10
-111.3000000000065
 20
-232.803965631726
 30
0.0
 11
-104.5000000000127
 21
-236.0420591622069
 31
0.0
  0
LINE
  5
25B6
330
344E
100
AcDbEntity
  8
0
 62
     0
100
AcDbLine
 10
-104.5000000000072
 20
-226.0421074180749
 30
0.0
 11
111.2999999999865
 21
-328.8039579884571
 31
0.0
  0
LINE
  5
25B7
330
344E
100
AcDbEntity
  8
0
 62
     0
100
AcDbLine
 10
-111.3000000000065
 20
-222.8040138875904
 30
0.0
 11
-104.5000000000109
 21
-226.0421074180731
 31
0.0
  0
LINE
  5
25B8
330
344E
100
AcDbEntity
  8
0
 62
     0
100
AcDbLine
 10
-104.500000000009
 20
-216.0421556739393
 30
0.0
 11
111.2999999999865
 21
-318.8040062443215
 31
0.0
  0
LINE
  5
25B9
330
344E
100
AcDbEntity
  8
0
 62
     0
100
AcDbLine
 10
-111.3000000000047
 20
-212.8040621434566
 30
0.0
 11
-104.5000000000127
 21
-216.0421556739374
 31
0.0
  0
LINE
  5
25BA
330
344E
100
AcDbEntity
  8
0
 62
     0
100
AcDbLine
 10
-104.500000000009
 20
-206.0422039298055
 30
0.0
 11
111.2999999999865
 21
-308.8040545001877
 31
0.0
  0
LINE
  5
25BB
330
344E
100
AcDbEntity
  8
0
 62
     0
100
AcDbLine
 10
-111.3000000000065
 20
-202.804110399321
 30
0.0
 11
-104.5000000000109
 21
-206.0422039298037
 31
0.0
  0
LINE
  5
25BC
330
344E
100
AcDbEntity
  8
0
 62
     0
100
AcDbLine
 10
-104.500000000009
 20
-196.0422521856717
 30
0.0
 11
111.2999999999847
 21
-298.8041027560539
 31
0.0
  0
LINE
  5
25BD
330
344E
100
AcDbEntity
  8
0
 62
     0
100
AcDbLine
 10
-111.3000000000047
 20
-192.804158655189
 30
0.0
 11
-104.5000000000127
 21
-196.0422521856698
 31
0.0
  0
LINE
  5
25BE
330
344E
100
AcDbEntity
  8
0
 62
     0
100
AcDbLine
 10
-104.5000000000072
 20
-186.0423004415378
 30
0.0
 11
111.2999999999883
 21
-288.8041510119201
 31
0.0
  0
LINE
  5
25BF
330
344E
100
AcDbEntity
  8
0
 62
     0
100
AcDbLine
 10
-111.3000000000065
 20
-182.8042069110533
 30
0.0
 11
-104.5000000000127
 21
-186.0423004415343
 31
0.0
  0
LINE
  5
25C0
330
344E
100
AcDbEntity
  8
0
 62
     0
100
AcDbLine
 10
-104.500000000009
 20
-176.0423486974023
 30
0.0
 11
111.2999999999847
 21
-278.8041992677845
 31
0.0
  0
LINE
  5
25C1
330
344E
100
AcDbEntity
  8
0
 62
     0
100
AcDbLine
 10
-111.3000000000083
 20
-172.8042551669177
 30
0.0
 11
-104.5000000000127
 21
-176.0423486974005
 31
0.0
  0
LINE
  5
25C2
330
344E
100
AcDbEntity
  8
0
 62
     0
100
AcDbLine
 10
-104.5000000000054
 20
-166.0423969532685
 30
0.0
 11
111.2999999999883
 21
-268.8042475236507
 31
0.0
  0
LINE
  5
25C3
330
344E
100
AcDbEntity
  8
0
 62
     0
100
AcDbLine
 10
-111.3000000000047
 20
-162.8043034227839
 30
0.0
 11
-104.5000000000127
 21
-166.0423969532649
 31
0.0
  0
LINE
  5
25C4
330
344E
100
AcDbEntity
  8
0
 62
     0
100
AcDbLine
 10
-104.5000000000072
 20
-156.0424452091329
 30
0.0
 11
111.2999999999865
 21
-258.8042957795151
 31
0.0
  0
LINE
  5
25C5
330
344E
100
AcDbEntity
  8
0
 62
     0
100
AcDbLine
 10
-111.3000000000065
 20
-152.8043516786483
 30
0.0
 11
-104.5000000000109
 21
-156.0424452091311
 31
0.0
  0
LINE
  5
25C6
330
344E
100
AcDbEntity
  8
0
 62
     0
100
AcDbLine
 10
-100.4031567455549
 20
-147.9933701764184
 30
0.0
 11
111.2999999999865
 21
-248.8043440353813
 31
0.0
  0
LINE
  5
25C7
330
344E
100
AcDbEntity
  8
0
 62
     0
100
AcDbLine
 10
-79.40324700856582
 20
-147.9933701764184
 30
0.0
 11
111.299999999992
 21
-238.8043922912493
 31
0.0
  0
LINE
  5
25C8
330
344E
100
AcDbEntity
  8
0
 62
     0
100
AcDbLine
 10
-58.40333727157485
 20
-147.9933701764184
 30
0.0
 11
111.2999999999883
 21
-228.8044405471137
 31
0.0
  0
LINE
  5
25C9
330
344E
100
AcDbEntity
  8
0
 62
     0
100
AcDbLine
 10
-37.4034275345839
 20
-147.9933701764184
 30
0.0
 11
111.2999999999902
 21
-218.8044888029799
 31
0.0
  0
LINE
  5
25CA
330
344E
100
AcDbEntity
  8
0
 62
     0
100
AcDbLine
 10
-16.40351779759112
 20
-147.9933701764184
 30
0.0
 11
111.2999999999902
 21
-208.8045370588443
 31
0.0
  0
LINE
  5
25CB
330
344E
100
AcDbEntity
  8
0
 62
     0
100
AcDbLine
 10
4.596391939398014
 20
-147.9933701764184
 30
0.0
 11
111.2999999999902
 21
-198.8045853147104
 31
0.0
  0
LINE
  5
25CC
330
344E
100
AcDbEntity
  8
0
 62
     0
100
AcDbLine
 10
25.59630167638898
 20
-147.9933701764194
 30
0.0
 11
111.2999999999902
 21
-188.8046335705767
 31
0.0
  0
LINE
  5
25CD
330
344E
100
AcDbEntity
  8
0
 62
     0
100
AcDbLine
 10
46.59621141338173
 20
-147.9933701764194
 30
0.0
 11
111.299999999992
 21
-178.8046818264429
 31
0.0
  0
LINE
  5
25CE
330
344E
100
AcDbEntity
  8
0
 62
     0
100
AcDbLine
 10
67.59612115037089
 20
-147.9933701764194
 30
0.0
 11
111.2999999999883
 21
-168.8047300823073
 31
0.0
  0
LINE
  5
25CF
330
344E
100
AcDbEntity
  8
0
 62
     0
100
AcDbLine
 10
88.59603088736369
 20
-147.9933701764194
 30
0.0
 11
111.299999999992
 21
-158.8047783381734
 31
0.0
  0
LINE
  5
25D0
330
344E
100
AcDbEntity
  8
0
 62
     0
100
AcDbLine
 10
109.5959406243546
 20
-147.9933701764194
 30
0.0
 11
111.2999999999902
 21
-148.8048265940379
 31
0.0
  0
ENDBLK
  5
25D1
330
344E
100
AcDbEntity
  8
0
100
AcDbBlockEnd
  0
BLOCK
  5
3451
330
3450
100
AcDbEntity
  8
0
100
AcDbBlockBegin
  2
*X22
 70
     1
 10
0.0
 20
0.0
 30
0.0
  3
*X22
  1

  0
LINE
  5
25D4
330
3450
100
AcDbEntity
  8
0
 62
     0
100
AcDbLine
 10
106.3545697506306
 20
-415.0080808011996
 30
0.0
 11
111.2999999999992
 21
-412.6531152576799
 31
0.0
  0
LINE
  5
25D5
330
3450
100
AcDbEntity
  8
0
 62
     0
100
AcDbLine
 10
85.35466001363966
 20
-415.0080808012007
 30
0.0
 11
111.3000000000029
 21
-402.6531635135452
 31
0.0
  0
LINE
  5
25D6
330
3450
100
AcDbEntity
  8
0
 62
     0
100
AcDbLine
 10
64.3547502766487
 20
-415.0080808012007
 30
0.0
 11
111.2999999999956
 21
-392.6532117694114
 31
0.0
  0
LINE
  5
25D7
330
3450
100
AcDbEntity
  8
0
 62
     0
100
AcDbLine
 10
43.35484053965774
 20
-415.0080808012007
 30
0.0
 11
111.2999999999992
 21
-382.6532600252758
 31
0.0
  0
LINE
  5
25D8
330
3450
100
AcDbEntity
  8
0
 62
     0
100
AcDbLine
 10
22.35493080266316
 20
-415.0080808012017
 30
0.0
 11
111.2999999999956
 21
-372.6533082811429
 31
0.0
  0
LINE
  5
25D9
330
3450
100
AcDbEntity
  8
0
 62
     0
100
AcDbLine
 10
1.355021065675827
 20
-415.0080808011996
 30
0.0
 11
111.2999999999992
 21
-362.6533565370072
 31
0.0
  0
LINE
  5
25DA
330
3450
100
AcDbEntity
  8
0
 62
     0
100
AcDbLine
 10
-19.64488867131149
 20
-415.0080808012007
 30
0.0
 11
111.2999999999992
 21
-352.6534047928744
 31
0.0
  0
LINE
  5
25DB
330
3450
100
AcDbEntity
  8
0
 62
     0
100
AcDbLine
 10
-40.64479840830609
 20
-415.0080808012007
 30
0.0
 11
111.2999999999956
 21
-342.6534530487388
 31
0.0
  0
LINE
  5
25DC
330
3450
100
AcDbEntity
  8
0
 62
     0
100
AcDbLine
 10
92.10626524737014
 20
-341.7933701764159
 30
0.0
 11
111.2999999999956
 21
-332.6535013046051
 31
0.0
  0
LINE
  5
25DD
330
3450
100
AcDbEntity
  8
0
 62
     0
100
AcDbLine
 10
-61.64470814529703
 20
-415.0080808012007
 30
0.0
 11
92.10626524737014
 21
-341.7933701764159
 31
0.0
  0
LINE
  5
25DE
330
3450
100
AcDbEntity
  8
0
 62
     0
100
AcDbLine
 10
71.10635551037922
 20
-341.7933701764168
 30
0.0
 11
111.2999999999992
 21
-322.6535495604703
 31
0.0
  0
LINE
  5
25DF
330
3450
100
AcDbEntity
  8
0
 62
     0
100
AcDbLine
 10
-82.64461788228436
 20
-415.0080808012017
 30
0.0
 11
71.10635551037922
 21
-341.7933701764168
 31
0.0
  0
LINE
  5
25E0
330
3450
100
AcDbEntity
  8
0
 62
     0
100
AcDbLine
 10
50.10644577338462
 20
-341.7933701764168
 30
0.0
 11
111.2999999999992
 21
-312.6535978163347
 31
0.0
  0
LINE
  5
25E1
330
3450
100
AcDbEntity
  8
0
 62
     0
100
AcDbLine
 10
-103.6445276192752
 20
-415.0080808011996
 30
0.0
 11
50.10644577338462
 21
-341.7933701764168
 31
0.0
  0
LINE
  5
25E2
330
3450
100
AcDbEntity
  8
0
 62
     0
100
AcDbLine
 10
29.1065360363973
 20
-341.7933701764168
 30
0.0
 11
111.2999999999992
 21
-302.6536460722009
 31
0.0
  0
LINE
  5
25E3
330
3450
100
AcDbEntity
  8
0
 62
     0
100
AcDbLine
 10
-111.2999999999992
 20
-408.6535901730685
 30
0.0
 11
29.1065360363973
 21
-341.7933701764168
 31
0.0
  0
LINE
  5
25E4
330
3450
100
AcDbEntity
  8
0
 62
     0
100
AcDbLine
 10
8.106626299406341
 20
-341.7933701764177
 30
0.0
 11
111.2999999999992
 21
-292.6536943280662
 31
0.0
  0
LINE
  5
25E5
330
3450
100
AcDbEntity
  8
0
 62
     0
100
AcDbLine
 10
-111.2999999999956
 20
-398.6536384289339
 30
0.0
 11
8.106626299406341
 21
-341.7933701764177
 31
0.0
  0
LINE
  5
25E6
330
3450
100
AcDbEntity
  8
0
 62
     0
100
AcDbLine
 10
-12.89328343758461
 20
-341.7933701764159
 30
0.0
 11
111.2999999999956
 21
-282.6537425839324
 31
0.0
  0
LINE
  5
25E7
330
3450
100
AcDbEntity
  8
0
 62
     0
100
AcDbLine
 10
-111.2999999999992
 20
-388.6536866848
 30
0.0
 11
-12.89328343758461
 21
-341.7933701764159
 31
0.0
  0
LINE
  5
25E8
330
3450
100
AcDbEntity
  8
0
 62
     0
100
AcDbLine
 10
-33.89319317457193
 20
-341.7933701764168
 30
0.0
 11
111.2999999999992
 21
-272.6537908397977
 31
0.0
  0
LINE
  5
25E9
330
3450
100
AcDbEntity
  8
0
 62
     0
100
AcDbLine
 10
-111.2999999999992
 20
-378.6537349406653
 30
0.0
 11
-33.89319317457193
 21
-341.7933701764168
 31
0.0
  0
LINE
  5
25EA
330
3450
100
AcDbEntity
  8
0
 62
     0
100
AcDbLine
 10
-54.89310291156654
 20
-341.7933701764168
 30
0.0
 11
111.2999999999956
 21
-262.6538390956639
 31
0.0
  0
LINE
  5
25EB
330
3450
100
AcDbEntity
  8
0
 62
     0
100
AcDbLine
 10
-111.3000000000029
 20
-368.6537831965316
 30
0.0
 11
-54.89310291156654
 21
-341.7933701764168
 31
0.0
  0
LINE
  5
25EC
330
3450
100
AcDbEntity
  8
0
 62
     0
100
AcDbLine
 10
-75.89301264855386
 20
-341.793370176415
 30
0.0
 11
111.2999999999992
 21
-252.6538873515283
 31
0.0
  0
LINE
  5
25ED
330
3450
100
AcDbEntity
  8
0
 62
     0
100
AcDbLine
 10
-111.2999999999992
 20
-358.6538314523959
 30
0.0
 11
-75.89301264855747
 21
-341.7933701764168
 31
0.0
  0
LINE
  5
25EE
330
3450
100
AcDbEntity
  8
0
 62
     0
100
AcDbLine
 10
-96.89292238554479
 20
-341.7933701764159
 30
0.0
 11
111.2999999999992
 21
-242.6539356073936
 31
0.0
  0
LINE
  5
25EF
330
3450
100
AcDbEntity
  8
0
 62
     0
100
AcDbLine
 10
-111.2999999999956
 20
-348.6538797082612
 30
0.0
 11
-96.89292238554845
 21
-341.7933701764177
 31
0.0
  0
LINE
  5
25F0
330
3450
100
AcDbEntity
  8
0
 62
     0
100
AcDbLine
 10
-104.4999999999963
 20
-335.4158344336429
 30
0.0
 11
111.2999999999992
 21
-232.6539838632598
 31
0.0
  0
LINE
  5
25F1
330
3450
100
AcDbEntity
  8
0
 62
     0
100
AcDbLine
 10
-111.2999999999956
 20
-338.6539279641274
 30
0.0
 11
-104.4999999999963
 21
-335.4158344336429
 31
0.0
  0
LINE
  5
25F2
330
3450
100
AcDbEntity
  8
0
 62
     0
100
AcDbLine
 10
-104.5000000000036
 20
-325.4158826895089
 30
0.0
 11
111.2999999999992
 21
-222.6540321191242
 31
0.0
  0
LINE
  5
25F3
330
3450
100
AcDbEntity
  8
0
 62
     0
100
AcDbLine
 10
-111.2999999999992
 20
-328.6539762199918
 30
0.0
 11
-104.5000000000036
 21
-325.4158826895089
 31
0.0
  0
LINE
  5
25F4
330
3450
100
AcDbEntity
  8
0
 62
     0
100
AcDbLine
 10
-104.5
 20
-315.4159309453744
 30
0.0
 11
111.2999999999992
 21
-212.6540803749913
 31
0.0
  0
LINE
  5
25F5
330
3450
100
AcDbEntity
  8
0
 62
     0
100
AcDbLine
 10
-111.2999999999992
 20
-318.6540244758589
 30
0.0
 11
-104.5
 21
-315.4159309453744
 31
0.0
  0
LINE
  5
25F6
330
3450
100
AcDbEntity
  8
0
 62
     0
100
AcDbLine
 10
-104.5
 20
-305.4159792012406
 30
0.0
 11
111.2999999999956
 21
-202.6541286308557
 31
0.0
  0
LINE
  5
25F7
330
3450
100
AcDbEntity
  8
0
 62
     0
100
AcDbLine
 10
-111.2999999999992
 20
-308.6540727317232
 30
0.0
 11
-104.5
 21
-305.4159792012406
 31
0.0
  0
LINE
  5
25F8
330
3450
100
AcDbEntity
  8
0
 62
     0
100
AcDbLine
 10
-104.5
 20
-295.4160274571077
 30
0.0
 11
111.2999999999956
 21
-192.6541768867228
 31
0.0
  0
LINE
  5
25F9
330
3450
100
AcDbEntity
  8
0
 62
     0
100
AcDbLine
 10
-111.2999999999992
 20
-298.6541209875904
 30
0.0
 11
-104.5
 21
-295.4160274571077
 31
0.0
  0
LINE
  5
25FA
330
3450
100
AcDbEntity
  8
0
 62
     0
100
AcDbLine
 10
-104.5
 20
-285.4160757129721
 30
0.0
 11
111.2999999999992
 21
-182.6542251425872
 31
0.0
  0
LINE
  5
25FB
330
3450
100
AcDbEntity
  8
0
 62
     0
100
AcDbLine
 10
-111.2999999999956
 20
-288.6541692434548
 30
0.0
 11
-104.5
 21
-285.4160757129721
 31
0.0
  0
LINE
  5
25FC
330
3450
100
AcDbEntity
  8
0
 62
     0
100
AcDbLine
 10
-104.5000000000036
 20
-275.4161239688383
 30
0.0
 11
111.2999999999956
 21
-172.6542733984534
 31
0.0
  0
LINE
  5
25FD
330
3450
100
AcDbEntity
  8
0
 62
     0
100
AcDbLine
 10
-111.3000000000029
 20
-278.654217499321
 30
0.0
 11
-104.5000000000036
 21
-275.4161239688383
 31
0.0
  0
LINE
  5
25FE
330
3450
100
AcDbEntity
  8
0
 62
     0
100
AcDbLine
 10
-104.5
 20
-265.4161722247036
 30
0.0
 11
111.2999999999992
 21
-162.6543216543186
 31
0.0
  0
LINE
  5
25FF
330
3450
100
AcDbEntity
  8
0
 62
     0
100
AcDbLine
 10
-111.2999999999992
 20
-268.6542657551863
 30
0.0
 11
-104.5
 21
-265.4161722247036
 31
0.0
  0
LINE
  5
2600
330
3450
100
AcDbEntity
  8
0
 62
     0
100
AcDbLine
 10
-104.5
 20
-255.4162204805707
 30
0.0
 11
111.2999999999992
 21
-152.6543699101839
 31
0.0
  0
LINE
  5
2601
330
3450
100
AcDbEntity
  8
0
 62
     0
100
AcDbLine
 10
-111.2999999999956
 20
-258.6543140110534
 30
0.0
 11
-104.5
 21
-255.4162204805707
 31
0.0
  0
LINE
  5
2602
330
3450
100
AcDbEntity
  8
0
 62
     0
100
AcDbLine
 10
-104.5
 20
-245.4162687364351
 30
0.0
 11
100.0881948656788
 21
-147.9933701764166
 31
0.0
  0
LINE
  5
2603
330
3450
100
AcDbEntity
  8
0
 62
     0
100
AcDbLine
 10
-111.2999999999992
 20
-248.6543622669178
 30
0.0
 11
-104.5
 21
-245.4162687364351
 31
0.0
  0
LINE
  5
2604
330
3450
100
AcDbEntity
  8
0
 62
     0
100
AcDbLine
 10
-104.5
 20
-235.4163169923013
 30
0.0
 11
79.08828512868787
 21
-147.9933701764166
 31
0.0
  0
LINE
  5
2605
330
3450
100
AcDbEntity
  8
0
 62
     0
100
AcDbLine
 10
-111.2999999999956
 20
-238.654410522784
 30
0.0
 11
-104.5000000000036
 21
-235.4163169923013
 31
0.0
  0
LINE
  5
2606
330
3450
100
AcDbEntity
  8
0
 62
     0
100
AcDbLine
 10
-104.5
 20
-225.4163652481657
 30
0.0
 11
58.0883753916969
 21
-147.9933701764166
 31
0.0
  0
LINE
  5
2607
330
3450
100
AcDbEntity
  8
0
 62
     0
100
AcDbLine
 10
-111.2999999999992
 20
-228.6544587786502
 30
0.0
 11
-104.5000000000036
 21
-225.4163652481675
 31
0.0
  0
LINE
  5
2608
330
3450
100
AcDbEntity
  8
0
 62
     0
100
AcDbLine
 10
-104.5
 20
-215.41641350403
 30
0.0
 11
37.0884656547023
 21
-147.9933701764166
 31
0.0
  0
LINE
  5
2609
330
3450
100
AcDbEntity
  8
0
 62
     0
100
AcDbLine
 10
-111.2999999999992
 20
-218.6545070345146
 30
0.0
 11
-104.5000000000072
 21
-215.4164135040319
 31
0.0
  0
LINE
  5
260A
330
3450
100
AcDbEntity
  8
0
 62
     0
100
AcDbLine
 10
-104.5
 20
-205.4164617598963
 30
0.0
 11
16.08855591771498
 21
-147.9933701764166
 31
0.0
  0
LINE
  5
260B
330
3450
100
AcDbEntity
  8
0
 62
     0
100
AcDbLine
 10
-111.2999999999992
 20
-208.6545552903808
 30
0.0
 11
-104.5000000000036
 21
-205.4164617598981
 31
0.0
  0
LINE
  5
260C
330
3450
100
AcDbEntity
  8
0
 62
     0
100
AcDbLine
 10
-104.5
 20
-195.4165100157606
 30
0.0
 11
-4.911353819279611
 21
-147.9933701764166
 31
0.0
  0
LINE
  5
260D
330
3450
100
AcDbEntity
  8
0
 62
     0
100
AcDbLine
 10
-111.2999999999992
 20
-198.6546035462452
 30
0.0
 11
-104.5000000000036
 21
-195.4165100157625
 31
0.0
  0
LINE
  5
260E
330
3450
100
AcDbEntity
  8
0
 62
     0
100
AcDbLine
 10
-104.5000000000036
 20
-185.4165582716287
 30
0.0
 11
-25.91126355627057
 21
-147.9933701764184
 31
0.0
  0
LINE
  5
260F
330
3450
100
AcDbEntity
  8
0
 62
     0
100
AcDbLine
 10
-111.2999999999992
 20
-188.6546518021132
 30
0.0
 11
-104.5000000000036
 21
-185.4165582716304
 31
0.0
  0
LINE
  5
2610
330
3450
100
AcDbEntity
  8
0
 62
     0
100
AcDbLine
 10
-104.5
 20
-175.416606527493
 30
0.0
 11
-46.91117329325789
 21
-147.9933701764184
 31
0.0
  0
LINE
  5
2611
330
3450
100
AcDbEntity
  8
0
 62
     0
100
AcDbLine
 10
-111.2999999999992
 20
-178.6547000579776
 30
0.0
 11
-104.5000000000036
 21
-175.4166065274949
 31
0.0
  0
LINE
  5
2612
330
3450
100
AcDbEntity
  8
0
 62
     0
100
AcDbLine
 10
-104.5
 20
-165.4166547833592
 30
0.0
 11
-67.91108303024884
 21
-147.9933701764184
 31
0.0
  0
LINE
  5
2613
330
3450
100
AcDbEntity
  8
0
 62
     0
100
AcDbLine
 10
-111.2999999999956
 20
-168.654748313842
 30
0.0
 11
-104.5000000000036
 21
-165.4166547833611
 31
0.0
  0
LINE
  5
2614
330
3450
100
AcDbEntity
  8
0
 62
     0
100
AcDbLine
 10
-104.5
 20
-155.4167030392255
 30
0.0
 11
-88.91099276723982
 21
-147.9933701764184
 31
0.0
  0
LINE
  5
2615
330
3450
100
AcDbEntity
  8
0
 62
     0
100
AcDbLine
 10
-111.2999999999992
 20
-158.65479656971
 30
0.0
 11
-104.5000000000036
 21
-155.4167030392273
 31
0.0
  0
LINE
  5
2616
330
3450
100
AcDbEntity
  8
0
 62
     0
100
AcDbLine
 10
-111.2999999999956
 20
-148.6548448255744
 30
0.0
 11
-109.9109025042307
 21
-147.9933701764184
 31
0.0
  0
ENDBLK
  5
2617
330
3450
100
AcDbEntity
  8
0
100
AcDbBlockEnd
  0
BLOCK
  5
3453
330
3452
100
AcDbEntity
  8
0
100
AcDbBlockBegin
  2
*U23
 70
     1
 10
0.0
 20
0.0
 30
0.0
  3
*U23
  1

  0
INSERT
  5
261A
330
3452
100
AcDbEntity
  8
NOTE
100
AcDbBlockReference
  2
_OPEN30
 10
-140.0
 20
0.0000000000004547
 30
0.0
 41
12.0
 42
12.0
 43
12.0
 50
312.6090116116894
  0
POLYLINE
  5
261B
330
3452
100
AcDbEntity
  8
NOTE
100
AcDb2dPolyline
 66
     1
 10
0.0
 20
0.0
 30
0.0
  0
VERTEX
  5
261C
330
261B
100
AcDbEntity
  8
NOTE
100
AcDbVertex
100
AcDb2dVertex
 10
-148.1239008361894
 20
8.831887408915928
 30
0.0
  0
VERTEX
  5
261D
330
261B
100
AcDbEntity
  8
NOTE
100
AcDbVertex
100
AcDb2dVertex
 10
-227.8693999922543
 20
95.52709505801384
 30
0.0
  0
VERTEX
  5
261E
330
261B
100
AcDbEntity
  8
NOTE
100
AcDbVertex
100
AcDb2dVertex
 10
-776.4522571351115
 20
95.52709505801384
 30
0.0
  0
SEQEND
  5
261F
330
261B
100
AcDbEntity
  8
NOTE
  0
ENDBLK
  5
2620
330
3452
100
AcDbEntity
  8
0
100
AcDbBlockEnd
  0
BLOCK
  5
3455
330
3454
100
AcDbEntity
  8
0
100
AcDbBlockBegin
  2
*X24
 70
     1
 10
0.0
 20
0.0
 30
0.0
  3
*X24
  1

  0
LINE
  5
2623
330
3454
100
AcDbEntity
  8
0
 62
     0
100
AcDbLine
 10
-111.3000000000047
 20
-412.8030970261443
 30
0.0
 11
-106.6695316305049
 21
-415.0080808012017
 31
0.0
  0
LINE
  5
2624
330
3454
100
AcDbEntity
  8
0
 62
     0
100
AcDbLine
 10
-111.3000000000065
 20
-402.8031452820105
 30
0.0
 11
-85.66962189351579
 21
-415.0080808012035
 31
0.0
  0
LINE
  5
2625
330
3454
100
AcDbEntity
  8
0
 62
     0
100
AcDbLine
 10
-111.3000000000047
 20
-392.8031935378767
 30
0.0
 11
-64.66971215652304
 21
-415.0080808012035
 31
0.0
  0
LINE
  5
2626
330
3454
100
AcDbEntity
  8
0
 62
     0
100
AcDbLine
 10
-111.3000000000065
 20
-382.8032417937412
 30
0.0
 11
-43.66980241953569
 21
-415.0080808012017
 31
0.0
  0
LINE
  5
2627
330
3454
100
AcDbEntity
  8
0
 62
     0
100
AcDbLine
 10
-111.3000000000047
 20
-372.8032900496073
 30
0.0
 11
-22.66989268254475
 21
-415.0080808012017
 31
0.0
  0
LINE
  5
2628
330
3454
100
AcDbEntity
  8
0
 62
     0
100
AcDbLine
 10
-111.3000000000065
 20
-362.8033383054717
 30
0.0
 11
-1.669982945553782
 21
-415.0080808012017
 31
0.0
  0
LINE
  5
2629
330
3454
100
AcDbEntity
  8
0
 62
     0
100
AcDbLine
 10
-111.3000000000065
 20
-352.8033865613379
 30
0.0
 11
19.32992679143898
 21
-415.0080808012035
 31
0.0
  0
LINE
  5
262A
330
3454
100
AcDbEntity
  8
0
 62
     0
100
AcDbLine
 10
-111.3000000000065
 20
-342.8034348172041
 30
0.0
 11
40.32983652842449
 21
-415.0080808012017
 31
0.0
  0
LINE
  5
262B
330
3454
100
AcDbEntity
  8
0
 62
     0
100
AcDbLine
 10
-104.5000000000072
 20
-336.0415766035529
 30
0.0
 11
-92.42122712724812
 21
-341.7933701764177
 31
0.0
  0
LINE
  5
262C
330
3454
100
AcDbEntity
  8
0
 62
     0
100
AcDbLine
 10
-92.42122712724812
 20
-341.7933701764177
 30
0.0
 11
61.32974626541908
 21
-415.0080808012017
 31
0.0
  0
LINE
  5
262D
330
3454
100
AcDbEntity
  8
0
 62
     0
100
AcDbLine
 10
-111.3000000000065
 20
-332.8034830730694
 30
0.0
 11
-104.5000000000072
 21
-336.0415766035529
 31
0.0
  0
LINE
  5
262E
330
3454
100
AcDbEntity
  8
0
 62
     0
100
AcDbLine
 10
-104.5000000000054
 20
-326.0416248594192
 30
0.0
 11
-71.42131739025717
 21
-341.7933701764177
 31
0.0
  0
LINE
  5
262F
330
3454
100
AcDbEntity
  8
0
 62
     0
100
AcDbLine
 10
-71.42131739025717
 20
-341.7933701764177
 30
0.0
 11
82.3296560024082
 21
-415.0080808012017
 31
0.0
  0
LINE
  5
2630
330
3454
100
AcDbEntity
  8
0
 62
     0
100
AcDbLine
 10
-111.3000000000047
 20
-322.8035313289347
 30
0.0
 11
-104.5000000000054
 21
-326.0416248594192
 31
0.0
  0
LINE
  5
2631
330
3454
100
AcDbEntity
  8
0
 62
     0
100
AcDbLine
 10
-104.500000000009
 20
-316.0416731152836
 30
0.0
 11
-50.42140765326802
 21
-341.7933701764177
 31
0.0
  0
LINE
  5
2632
330
3454
100
AcDbEntity
  8
0
 62
     0
100
AcDbLine
 10
-50.42140765326802
 20
-341.7933701764177
 30
0.0
 11
103.3295657393992
 21
-415.0080808012007
 31
0.0
  0
LINE
  5
2633
330
3454
100
AcDbEntity
  8
0
 62
     0
100
AcDbLine
 10
-111.3000000000083
 20
-312.8035795848
 30
0.0
 11
-104.500000000009
 21
-316.0416731152836
 31
0.0
  0
LINE
  5
2634
330
3454
100
AcDbEntity
  8
0
 62
     0
100
AcDbLine
 10
-104.5000000000072
 20
-306.041721371148
 30
0.0
 11
-29.42149791627344
 21
-341.7933701764168
 31
0.0
  0
LINE
  5
2635
330
3454
100
AcDbEntity
  8
0
 62
     0
100
AcDbLine
 10
-29.42149791627344
 20
-341.7933701764168
 30
0.0
 11
111.2999999999902
 21
-408.8035719415318
 31
0.0
  0
LINE
  5
2636
330
3454
100
AcDbEntity
  8
0
 62
     0
100
AcDbLine
 10
-111.3000000000029
 20
-302.8036278406653
 30
0.0
 11
-104.5000000000072
 21
-306.041721371148
 31
0.0
  0
LINE
  5
2637
330
3454
100
AcDbEntity
  8
0
 62
     0
100
AcDbLine
 10
-104.5000000000072
 20
-296.041769627016
 30
0.0
 11
-8.421588179284299
 21
-341.7933701764186
 31
0.0
  0
LINE
  5
2638
330
3454
100
AcDbEntity
  8
0
 62
     0
100
AcDbLine
 10
-8.421588179284299
 20
-341.7933701764186
 30
0.0
 11
111.2999999999902
 21
-398.8036201974001
 31
0.0
  0
LINE
  5
2639
330
3454
100
AcDbEntity
  8
0
 62
     0
100
AcDbLine
 10
-111.3000000000065
 20
-292.8036760965322
 30
0.0
 11
-104.5000000000072
 21
-296.041769627016
 31
0.0
  0
LINE
  5
263A
330
3454
100
AcDbEntity
  8
0
 62
     0
100
AcDbLine
 10
-104.500000000009
 20
-286.0418178828804
 30
0.0
 11
12.57832155770848
 21
-341.7933701764186
 31
0.0
  0
LINE
  5
263B
330
3454
100
AcDbEntity
  8
0
 62
     0
100
AcDbLine
 10
12.57832155770848
 20
-341.7933701764186
 30
0.0
 11
111.299999999992
 21
-388.8036684532663
 31
0.0
  0
LINE
  5
263C
330
3454
100
AcDbEntity
  8
0
 62
     0
100
AcDbLine
 10
-111.3000000000047
 20
-282.8037243523986
 30
0.0
 11
-104.500000000009
 21
-286.0418178828804
 31
0.0
  0
LINE
  5
263D
330
3454
100
AcDbEntity
  8
0
 62
     0
100
AcDbLine
 10
-104.5000000000054
 20
-276.0418661387466
 30
0.0
 11
33.57823129469944
 21
-341.7933701764186
 31
0.0
  0
LINE
  5
263E
330
3454
100
AcDbEntity
  8
0
 62
     0
100
AcDbLine
 10
33.57823129469944
 20
-341.7933701764186
 30
0.0
 11
111.299999999992
 21
-378.8037167091307
 31
0.0
  0
LINE
  5
263F
330
3454
100
AcDbEntity
  8
0
 62
     0
100
AcDbLine
 10
-111.3000000000047
 20
-272.803772608263
 30
0.0
 11
-104.5000000000054
 21
-276.0418661387466
 31
0.0
  0
LINE
  5
2640
330
3454
100
AcDbEntity
  8
0
 62
     0
100
AcDbLine
 10
-104.500000000009
 20
-266.0419143946119
 30
0.0
 11
54.57814103168676
 21
-341.7933701764168
 31
0.0
  0
LINE
  5
2641
330
3454
100
AcDbEntity
  8
0
 62
     0
100
AcDbLine
 10
54.57814103168676
 20
-341.7933701764168
 30
0.0
 11
111.299999999992
 21
-368.8037649649968
 31
0.0
  0
LINE
  5
2642
330
3454
100
AcDbEntity
  8
0
 62
     0
100
AcDbLine
 10
-111.3000000000083
 20
-262.8038208641274
 30
0.0
 11
-104.500000000009
 21
-266.0419143946119
 31
0.0
  0
LINE
  5
2643
330
3454
100
AcDbEntity
  8
0
 62
     0
100
AcDbLine
 10
-104.5000000000072
 20
-256.0419626504772
 30
0.0
 11
75.57805076867406
 21
-341.793370176415
 31
0.0
  0
LINE
  5
2644
330
3454
100
AcDbEntity
  8
0
 62
     0
100
AcDbLine
 10
75.5780507686777
 20
-341.7933701764168
 30
0.0
 11
111.2999999999938
 21
-358.8038132208631
 31
0.0
  0
LINE
  5
2645
330
3454
100
AcDbEntity
  8
0
 62
     0
100
AcDbLine
 10
-111.3000000000047
 20
-252.8038691199936
 30
0.0
 11
-104.500000000009
 21
-256.0419626504763
 31
0.0
  0
LINE
  5
2646
330
3454
100
AcDbEntity
  8
0
 62
     0
100
AcDbLine
 10
-104.5000000000072
 20
-246.0420109063443
 30
0.0
 11
96.57796050566687
 21
-341.7933701764168
 31
0.0
  0
LINE
  5
2647
330
3454
100
AcDbEntity
  8
0
 62
     0
100
AcDbLine
 10
96.57796050566869
 20
-341.7933701764186
 30
0.0
 11
111.2999999999938
 21
-348.8038614767293
 31
0.0
  0
LINE
  5
2648
330
3454
100
AcDbEntity
  8
0
 62
     0
100
AcDbLine
 10
-111.3000000000065
 20
-242.8039173758598
 30
0.0
 11
-104.5000000000072
 21
-246.0420109063443
 31
0.0
  0
LINE
  5
2649
330
3454
100
AcDbEntity
  8
0
 62
     0
100
AcDbLine
 10
-104.5000000000072
 20
-236.0420591622096
 30
0.0
 11
111.2999999999883
 21
-338.8039097325927
 31
0.0
  0
LINE
  5
264A
330
3454
100
AcDbEntity
  8
0
 62
     0
100
AcDbLine
 10
-111.3000000000065
 20
-232.803965631726
 30
0.0
 11
-104.5000000000127
 21
-236.0420591622069
 31
0.0
  0
LINE
  5
264B
330
3454
100
AcDbEntity
  8
0
 62
     0
100
AcDbLine
 10
-104.5000000000072
 20
-226.0421074180749
 30
0.0
 11
111.2999999999865
 21
-328.8039579884571
 31
0.0
  0
LINE
  5
264C
330
3454
100
AcDbEntity
  8
0
 62
     0
100
AcDbLine
 10
-111.3000000000065
 20
-222.8040138875904
 30
0.0
 11
-104.5000000000109
 21
-226.0421074180731
 31
0.0
  0
LINE
  5
264D
330
3454
100
AcDbEntity
  8
0
 62
     0
100
AcDbLine
 10
-104.500000000009
 20
-216.0421556739393
 30
0.0
 11
111.2999999999865
 21
-318.8040062443215
 31
0.0
  0
LINE
  5
264E
330
3454
100
AcDbEntity
  8
0
 62
     0
100
AcDbLine
 10
-111.3000000000047
 20
-212.8040621434566
 30
0.0
 11
-104.5000000000127
 21
-216.0421556739374
 31
0.0
  0
LINE
  5
264F
330
3454
100
AcDbEntity
  8
0
 62
     0
100
AcDbLine
 10
-104.500000000009
 20
-206.0422039298055
 30
0.0
 11
111.2999999999865
 21
-308.8040545001877
 31
0.0
  0
LINE
  5
2650
330
3454
100
AcDbEntity
  8
0
 62
     0
100
AcDbLine
 10
-111.3000000000065
 20
-202.804110399321
 30
0.0
 11
-104.5000000000109
 21
-206.0422039298037
 31
0.0
  0
LINE
  5
2651
330
3454
100
AcDbEntity
  8
0
 62
     0
100
AcDbLine
 10
-104.500000000009
 20
-196.0422521856717
 30
0.0
 11
111.2999999999847
 21
-298.8041027560539
 31
0.0
  0
LINE
  5
2652
330
3454
100
AcDbEntity
  8
0
 62
     0
100
AcDbLine
 10
-111.3000000000047
 20
-192.804158655189
 30
0.0
 11
-104.5000000000127
 21
-196.0422521856698
 31
0.0
  0
LINE
  5
2653
330
3454
100
AcDbEntity
  8
0
 62
     0
100
AcDbLine
 10
-104.5000000000072
 20
-186.0423004415378
 30
0.0
 11
111.2999999999883
 21
-288.8041510119201
 31
0.0
  0
LINE
  5
2654
330
3454
100
AcDbEntity
  8
0
 62
     0
100
AcDbLine
 10
-111.3000000000065
 20
-182.8042069110533
 30
0.0
 11
-104.5000000000127
 21
-186.0423004415343
 31
0.0
  0
LINE
  5
2655
330
3454
100
AcDbEntity
  8
0
 62
     0
100
AcDbLine
 10
-104.500000000009
 20
-176.0423486974023
 30
0.0
 11
111.2999999999847
 21
-278.8041992677845
 31
0.0
  0
LINE
  5
2656
330
3454
100
AcDbEntity
  8
0
 62
     0
100
AcDbLine
 10
-111.3000000000083
 20
-172.8042551669177
 30
0.0
 11
-104.5000000000127
 21
-176.0423486974005
 31
0.0
  0
LINE
  5
2657
330
3454
100
AcDbEntity
  8
0
 62
     0
100
AcDbLine
 10
-104.5000000000054
 20
-166.0423969532685
 30
0.0
 11
111.2999999999883
 21
-268.8042475236507
 31
0.0
  0
LINE
  5
2658
330
3454
100
AcDbEntity
  8
0
 62
     0
100
AcDbLine
 10
-111.3000000000047
 20
-162.8043034227839
 30
0.0
 11
-104.5000000000127
 21
-166.0423969532649
 31
0.0
  0
LINE
  5
2659
330
3454
100
AcDbEntity
  8
0
 62
     0
100
AcDbLine
 10
-104.5000000000072
 20
-156.0424452091329
 30
0.0
 11
111.2999999999865
 21
-258.8042957795151
 31
0.0
  0
LINE
  5
265A
330
3454
100
AcDbEntity
  8
0
 62
     0
100
AcDbLine
 10
-111.3000000000065
 20
-152.8043516786483
 30
0.0
 11
-104.5000000000109
 21
-156.0424452091311
 31
0.0
  0
LINE
  5
265B
330
3454
100
AcDbEntity
  8
0
 62
     0
100
AcDbLine
 10
-100.4031567455549
 20
-147.9933701764184
 30
0.0
 11
111.2999999999865
 21
-248.8043440353813
 31
0.0
  0
LINE
  5
265C
330
3454
100
AcDbEntity
  8
0
 62
     0
100
AcDbLine
 10
-79.40324700856582
 20
-147.9933701764184
 30
0.0
 11
111.299999999992
 21
-238.8043922912493
 31
0.0
  0
LINE
  5
265D
330
3454
100
AcDbEntity
  8
0
 62
     0
100
AcDbLine
 10
-58.40333727157485
 20
-147.9933701764184
 30
0.0
 11
111.2999999999883
 21
-228.8044405471137
 31
0.0
  0
LINE
  5
265E
330
3454
100
AcDbEntity
  8
0
 62
     0
100
AcDbLine
 10
-37.4034275345839
 20
-147.9933701764184
 30
0.0
 11
111.2999999999902
 21
-218.8044888029799
 31
0.0
  0
LINE
  5
265F
330
3454
100
AcDbEntity
  8
0
 62
     0
100
AcDbLine
 10
-16.40351779759112
 20
-147.9933701764184
 30
0.0
 11
111.2999999999902
 21
-208.8045370588443
 31
0.0
  0
LINE
  5
2660
330
3454
100
AcDbEntity
  8
0
 62
     0
100
AcDbLine
 10
4.596391939398014
 20
-147.9933701764184
 30
0.0
 11
111.2999999999902
 21
-198.8045853147104
 31
0.0
  0
LINE
  5
2661
330
3454
100
AcDbEntity
  8
0
 62
     0
100
AcDbLine
 10
25.59630167638898
 20
-147.9933701764194
 30
0.0
 11
111.2999999999902
 21
-188.8046335705767
 31
0.0
  0
LINE
  5
2662
330
3454
100
AcDbEntity
  8
0
 62
     0
100
AcDbLine
 10
46.59621141338173
 20
-147.9933701764194
 30
0.0
 11
111.299999999992
 21
-178.8046818264429
 31
0.0
  0
LINE
  5
2663
330
3454
100
AcDbEntity
  8
0
 62
     0
100
AcDbLine
 10
67.59612115037089
 20
-147.9933701764194
 30
0.0
 11
111.2999999999883
 21
-168.8047300823073
 31
0.0
  0
LINE
  5
2664
330
3454
100
AcDbEntity
  8
0
 62
     0
100
AcDbLine
 10
88.59603088736369
 20
-147.9933701764194
 30
0.0
 11
111.299999999992
 21
-158.8047783381734
 31
0.0
  0
LINE
  5
2665
330
3454
100
AcDbEntity
  8
0
 62
     0
100
AcDbLine
 10
109.5959406243546
 20
-147.9933701764194
 30
0.0
 11
111.2999999999902
 21
-148.8048265940379
 31
0.0
  0
ENDBLK
  5
2666
330
3454
100
AcDbEntity
  8
0
100
AcDbBlockEnd
  0
BLOCK
  5
3457
330
3456
100
AcDbEntity
  8
0
100
AcDbBlockBegin
  2
*X25
 70
     1
 10
0.0
 20
0.0
 30
0.0
  3
*X25
  1

  0
LINE
  5
2669
330
3456
100
AcDbEntity
  8
0
 62
     0
100
AcDbLine
 10
106.3545697506306
 20
-415.0080808011996
 30
0.0
 11
111.2999999999992
 21
-412.6531152576799
 31
0.0
  0
LINE
  5
266A
330
3456
100
AcDbEntity
  8
0
 62
     0
100
AcDbLine
 10
85.35466001363966
 20
-415.0080808012007
 30
0.0
 11
111.3000000000029
 21
-402.6531635135452
 31
0.0
  0
LINE
  5
266B
330
3456
100
AcDbEntity
  8
0
 62
     0
100
AcDbLine
 10
64.3547502766487
 20
-415.0080808012007
 30
0.0
 11
111.2999999999956
 21
-392.6532117694114
 31
0.0
  0
LINE
  5
266C
330
3456
100
AcDbEntity
  8
0
 62
     0
100
AcDbLine
 10
43.35484053965774
 20
-415.0080808012007
 30
0.0
 11
111.2999999999992
 21
-382.6532600252758
 31
0.0
  0
LINE
  5
266D
330
3456
100
AcDbEntity
  8
0
 62
     0
100
AcDbLine
 10
22.35493080266316
 20
-415.0080808012017
 30
0.0
 11
111.2999999999956
 21
-372.6533082811429
 31
0.0
  0
LINE
  5
266E
330
3456
100
AcDbEntity
  8
0
 62
     0
100
AcDbLine
 10
1.355021065675827
 20
-415.0080808011996
 30
0.0
 11
111.2999999999992
 21
-362.6533565370072
 31
0.0
  0
LINE
  5
266F
330
3456
100
AcDbEntity
  8
0
 62
     0
100
AcDbLine
 10
-19.64488867131149
 20
-415.0080808012007
 30
0.0
 11
111.2999999999992
 21
-352.6534047928744
 31
0.0
  0
LINE
  5
2670
330
3456
100
AcDbEntity
  8
0
 62
     0
100
AcDbLine
 10
-40.64479840830609
 20
-415.0080808012007
 30
0.0
 11
111.2999999999956
 21
-342.6534530487388
 31
0.0
  0
LINE
  5
2671
330
3456
100
AcDbEntity
  8
0
 62
     0
100
AcDbLine
 10
92.10626524737014
 20
-341.7933701764159
 30
0.0
 11
111.2999999999956
 21
-332.6535013046051
 31
0.0
  0
LINE
  5
2672
330
3456
100
AcDbEntity
  8
0
 62
     0
100
AcDbLine
 10
-61.64470814529703
 20
-415.0080808012007
 30
0.0
 11
92.10626524737014
 21
-341.7933701764159
 31
0.0
  0
LINE
  5
2673
330
3456
100
AcDbEntity
  8
0
 62
     0
100
AcDbLine
 10
71.10635551037922
 20
-341.7933701764168
 30
0.0
 11
111.2999999999992
 21
-322.6535495604703
 31
0.0
  0
LINE
  5
2674
330
3456
100
AcDbEntity
  8
0
 62
     0
100
AcDbLine
 10
-82.64461788228436
 20
-415.0080808012017
 30
0.0
 11
71.10635551037922
 21
-341.7933701764168
 31
0.0
  0
LINE
  5
2675
330
3456
100
AcDbEntity
  8
0
 62
     0
100
AcDbLine
 10
50.10644577338462
 20
-341.7933701764168
 30
0.0
 11
111.2999999999992
 21
-312.6535978163347
 31
0.0
  0
LINE
  5
2676
330
3456
100
AcDbEntity
  8
0
 62
     0
100
AcDbLine
 10
-103.6445276192752
 20
-415.0080808011996
 30
0.0
 11
50.10644577338462
 21
-341.7933701764168
 31
0.0
  0
LINE
  5
2677
330
3456
100
AcDbEntity
  8
0
 62
     0
100
AcDbLine
 10
29.1065360363973
 20
-341.7933701764168
 30
0.0
 11
111.2999999999992
 21
-302.6536460722009
 31
0.0
  0
LINE
  5
2678
330
3456
100
AcDbEntity
  8
0
 62
     0
100
AcDbLine
 10
-111.2999999999992
 20
-408.6535901730685
 30
0.0
 11
29.1065360363973
 21
-341.7933701764168
 31
0.0
  0
LINE
  5
2679
330
3456
100
AcDbEntity
  8
0
 62
     0
100
AcDbLine
 10
8.106626299406341
 20
-341.7933701764177
 30
0.0
 11
111.2999999999992
 21
-292.6536943280662
 31
0.0
  0
LINE
  5
267A
330
3456
100
AcDbEntity
  8
0
 62
     0
100
AcDbLine
 10
-111.2999999999956
 20
-398.6536384289339
 30
0.0
 11
8.106626299406341
 21
-341.7933701764177
 31
0.0
  0
LINE
  5
267B
330
3456
100
AcDbEntity
  8
0
 62
     0
100
AcDbLine
 10
-12.89328343758461
 20
-341.7933701764159
 30
0.0
 11
111.2999999999956
 21
-282.6537425839324
 31
0.0
  0
LINE
  5
267C
330
3456
100
AcDbEntity
  8
0
 62
     0
100
AcDbLine
 10
-111.2999999999992
 20
-388.6536866848
 30
0.0
 11
-12.89328343758461
 21
-341.7933701764159
 31
0.0
  0
LINE
  5
267D
330
3456
100
AcDbEntity
  8
0
 62
     0
100
AcDbLine
 10
-33.89319317457193
 20
-341.7933701764168
 30
0.0
 11
111.2999999999992
 21
-272.6537908397977
 31
0.0
  0
LINE
  5
267E
330
3456
100
AcDbEntity
  8
0
 62
     0
100
AcDbLine
 10
-111.2999999999992
 20
-378.6537349406653
 30
0.0
 11
-33.89319317457193
 21
-341.7933701764168
 31
0.0
  0
LINE
  5
267F
330
3456
100
AcDbEntity
  8
0
 62
     0
100
AcDbLine
 10
-54.89310291156654
 20
-341.7933701764168
 30
0.0
 11
111.2999999999956
 21
-262.6538390956639
 31
0.0
  0
LINE
  5
2680
330
3456
100
AcDbEntity
  8
0
 62
     0
100
AcDbLine
 10
-111.3000000000029
 20
-368.6537831965316
 30
0.0
 11
-54.89310291156654
 21
-341.7933701764168
 31
0.0
  0
LINE
  5
2681
330
3456
100
AcDbEntity
  8
0
 62
     0
100
AcDbLine
 10
-75.89301264855386
 20
-341.793370176415
 30
0.0
 11
111.2999999999992
 21
-252.6538873515283
 31
0.0
  0
LINE
  5
2682
330
3456
100
AcDbEntity
  8
0
 62
     0
100
AcDbLine
 10
-111.2999999999992
 20
-358.6538314523959
 30
0.0
 11
-75.89301264855747
 21
-341.7933701764168
 31
0.0
  0
LINE
  5
2683
330
3456
100
AcDbEntity
  8
0
 62
     0
100
AcDbLine
 10
-96.89292238554479
 20
-341.7933701764159
 30
0.0
 11
111.2999999999992
 21
-242.6539356073936
 31
0.0
  0
LINE
  5
2684
330
3456
100
AcDbEntity
  8
0
 62
     0
100
AcDbLine
 10
-111.2999999999956
 20
-348.6538797082612
 30
0.0
 11
-96.89292238554845
 21
-341.7933701764177
 31
0.0
  0
LINE
  5
2685
330
3456
100
AcDbEntity
  8
0
 62
     0
100
AcDbLine
 10
-104.4999999999963
 20
-335.4158344336429
 30
0.0
 11
111.2999999999992
 21
-232.6539838632598
 31
0.0
  0
LINE
  5
2686
330
3456
100
AcDbEntity
  8
0
 62
     0
100
AcDbLine
 10
-111.2999999999956
 20
-338.6539279641274
 30
0.0
 11
-104.4999999999963
 21
-335.4158344336429
 31
0.0
  0
LINE
  5
2687
330
3456
100
AcDbEntity
  8
0
 62
     0
100
AcDbLine
 10
-104.5000000000036
 20
-325.4158826895089
 30
0.0
 11
111.2999999999992
 21
-222.6540321191242
 31
0.0
  0
LINE
  5
2688
330
3456
100
AcDbEntity
  8
0
 62
     0
100
AcDbLine
 10
-111.2999999999992
 20
-328.6539762199918
 30
0.0
 11
-104.5000000000036
 21
-325.4158826895089
 31
0.0
  0
LINE
  5
2689
330
3456
100
AcDbEntity
  8
0
 62
     0
100
AcDbLine
 10
-104.5
 20
-315.4159309453744
 30
0.0
 11
111.2999999999992
 21
-212.6540803749913
 31
0.0
  0
LINE
  5
268A
330
3456
100
AcDbEntity
  8
0
 62
     0
100
AcDbLine
 10
-111.2999999999992
 20
-318.6540244758589
 30
0.0
 11
-104.5
 21
-315.4159309453744
 31
0.0
  0
LINE
  5
268B
330
3456
100
AcDbEntity
  8
0
 62
     0
100
AcDbLine
 10
-104.5
 20
-305.4159792012406
 30
0.0
 11
111.2999999999956
 21
-202.6541286308557
 31
0.0
  0
LINE
  5
268C
330
3456
100
AcDbEntity
  8
0
 62
     0
100
AcDbLine
 10
-111.2999999999992
 20
-308.6540727317232
 30
0.0
 11
-104.5
 21
-305.4159792012406
 31
0.0
  0
LINE
  5
268D
330
3456
100
AcDbEntity
  8
0
 62
     0
100
AcDbLine
 10
-104.5
 20
-295.4160274571077
 30
0.0
 11
111.2999999999956
 21
-192.6541768867228
 31
0.0
  0
LINE
  5
268E
330
3456
100
AcDbEntity
  8
0
 62
     0
100
AcDbLine
 10
-111.2999999999992
 20
-298.6541209875904
 30
0.0
 11
-104.5
 21
-295.4160274571077
 31
0.0
  0
LINE
  5
268F
330
3456
100
AcDbEntity
  8
0
 62
     0
100
AcDbLine
 10
-104.5
 20
-285.4160757129721
 30
0.0
 11
111.2999999999992
 21
-182.6542251425872
 31
0.0
  0
LINE
  5
2690
330
3456
100
AcDbEntity
  8
0
 62
     0
100
AcDbLine
 10
-111.2999999999956
 20
-288.6541692434548
 30
0.0
 11
-104.5
 21
-285.4160757129721
 31
0.0
  0
LINE
  5
2691
330
3456
100
AcDbEntity
  8
0
 62
     0
100
AcDbLine
 10
-104.5000000000036
 20
-275.4161239688383
 30
0.0
 11
111.2999999999956
 21
-172.6542733984534
 31
0.0
  0
LINE
  5
2692
330
3456
100
AcDbEntity
  8
0
 62
     0
100
AcDbLine
 10
-111.3000000000029
 20
-278.654217499321
 30
0.0
 11
-104.5000000000036
 21
-275.4161239688383
 31
0.0
  0
LINE
  5
2693
330
3456
100
AcDbEntity
  8
0
 62
     0
100
AcDbLine
 10
-104.5
 20
-265.4161722247036
 30
0.0
 11
111.2999999999992
 21
-162.6543216543186
 31
0.0
  0
LINE
  5
2694
330
3456
100
AcDbEntity
  8
0
 62
     0
100
AcDbLine
 10
-111.2999999999992
 20
-268.6542657551863
 30
0.0
 11
-104.5
 21
-265.4161722247036
 31
0.0
  0
LINE
  5
2695
330
3456
100
AcDbEntity
  8
0
 62
     0
100
AcDbLine
 10
-104.5
 20
-255.4162204805707
 30
0.0
 11
111.2999999999992
 21
-152.6543699101839
 31
0.0
  0
LINE
  5
2696
330
3456
100
AcDbEntity
  8
0
 62
     0
100
AcDbLine
 10
-111.2999999999956
 20
-258.6543140110534
 30
0.0
 11
-104.5
 21
-255.4162204805707
 31
0.0
  0
LINE
  5
2697
330
3456
100
AcDbEntity
  8
0
 62
     0
100
AcDbLine
 10
-104.5
 20
-245.4162687364351
 30
0.0
 11
100.0881948656788
 21
-147.9933701764166
 31
0.0
  0
LINE
  5
2698
330
3456
100
AcDbEntity
  8
0
 62
     0
100
AcDbLine
 10
-111.2999999999992
 20
-248.6543622669178
 30
0.0
 11
-104.5
 21
-245.4162687364351
 31
0.0
  0
LINE
  5
2699
330
3456
100
AcDbEntity
  8
0
 62
     0
100
AcDbLine
 10
-104.5
 20
-235.4163169923013
 30
0.0
 11
79.08828512868787
 21
-147.9933701764166
 31
0.0
  0
LINE
  5
269A
330
3456
100
AcDbEntity
  8
0
 62
     0
100
AcDbLine
 10
-111.2999999999956
 20
-238.654410522784
 30
0.0
 11
-104.5000000000036
 21
-235.4163169923013
 31
0.0
  0
LINE
  5
269B
330
3456
100
AcDbEntity
  8
0
 62
     0
100
AcDbLine
 10
-104.5
 20
-225.4163652481657
 30
0.0
 11
58.0883753916969
 21
-147.9933701764166
 31
0.0
  0
LINE
  5
269C
330
3456
100
AcDbEntity
  8
0
 62
     0
100
AcDbLine
 10
-111.2999999999992
 20
-228.6544587786502
 30
0.0
 11
-104.5000000000036
 21
-225.4163652481675
 31
0.0
  0
LINE
  5
269D
330
3456
100
AcDbEntity
  8
0
 62
     0
100
AcDbLine
 10
-104.5
 20
-215.41641350403
 30
0.0
 11
37.0884656547023
 21
-147.9933701764166
 31
0.0
  0
LINE
  5
269E
330
3456
100
AcDbEntity
  8
0
 62
     0
100
AcDbLine
 10
-111.2999999999992
 20
-218.6545070345146
 30
0.0
 11
-104.5000000000072
 21
-215.4164135040319
 31
0.0
  0
LINE
  5
269F
330
3456
100
AcDbEntity
  8
0
 62
     0
100
AcDbLine
 10
-104.5
 20
-205.4164617598963
 30
0.0
 11
16.08855591771498
 21
-147.9933701764166
 31
0.0
  0
LINE
  5
26A0
330
3456
100
AcDbEntity
  8
0
 62
     0
100
AcDbLine
 10
-111.2999999999992
 20
-208.6545552903808
 30
0.0
 11
-104.5000000000036
 21
-205.4164617598981
 31
0.0
  0
LINE
  5
26A1
330
3456
100
AcDbEntity
  8
0
 62
     0
100
AcDbLine
 10
-104.5
 20
-195.4165100157606
 30
0.0
 11
-4.911353819279611
 21
-147.9933701764166
 31
0.0
  0
LINE
  5
26A2
330
3456
100
AcDbEntity
  8
0
 62
     0
100
AcDbLine
 10
-111.2999999999992
 20
-198.6546035462452
 30
0.0
 11
-104.5000000000036
 21
-195.4165100157625
 31
0.0
  0
LINE
  5
26A3
330
3456
100
AcDbEntity
  8
0
 62
     0
100
AcDbLine
 10
-104.5000000000036
 20
-185.4165582716287
 30
0.0
 11
-25.91126355627057
 21
-147.9933701764184
 31
0.0
  0
LINE
  5
26A4
330
3456
100
AcDbEntity
  8
0
 62
     0
100
AcDbLine
 10
-111.2999999999992
 20
-188.6546518021132
 30
0.0
 11
-104.5000000000036
 21
-185.4165582716304
 31
0.0
  0
LINE
  5
26A5
330
3456
100
AcDbEntity
  8
0
 62
     0
100
AcDbLine
 10
-104.5
 20
-175.416606527493
 30
0.0
 11
-46.91117329325789
 21
-147.9933701764184
 31
0.0
  0
LINE
  5
26A6
330
3456
100
AcDbEntity
  8
0
 62
     0
100
AcDbLine
 10
-111.2999999999992
 20
-178.6547000579776
 30
0.0
 11
-104.5000000000036
 21
-175.4166065274949
 31
0.0
  0
LINE
  5
26A7
330
3456
100
AcDbEntity
  8
0
 62
     0
100
AcDbLine
 10
-104.5
 20
-165.4166547833592
 30
0.0
 11
-67.91108303024884
 21
-147.9933701764184
 31
0.0
  0
LINE
  5
26A8
330
3456
100
AcDbEntity
  8
0
 62
     0
100
AcDbLine
 10
-111.2999999999956
 20
-168.654748313842
 30
0.0
 11
-104.5000000000036
 21
-165.4166547833611
 31
0.0
  0
LINE
  5
26A9
330
3456
100
AcDbEntity
  8
0
 62
     0
100
AcDbLine
 10
-104.5
 20
-155.4167030392255
 30
0.0
 11
-88.91099276723982
 21
-147.9933701764184
 31
0.0
  0
LINE
  5
26AA
330
3456
100
AcDbEntity
  8
0
 62
     0
100
AcDbLine
 10
-111.2999999999992
 20
-158.65479656971
 30
0.0
 11
-104.5000000000036
 21
-155.4167030392273
 31
0.0
  0
LINE
  5
26AB
330
3456
100
AcDbEntity
  8
0
 62
     0
100
AcDbLine
 10
-111.2999999999956
 20
-148.6548448255744
 30
0.0
 11
-109.9109025042307
 21
-147.9933701764184
 31
0.0
  0
ENDBLK
  5
26AC
330
3456
100
AcDbEntity
  8
0
100
AcDbBlockEnd
  0
BLOCK
  5
3459
330
3458
100
AcDbEntity
  8
0
100
AcDbBlockBegin
  2
*X26
 70
     1
 10
0.0
 20
0.0
 30
0.0
  3
*X26
  1

  0
LINE
  5
29D6
330
3458
100
AcDbEntity
  8
0
 62
     0
100
AcDbLine
 10
-111.3000000000047
 20
-412.8030970261443
 30
0.0
 11
-106.6695316305049
 21
-415.0080808012017
 31
0.0
  0
LINE
  5
29D7
330
3458
100
AcDbEntity
  8
0
 62
     0
100
AcDbLine
 10
-111.3000000000065
 20
-402.8031452820105
 30
0.0
 11
-85.66962189351579
 21
-415.0080808012035
 31
0.0
  0
LINE
  5
29D8
330
3458
100
AcDbEntity
  8
0
 62
     0
100
AcDbLine
 10
-111.3000000000047
 20
-392.8031935378767
 30
0.0
 11
-64.66971215652304
 21
-415.0080808012035
 31
0.0
  0
LINE
  5
29D9
330
3458
100
AcDbEntity
  8
0
 62
     0
100
AcDbLine
 10
-111.3000000000065
 20
-382.8032417937412
 30
0.0
 11
-43.66980241953569
 21
-415.0080808012017
 31
0.0
  0
LINE
  5
29DA
330
3458
100
AcDbEntity
  8
0
 62
     0
100
AcDbLine
 10
-111.3000000000047
 20
-372.8032900496073
 30
0.0
 11
-22.66989268254475
 21
-415.0080808012017
 31
0.0
  0
LINE
  5
29DB
330
3458
100
AcDbEntity
  8
0
 62
     0
100
AcDbLine
 10
-111.3000000000065
 20
-362.8033383054717
 30
0.0
 11
-1.669982945553782
 21
-415.0080808012017
 31
0.0
  0
LINE
  5
29DC
330
3458
100
AcDbEntity
  8
0
 62
     0
100
AcDbLine
 10
-111.3000000000065
 20
-352.8033865613379
 30
0.0
 11
19.32992679143898
 21
-415.0080808012035
 31
0.0
  0
LINE
  5
29DD
330
3458
100
AcDbEntity
  8
0
 62
     0
100
AcDbLine
 10
-111.3000000000065
 20
-342.8034348172041
 30
0.0
 11
40.32983652842449
 21
-415.0080808012017
 31
0.0
  0
LINE
  5
29DE
330
3458
100
AcDbEntity
  8
0
 62
     0
100
AcDbLine
 10
-104.5000000000072
 20
-336.0415766035529
 30
0.0
 11
-92.42122712724812
 21
-341.7933701764177
 31
0.0
  0
LINE
  5
29DF
330
3458
100
AcDbEntity
  8
0
 62
     0
100
AcDbLine
 10
-92.42122712724812
 20
-341.7933701764177
 30
0.0
 11
61.32974626541908
 21
-415.0080808012017
 31
0.0
  0
LINE
  5
29E0
330
3458
100
AcDbEntity
  8
0
 62
     0
100
AcDbLine
 10
-111.3000000000065
 20
-332.8034830730694
 30
0.0
 11
-104.5000000000072
 21
-336.0415766035529
 31
0.0
  0
LINE
  5
29E1
330
3458
100
AcDbEntity
  8
0
 62
     0
100
AcDbLine
 10
-104.5000000000054
 20
-326.0416248594192
 30
0.0
 11
-71.42131739025717
 21
-341.7933701764177
 31
0.0
  0
LINE
  5
29E2
330
3458
100
AcDbEntity
  8
0
 62
     0
100
AcDbLine
 10
-71.42131739025717
 20
-341.7933701764177
 30
0.0
 11
82.3296560024082
 21
-415.0080808012017
 31
0.0
  0
LINE
  5
29E3
330
3458
100
AcDbEntity
  8
0
 62
     0
100
AcDbLine
 10
-111.3000000000047
 20
-322.8035313289347
 30
0.0
 11
-104.5000000000054
 21
-326.0416248594192
 31
0.0
  0
LINE
  5
29E4
330
3458
100
AcDbEntity
  8
0
 62
     0
100
AcDbLine
 10
-104.500000000009
 20
-316.0416731152836
 30
0.0
 11
-50.42140765326802
 21
-341.7933701764177
 31
0.0
  0
LINE
  5
29E5
330
3458
100
AcDbEntity
  8
0
 62
     0
100
AcDbLine
 10
-50.42140765326802
 20
-341.7933701764177
 30
0.0
 11
103.3295657393992
 21
-415.0080808012007
 31
0.0
  0
LINE
  5
29E6
330
3458
100
AcDbEntity
  8
0
 62
     0
100
AcDbLine
 10
-111.3000000000083
 20
-312.8035795848
 30
0.0
 11
-104.500000000009
 21
-316.0416731152836
 31
0.0
  0
LINE
  5
29E7
330
3458
100
AcDbEntity
  8
0
 62
     0
100
AcDbLine
 10
-104.5000000000072
 20
-306.041721371148
 30
0.0
 11
-29.42149791627344
 21
-341.7933701764168
 31
0.0
  0
LINE
  5
29E8
330
3458
100
AcDbEntity
  8
0
 62
     0
100
AcDbLine
 10
-29.42149791627344
 20
-341.7933701764168
 30
0.0
 11
111.2999999999902
 21
-408.8035719415318
 31
0.0
  0
LINE
  5
29E9
330
3458
100
AcDbEntity
  8
0
 62
     0
100
AcDbLine
 10
-111.3000000000029
 20
-302.8036278406653
 30
0.0
 11
-104.5000000000072
 21
-306.041721371148
 31
0.0
  0
LINE
  5
29EA
330
3458
100
AcDbEntity
  8
0
 62
     0
100
AcDbLine
 10
-104.5000000000072
 20
-296.041769627016
 30
0.0
 11
-8.421588179284299
 21
-341.7933701764186
 31
0.0
  0
LINE
  5
29EB
330
3458
100
AcDbEntity
  8
0
 62
     0
100
AcDbLine
 10
-8.421588179284299
 20
-341.7933701764186
 30
0.0
 11
111.2999999999902
 21
-398.8036201974001
 31
0.0
  0
LINE
  5
29EC
330
3458
100
AcDbEntity
  8
0
 62
     0
100
AcDbLine
 10
-111.3000000000065
 20
-292.8036760965322
 30
0.0
 11
-104.5000000000072
 21
-296.041769627016
 31
0.0
  0
LINE
  5
29ED
330
3458
100
AcDbEntity
  8
0
 62
     0
100
AcDbLine
 10
-104.500000000009
 20
-286.0418178828804
 30
0.0
 11
12.57832155770848
 21
-341.7933701764186
 31
0.0
  0
LINE
  5
29EE
330
3458
100
AcDbEntity
  8
0
 62
     0
100
AcDbLine
 10
12.57832155770848
 20
-341.7933701764186
 30
0.0
 11
111.299999999992
 21
-388.8036684532663
 31
0.0
  0
LINE
  5
29EF
330
3458
100
AcDbEntity
  8
0
 62
     0
100
AcDbLine
 10
-111.3000000000047
 20
-282.8037243523986
 30
0.0
 11
-104.500000000009
 21
-286.0418178828804
 31
0.0
  0
LINE
  5
29F0
330
3458
100
AcDbEntity
  8
0
 62
     0
100
AcDbLine
 10
-104.5000000000054
 20
-276.0418661387466
 30
0.0
 11
33.57823129469944
 21
-341.7933701764186
 31
0.0
  0
LINE
  5
29F1
330
3458
100
AcDbEntity
  8
0
 62
     0
100
AcDbLine
 10
33.57823129469944
 20
-341.7933701764186
 30
0.0
 11
111.299999999992
 21
-378.8037167091307
 31
0.0
  0
LINE
  5
29F2
330
3458
100
AcDbEntity
  8
0
 62
     0
100
AcDbLine
 10
-111.3000000000047
 20
-272.803772608263
 30
0.0
 11
-104.5000000000054
 21
-276.0418661387466
 31
0.0
  0
LINE
  5
29F3
330
3458
100
AcDbEntity
  8
0
 62
     0
100
AcDbLine
 10
-104.500000000009
 20
-266.0419143946119
 30
0.0
 11
54.57814103168676
 21
-341.7933701764168
 31
0.0
  0
LINE
  5
29F4
330
3458
100
AcDbEntity
  8
0
 62
     0
100
AcDbLine
 10
54.57814103168676
 20
-341.7933701764168
 30
0.0
 11
111.299999999992
 21
-368.8037649649968
 31
0.0
  0
LINE
  5
29F5
330
3458
100
AcDbEntity
  8
0
 62
     0
100
AcDbLine
 10
-111.3000000000083
 20
-262.8038208641274
 30
0.0
 11
-104.500000000009
 21
-266.0419143946119
 31
0.0
  0
LINE
  5
29F6
330
3458
100
AcDbEntity
  8
0
 62
     0
100
AcDbLine
 10
-104.5000000000072
 20
-256.0419626504772
 30
0.0
 11
75.57805076867406
 21
-341.793370176415
 31
0.0
  0
LINE
  5
29F7
330
3458
100
AcDbEntity
  8
0
 62
     0
100
AcDbLine
 10
75.5780507686777
 20
-341.7933701764168
 30
0.0
 11
111.2999999999938
 21
-358.8038132208631
 31
0.0
  0
LINE
  5
29F8
330
3458
100
AcDbEntity
  8
0
 62
     0
100
AcDbLine
 10
-111.3000000000047
 20
-252.8038691199936
 30
0.0
 11
-104.500000000009
 21
-256.0419626504763
 31
0.0
  0
LINE
  5
29F9
330
3458
100
AcDbEntity
  8
0
 62
     0
100
AcDbLine
 10
-104.5000000000072
 20
-246.0420109063443
 30
0.0
 11
96.57796050566687
 21
-341.7933701764168
 31
0.0
  0
LINE
  5
29FA
330
3458
100
AcDbEntity
  8
0
 62
     0
100
AcDbLine
 10
96.57796050566869
 20
-341.7933701764186
 30
0.0
 11
111.2999999999938
 21
-348.8038614767293
 31
0.0
  0
LINE
  5
29FB
330
3458
100
AcDbEntity
  8
0
 62
     0
100
AcDbLine
 10
-111.3000000000065
 20
-242.8039173758598
 30
0.0
 11
-104.5000000000072
 21
-246.0420109063443
 31
0.0
  0
LINE
  5
29FC
330
3458
100
AcDbEntity
  8
0
 62
     0
100
AcDbLine
 10
-104.5000000000072
 20
-236.0420591622096
 30
0.0
 11
111.2999999999883
 21
-338.8039097325927
 31
0.0
  0
LINE
  5
29FD
330
3458
100
AcDbEntity
  8
0
 62
     0
100
AcDbLine
 10
-111.3000000000065
 20
-232.803965631726
 30
0.0
 11
-104.5000000000127
 21
-236.0420591622069
 31
0.0
  0
LINE
  5
29FE
330
3458
100
AcDbEntity
  8
0
 62
     0
100
AcDbLine
 10
-104.5000000000072
 20
-226.0421074180749
 30
0.0
 11
111.2999999999865
 21
-328.8039579884571
 31
0.0
  0
LINE
  5
29FF
330
3458
100
AcDbEntity
  8
0
 62
     0
100
AcDbLine
 10
-111.3000000000065
 20
-222.8040138875904
 30
0.0
 11
-104.5000000000109
 21
-226.0421074180731
 31
0.0
  0
LINE
  5
2A00
330
3458
100
AcDbEntity
  8
0
 62
     0
100
AcDbLine
 10
-104.500000000009
 20
-216.0421556739393
 30
0.0
 11
111.2999999999865
 21
-318.8040062443215
 31
0.0
  0
LINE
  5
2A01
330
3458
100
AcDbEntity
  8
0
 62
     0
100
AcDbLine
 10
-111.3000000000047
 20
-212.8040621434566
 30
0.0
 11
-104.5000000000127
 21
-216.0421556739374
 31
0.0
  0
LINE
  5
2A02
330
3458
100
AcDbEntity
  8
0
 62
     0
100
AcDbLine
 10
-104.500000000009
 20
-206.0422039298055
 30
0.0
 11
111.2999999999865
 21
-308.8040545001877
 31
0.0
  0
LINE
  5
2A03
330
3458
100
AcDbEntity
  8
0
 62
     0
100
AcDbLine
 10
-111.3000000000065
 20
-202.804110399321
 30
0.0
 11
-104.5000000000109
 21
-206.0422039298037
 31
0.0
  0
LINE
  5
2A04
330
3458
100
AcDbEntity
  8
0
 62
     0
100
AcDbLine
 10
-104.500000000009
 20
-196.0422521856717
 30
0.0
 11
111.2999999999847
 21
-298.8041027560539
 31
0.0
  0
LINE
  5
2A05
330
3458
100
AcDbEntity
  8
0
 62
     0
100
AcDbLine
 10
-111.3000000000047
 20
-192.804158655189
 30
0.0
 11
-104.5000000000127
 21
-196.0422521856698
 31
0.0
  0
LINE
  5
2A06
330
3458
100
AcDbEntity
  8
0
 62
     0
100
AcDbLine
 10
-104.5000000000072
 20
-186.0423004415378
 30
0.0
 11
111.2999999999883
 21
-288.8041510119201
 31
0.0
  0
LINE
  5
2A07
330
3458
100
AcDbEntity
  8
0
 62
     0
100
AcDbLine
 10
-111.3000000000065
 20
-182.8042069110533
 30
0.0
 11
-104.5000000000127
 21
-186.0423004415343
 31
0.0
  0
LINE
  5
2A08
330
3458
100
AcDbEntity
  8
0
 62
     0
100
AcDbLine
 10
-104.500000000009
 20
-176.0423486974023
 30
0.0
 11
111.2999999999847
 21
-278.8041992677845
 31
0.0
  0
LINE
  5
2A09
330
3458
100
AcDbEntity
  8
0
 62
     0
100
AcDbLine
 10
-111.3000000000083
 20
-172.8042551669177
 30
0.0
 11
-104.5000000000127
 21
-176.0423486974005
 31
0.0
  0
LINE
  5
2A0A
330
3458
100
AcDbEntity
  8
0
 62
     0
100
AcDbLine
 10
-104.5000000000054
 20
-166.0423969532685
 30
0.0
 11
111.2999999999883
 21
-268.8042475236507
 31
0.0
  0
LINE
  5
2A0B
330
3458
100
AcDbEntity
  8
0
 62
     0
100
AcDbLine
 10
-111.3000000000047
 20
-162.8043034227839
 30
0.0
 11
-104.5000000000127
 21
-166.0423969532649
 31
0.0
  0
LINE
  5
2A0C
330
3458
100
AcDbEntity
  8
0
 62
     0
100
AcDbLine
 10
-104.5000000000072
 20
-156.0424452091329
 30
0.0
 11
111.2999999999865
 21
-258.8042957795151
 31
0.0
  0
LINE
  5
2A0D
330
3458
100
AcDbEntity
  8
0
 62
     0
100
AcDbLine
 10
-111.3000000000065
 20
-152.8043516786483
 30
0.0
 11
-104.5000000000109
 21
-156.0424452091311
 31
0.0
  0
LINE
  5
2A0E
330
3458
100
AcDbEntity
  8
0
 62
     0
100
AcDbLine
 10
-100.4031567455549
 20
-147.9933701764184
 30
0.0
 11
111.2999999999865
 21
-248.8043440353813
 31
0.0
  0
LINE
  5
2A0F
330
3458
100
AcDbEntity
  8
0
 62
     0
100
AcDbLine
 10
-79.40324700856582
 20
-147.9933701764184
 30
0.0
 11
111.299999999992
 21
-238.8043922912493
 31
0.0
  0
LINE
  5
2A10
330
3458
100
AcDbEntity
  8
0
 62
     0
100
AcDbLine
 10
-58.40333727157485
 20
-147.9933701764184
 30
0.0
 11
111.2999999999883
 21
-228.8044405471137
 31
0.0
  0
LINE
  5
2A11
330
3458
100
AcDbEntity
  8
0
 62
     0
100
AcDbLine
 10
-37.4034275345839
 20
-147.9933701764184
 30
0.0
 11
111.2999999999902
 21
-218.8044888029799
 31
0.0
  0
LINE
  5
2A12
330
3458
100
AcDbEntity
  8
0
 62
     0
100
AcDbLine
 10
-16.40351779759112
 20
-147.9933701764184
 30
0.0
 11
111.2999999999902
 21
-208.8045370588443
 31
0.0
  0
LINE
  5
2A13
330
3458
100
AcDbEntity
  8
0
 62
     0
100
AcDbLine
 10
4.596391939398014
 20
-147.9933701764184
 30
0.0
 11
111.2999999999902
 21
-198.8045853147104
 31
0.0
  0
LINE
  5
2A14
330
3458
100
AcDbEntity
  8
0
 62
     0
100
AcDbLine
 10
25.59630167638898
 20
-147.9933701764194
 30
0.0
 11
111.2999999999902
 21
-188.8046335705767
 31
0.0
  0
LINE
  5
2A15
330
3458
100
AcDbEntity
  8
0
 62
     0
100
AcDbLine
 10
46.59621141338173
 20
-147.9933701764194
 30
0.0
 11
111.299999999992
 21
-178.8046818264429
 31
0.0
  0
LINE
  5
2A16
330
3458
100
AcDbEntity
  8
0
 62
     0
100
AcDbLine
 10
67.59612115037089
 20
-147.9933701764194
 30
0.0
 11
111.2999999999883
 21
-168.8047300823073
 31
0.0
  0
LINE
  5
2A17
330
3458
100
AcDbEntity
  8
0
 62
     0
100
AcDbLine
 10
88.59603088736369
 20
-147.9933701764194
 30
0.0
 11
111.299999999992
 21
-158.8047783381734
 31
0.0
  0
LINE
  5
2A18
330
3458
100
AcDbEntity
  8
0
 62
     0
100
AcDbLine
 10
109.5959406243546
 20
-147.9933701764194
 30
0.0
 11
111.2999999999902
 21
-148.8048265940379
 31
0.0
  0
ENDBLK
  5
2A19
330
3458
100
AcDbEntity
  8
0
100
AcDbBlockEnd
  0
BLOCK
  5
345B
330
345A
100
AcDbEntity
  8
0
100
AcDbBlockBegin
  2
*X27
 70
     1
 10
0.0
 20
0.0
 30
0.0
  3
*X27
  1

  0
LINE
  5
2A1C
330
345A
100
AcDbEntity
  8
0
 62
     0
100
AcDbLine
 10
106.3545697506306
 20
-415.0080808011996
 30
0.0
 11
111.2999999999992
 21
-412.6531152576799
 31
0.0
  0
LINE
  5
2A1D
330
345A
100
AcDbEntity
  8
0
 62
     0
100
AcDbLine
 10
85.35466001363966
 20
-415.0080808012007
 30
0.0
 11
111.3000000000029
 21
-402.6531635135452
 31
0.0
  0
LINE
  5
2A1E
330
345A
100
AcDbEntity
  8
0
 62
     0
100
AcDbLine
 10
64.3547502766487
 20
-415.0080808012007
 30
0.0
 11
111.2999999999956
 21
-392.6532117694114
 31
0.0
  0
LINE
  5
2A1F
330
345A
100
AcDbEntity
  8
0
 62
     0
100
AcDbLine
 10
43.35484053965774
 20
-415.0080808012007
 30
0.0
 11
111.2999999999992
 21
-382.6532600252758
 31
0.0
  0
LINE
  5
2A20
330
345A
100
AcDbEntity
  8
0
 62
     0
100
AcDbLine
 10
22.35493080266316
 20
-415.0080808012017
 30
0.0
 11
111.2999999999956
 21
-372.6533082811429
 31
0.0
  0
LINE
  5
2A21
330
345A
100
AcDbEntity
  8
0
 62
     0
100
AcDbLine
 10
1.355021065675827
 20
-415.0080808011996
 30
0.0
 11
111.2999999999992
 21
-362.6533565370072
 31
0.0
  0
LINE
  5
2A22
330
345A
100
AcDbEntity
  8
0
 62
     0
100
AcDbLine
 10
-19.64488867131149
 20
-415.0080808012007
 30
0.0
 11
111.2999999999992
 21
-352.6534047928744
 31
0.0
  0
LINE
  5
2A23
330
345A
100
AcDbEntity
  8
0
 62
     0
100
AcDbLine
 10
-40.64479840830609
 20
-415.0080808012007
 30
0.0
 11
111.2999999999956
 21
-342.6534530487388
 31
0.0
  0
LINE
  5
2A24
330
345A
100
AcDbEntity
  8
0
 62
     0
100
AcDbLine
 10
92.10626524737014
 20
-341.7933701764159
 30
0.0
 11
111.2999999999956
 21
-332.6535013046051
 31
0.0
  0
LINE
  5
2A25
330
345A
100
AcDbEntity
  8
0
 62
     0
100
AcDbLine
 10
-61.64470814529703
 20
-415.0080808012007
 30
0.0
 11
92.10626524737014
 21
-341.7933701764159
 31
0.0
  0
LINE
  5
2A26
330
345A
100
AcDbEntity
  8
0
 62
     0
100
AcDbLine
 10
71.10635551037922
 20
-341.7933701764168
 30
0.0
 11
111.2999999999992
 21
-322.6535495604703
 31
0.0
  0
LINE
  5
2A27
330
345A
100
AcDbEntity
  8
0
 62
     0
100
AcDbLine
 10
-82.64461788228436
 20
-415.0080808012017
 30
0.0
 11
71.10635551037922
 21
-341.7933701764168
 31
0.0
  0
LINE
  5
2A28
330
345A
100
AcDbEntity
  8
0
 62
     0
100
AcDbLine
 10
50.10644577338462
 20
-341.7933701764168
 30
0.0
 11
111.2999999999992
 21
-312.6535978163347
 31
0.0
  0
LINE
  5
2A29
330
345A
100
AcDbEntity
  8
0
 62
     0
100
AcDbLine
 10
-103.6445276192752
 20
-415.0080808011996
 30
0.0
 11
50.10644577338462
 21
-341.7933701764168
 31
0.0
  0
LINE
  5
2A2A
330
345A
100
AcDbEntity
  8
0
 62
     0
100
AcDbLine
 10
29.1065360363973
 20
-341.7933701764168
 30
0.0
 11
111.2999999999992
 21
-302.6536460722009
 31
0.0
  0
LINE
  5
2A2B
330
345A
100
AcDbEntity
  8
0
 62
     0
100
AcDbLine
 10
-111.2999999999992
 20
-408.6535901730685
 30
0.0
 11
29.1065360363973
 21
-341.7933701764168
 31
0.0
  0
LINE
  5
2A2C
330
345A
100
AcDbEntity
  8
0
 62
     0
100
AcDbLine
 10
8.106626299406341
 20
-341.7933701764177
 30
0.0
 11
111.2999999999992
 21
-292.6536943280662
 31
0.0
  0
LINE
  5
2A2D
330
345A
100
AcDbEntity
  8
0
 62
     0
100
AcDbLine
 10
-111.2999999999956
 20
-398.6536384289339
 30
0.0
 11
8.106626299406341
 21
-341.7933701764177
 31
0.0
  0
LINE
  5
2A2E
330
345A
100
AcDbEntity
  8
0
 62
     0
100
AcDbLine
 10
-12.89328343758461
 20
-341.7933701764159
 30
0.0
 11
111.2999999999956
 21
-282.6537425839324
 31
0.0
  0
LINE
  5
2A2F
330
345A
100
AcDbEntity
  8
0
 62
     0
100
AcDbLine
 10
-111.2999999999992
 20
-388.6536866848
 30
0.0
 11
-12.89328343758461
 21
-341.7933701764159
 31
0.0
  0
LINE
  5
2A30
330
345A
100
AcDbEntity
  8
0
 62
     0
100
AcDbLine
 10
-33.89319317457193
 20
-341.7933701764168
 30
0.0
 11
111.2999999999992
 21
-272.6537908397977
 31
0.0
  0
LINE
  5
2A31
330
345A
100
AcDbEntity
  8
0
 62
     0
100
AcDbLine
 10
-111.2999999999992
 20
-378.6537349406653
 30
0.0
 11
-33.89319317457193
 21
-341.7933701764168
 31
0.0
  0
LINE
  5
2A32
330
345A
100
AcDbEntity
  8
0
 62
     0
100
AcDbLine
 10
-54.89310291156654
 20
-341.7933701764168
 30
0.0
 11
111.2999999999956
 21
-262.6538390956639
 31
0.0
  0
LINE
  5
2A33
330
345A
100
AcDbEntity
  8
0
 62
     0
100
AcDbLine
 10
-111.3000000000029
 20
-368.6537831965316
 30
0.0
 11
-54.89310291156654
 21
-341.7933701764168
 31
0.0
  0
LINE
  5
2A34
330
345A
100
AcDbEntity
  8
0
 62
     0
100
AcDbLine
 10
-75.89301264855386
 20
-341.793370176415
 30
0.0
 11
111.2999999999992
 21
-252.6538873515283
 31
0.0
  0
LINE
  5
2A35
330
345A
100
AcDbEntity
  8
0
 62
     0
100
AcDbLine
 10
-111.2999999999992
 20
-358.6538314523959
 30
0.0
 11
-75.89301264855747
 21
-341.7933701764168
 31
0.0
  0
LINE
  5
2A36
330
345A
100
AcDbEntity
  8
0
 62
     0
100
AcDbLine
 10
-96.89292238554479
 20
-341.7933701764159
 30
0.0
 11
111.2999999999992
 21
-242.6539356073936
 31
0.0
  0
LINE
  5
2A37
330
345A
100
AcDbEntity
  8
0
 62
     0
100
AcDbLine
 10
-111.2999999999956
 20
-348.6538797082612
 30
0.0
 11
-96.89292238554845
 21
-341.7933701764177
 31
0.0
  0
LINE
  5
2A38
330
345A
100
AcDbEntity
  8
0
 62
     0
100
AcDbLine
 10
-104.4999999999963
 20
-335.4158344336429
 30
0.0
 11
111.2999999999992
 21
-232.6539838632598
 31
0.0
  0
LINE
  5
2A39
330
345A
100
AcDbEntity
  8
0
 62
     0
100
AcDbLine
 10
-111.2999999999956
 20
-338.6539279641274
 30
0.0
 11
-104.4999999999963
 21
-335.4158344336429
 31
0.0
  0
LINE
  5
2A3A
330
345A
100
AcDbEntity
  8
0
 62
     0
100
AcDbLine
 10
-104.5000000000036
 20
-325.4158826895089
 30
0.0
 11
111.2999999999992
 21
-222.6540321191242
 31
0.0
  0
LINE
  5
2A3B
330
345A
100
AcDbEntity
  8
0
 62
     0
100
AcDbLine
 10
-111.2999999999992
 20
-328.6539762199918
 30
0.0
 11
-104.5000000000036
 21
-325.4158826895089
 31
0.0
  0
LINE
  5
2A3C
330
345A
100
AcDbEntity
  8
0
 62
     0
100
AcDbLine
 10
-104.5
 20
-315.4159309453744
 30
0.0
 11
111.2999999999992
 21
-212.6540803749913
 31
0.0
  0
LINE
  5
2A3D
330
345A
100
AcDbEntity
  8
0
 62
     0
100
AcDbLine
 10
-111.2999999999992
 20
-318.6540244758589
 30
0.0
 11
-104.5
 21
-315.4159309453744
 31
0.0
  0
LINE
  5
2A3E
330
345A
100
AcDbEntity
  8
0
 62
     0
100
AcDbLine
 10
-104.5
 20
-305.4159792012406
 30
0.0
 11
111.2999999999956
 21
-202.6541286308557
 31
0.0
  0
LINE
  5
2A3F
330
345A
100
AcDbEntity
  8
0
 62
     0
100
AcDbLine
 10
-111.2999999999992
 20
-308.6540727317232
 30
0.0
 11
-104.5
 21
-305.4159792012406
 31
0.0
  0
LINE
  5
2A40
330
345A
100
AcDbEntity
  8
0
 62
     0
100
AcDbLine
 10
-104.5
 20
-295.4160274571077
 30
0.0
 11
111.2999999999956
 21
-192.6541768867228
 31
0.0
  0
LINE
  5
2A41
330
345A
100
AcDbEntity
  8
0
 62
     0
100
AcDbLine
 10
-111.2999999999992
 20
-298.6541209875904
 30
0.0
 11
-104.5
 21
-295.4160274571077
 31
0.0
  0
LINE
  5
2A42
330
345A
100
AcDbEntity
  8
0
 62
     0
100
AcDbLine
 10
-104.5
 20
-285.4160757129721
 30
0.0
 11
111.2999999999992
 21
-182.6542251425872
 31
0.0
  0
LINE
  5
2A43
330
345A
100
AcDbEntity
  8
0
 62
     0
100
AcDbLine
 10
-111.2999999999956
 20
-288.6541692434548
 30
0.0
 11
-104.5
 21
-285.4160757129721
 31
0.0
  0
LINE
  5
2A44
330
345A
100
AcDbEntity
  8
0
 62
     0
100
AcDbLine
 10
-104.5000000000036
 20
-275.4161239688383
 30
0.0
 11
111.2999999999956
 21
-172.6542733984534
 31
0.0
  0
LINE
  5
2A45
330
345A
100
AcDbEntity
  8
0
 62
     0
100
AcDbLine
 10
-111.3000000000029
 20
-278.654217499321
 30
0.0
 11
-104.5000000000036
 21
-275.4161239688383
 31
0.0
  0
LINE
  5
2A46
330
345A
100
AcDbEntity
  8
0
 62
     0
100
AcDbLine
 10
-104.5
 20
-265.4161722247036
 30
0.0
 11
111.2999999999992
 21
-162.6543216543186
 31
0.0
  0
LINE
  5
2A47
330
345A
100
AcDbEntity
  8
0
 62
     0
100
AcDbLine
 10
-111.2999999999992
 20
-268.6542657551863
 30
0.0
 11
-104.5
 21
-265.4161722247036
 31
0.0
  0
LINE
  5
2A48
330
345A
100
AcDbEntity
  8
0
 62
     0
100
AcDbLine
 10
-104.5
 20
-255.4162204805707
 30
0.0
 11
111.2999999999992
 21
-152.6543699101839
 31
0.0
  0
LINE
  5
2A49
330
345A
100
AcDbEntity
  8
0
 62
     0
100
AcDbLine
 10
-111.2999999999956
 20
-258.6543140110534
 30
0.0
 11
-104.5
 21
-255.4162204805707
 31
0.0
  0
LINE
  5
2A4A
330
345A
100
AcDbEntity
  8
0
 62
     0
100
AcDbLine
 10
-104.5
 20
-245.4162687364351
 30
0.0
 11
100.0881948656788
 21
-147.9933701764166
 31
0.0
  0
LINE
  5
2A4B
330
345A
100
AcDbEntity
  8
0
 62
     0
100
AcDbLine
 10
-111.2999999999992
 20
-248.6543622669178
 30
0.0
 11
-104.5
 21
-245.4162687364351
 31
0.0
  0
LINE
  5
2A4C
330
345A
100
AcDbEntity
  8
0
 62
     0
100
AcDbLine
 10
-104.5
 20
-235.4163169923013
 30
0.0
 11
79.08828512868787
 21
-147.9933701764166
 31
0.0
  0
LINE
  5
2A4D
330
345A
100
AcDbEntity
  8
0
 62
     0
100
AcDbLine
 10
-111.2999999999956
 20
-238.654410522784
 30
0.0
 11
-104.5000000000036
 21
-235.4163169923013
 31
0.0
  0
LINE
  5
2A4E
330
345A
100
AcDbEntity
  8
0
 62
     0
100
AcDbLine
 10
-104.5
 20
-225.4163652481657
 30
0.0
 11
58.0883753916969
 21
-147.9933701764166
 31
0.0
  0
LINE
  5
2A4F
330
345A
100
AcDbEntity
  8
0
 62
     0
100
AcDbLine
 10
-111.2999999999992
 20
-228.6544587786502
 30
0.0
 11
-104.5000000000036
 21
-225.4163652481675
 31
0.0
  0
LINE
  5
2A50
330
345A
100
AcDbEntity
  8
0
 62
     0
100
AcDbLine
 10
-104.5
 20
-215.41641350403
 30
0.0
 11
37.0884656547023
 21
-147.9933701764166
 31
0.0
  0
LINE
  5
2A51
330
345A
100
AcDbEntity
  8
0
 62
     0
100
AcDbLine
 10
-111.2999999999992
 20
-218.6545070345146
 30
0.0
 11
-104.5000000000072
 21
-215.4164135040319
 31
0.0
  0
LINE
  5
2A52
330
345A
100
AcDbEntity
  8
0
 62
     0
100
AcDbLine
 10
-104.5
 20
-205.4164617598963
 30
0.0
 11
16.08855591771498
 21
-147.9933701764166
 31
0.0
  0
LINE
  5
2A53
330
345A
100
AcDbEntity
  8
0
 62
     0
100
AcDbLine
 10
-111.2999999999992
 20
-208.6545552903808
 30
0.0
 11
-104.5000000000036
 21
-205.4164617598981
 31
0.0
  0
LINE
  5
2A54
330
345A
100
AcDbEntity
  8
0
 62
     0
100
AcDbLine
 10
-104.5
 20
-195.4165100157606
 30
0.0
 11
-4.911353819279611
 21
-147.9933701764166
 31
0.0
  0
LINE
  5
2A55
330
345A
100
AcDbEntity
  8
0
 62
     0
100
AcDbLine
 10
-111.2999999999992
 20
-198.6546035462452
 30
0.0
 11
-104.5000000000036
 21
-195.4165100157625
 31
0.0
  0
LINE
  5
2A56
330
345A
100
AcDbEntity
  8
0
 62
     0
100
AcDbLine
 10
-104.5000000000036
 20
-185.4165582716287
 30
0.0
 11
-25.91126355627057
 21
-147.9933701764184
 31
0.0
  0
LINE
  5
2A57
330
345A
100
AcDbEntity
  8
0
 62
     0
100
AcDbLine
 10
-111.2999999999992
 20
-188.6546518021132
 30
0.0
 11
-104.5000000000036
 21
-185.4165582716304
 31
0.0
  0
LINE
  5
2A58
330
345A
100
AcDbEntity
  8
0
 62
     0
100
AcDbLine
 10
-104.5
 20
-175.416606527493
 30
0.0
 11
-46.91117329325789
 21
-147.9933701764184
 31
0.0
  0
LINE
  5
2A59
330
345A
100
AcDbEntity
  8
0
 62
     0
100
AcDbLine
 10
-111.2999999999992
 20
-178.6547000579776
 30
0.0
 11
-104.5000000000036
 21
-175.4166065274949
 31
0.0
  0
LINE
  5
2A5A
330
345A
100
AcDbEntity
  8
0
 62
     0
100
AcDbLine
 10
-104.5
 20
-165.4166547833592
 30
0.0
 11
-67.91108303024884
 21
-147.9933701764184
 31
0.0
  0
LINE
  5
2A5B
330
345A
100
AcDbEntity
  8
0
 62
     0
100
AcDbLine
 10
-111.2999999999956
 20
-168.654748313842
 30
0.0
 11
-104.5000000000036
 21
-165.4166547833611
 31
0.0
  0
LINE
  5
2A5C
330
345A
100
AcDbEntity
  8
0
 62
     0
100
AcDbLine
 10
-104.5
 20
-155.4167030392255
 30
0.0
 11
-88.91099276723982
 21
-147.9933701764184
 31
0.0
  0
LINE
  5
2A5D
330
345A
100
AcDbEntity
  8
0
 62
     0
100
AcDbLine
 10
-111.2999999999992
 20
-158.65479656971
 30
0.0
 11
-104.5000000000036
 21
-155.4167030392273
 31
0.0
  0
LINE
  5
2A5E
330
345A
100
AcDbEntity
  8
0
 62
     0
100
AcDbLine
 10
-111.2999999999956
 20
-148.6548448255744
 30
0.0
 11
-109.9109025042307
 21
-147.9933701764184
 31
0.0
  0
ENDBLK
  5
2A5F
330
345A
100
AcDbEntity
  8
0
100
AcDbBlockEnd
  0
BLOCK
  5
345D
330
345C
100
AcDbEntity
  8
0
100
AcDbBlockBegin
  2
*U28
 70
     1
 10
0.0
 20
0.0
 30
0.0
  3
*U28
  1

  0
INSERT
  5
2A62
330
345C
100
AcDbEntity
  8
NOTE
100
AcDbBlockReference
  2
_OPEN30
 10
-140.0
 20
0.0000000000004547
 30
0.0
 41
12.0
 42
12.0
 43
12.0
 50
312.6090116116894
  0
POLYLINE
  5
2A63
330
345C
100
AcDbEntity
  8
NOTE
100
AcDb2dPolyline
 66
     1
 10
0.0
 20
0.0
 30
0.0
  0
VERTEX
  5
2A64
330
2A63
100
AcDbEntity
  8
NOTE
100
AcDbVertex
100
AcDb2dVertex
 10
-148.1239008361894
 20
8.831887408915928
 30
0.0
  0
VERTEX
  5
2A65
330
2A63
100
AcDbEntity
  8
NOTE
100
AcDbVertex
100
AcDb2dVertex
 10
-227.8693999922543
 20
95.52709505801384
 30
0.0
  0
VERTEX
  5
2A66
330
2A63
100
AcDbEntity
  8
NOTE
100
AcDbVertex
100
AcDb2dVertex
 10
-776.4522571351115
 20
95.52709505801384
 30
0.0
  0
SEQEND
  5
2A67
330
2A63
100
AcDbEntity
  8
NOTE
  0
ENDBLK
  5
2A68
330
345C
100
AcDbEntity
  8
0
100
AcDbBlockEnd
  0
BLOCK
  5
345F
330
345E
100
AcDbEntity
  8
0
100
AcDbBlockBegin
  2
*X29
 70
     1
 10
0.0
 20
0.0
 30
0.0
  3
*X29
  1

  0
LINE
  5
2A6B
330
345E
100
AcDbEntity
  8
0
 62
     0
100
AcDbLine
 10
-111.3000000000047
 20
-412.8030970261443
 30
0.0
 11
-106.6695316305049
 21
-415.0080808012017
 31
0.0
  0
LINE
  5
2A6C
330
345E
100
AcDbEntity
  8
0
 62
     0
100
AcDbLine
 10
-111.3000000000065
 20
-402.8031452820105
 30
0.0
 11
-85.66962189351579
 21
-415.0080808012035
 31
0.0
  0
LINE
  5
2A6D
330
345E
100
AcDbEntity
  8
0
 62
     0
100
AcDbLine
 10
-111.3000000000047
 20
-392.8031935378767
 30
0.0
 11
-64.66971215652304
 21
-415.0080808012035
 31
0.0
  0
LINE
  5
2A6E
330
345E
100
AcDbEntity
  8
0
 62
     0
100
AcDbLine
 10
-111.3000000000065
 20
-382.8032417937412
 30
0.0
 11
-43.66980241953569
 21
-415.0080808012017
 31
0.0
  0
LINE
  5
2A6F
330
345E
100
AcDbEntity
  8
0
 62
     0
100
AcDbLine
 10
-111.3000000000047
 20
-372.8032900496073
 30
0.0
 11
-22.66989268254475
 21
-415.0080808012017
 31
0.0
  0
LINE
  5
2A70
330
345E
100
AcDbEntity
  8
0
 62
     0
100
AcDbLine
 10
-111.3000000000065
 20
-362.8033383054717
 30
0.0
 11
-1.669982945553782
 21
-415.0080808012017
 31
0.0
  0
LINE
  5
2A71
330
345E
100
AcDbEntity
  8
0
 62
     0
100
AcDbLine
 10
-111.3000000000065
 20
-352.8033865613379
 30
0.0
 11
19.32992679143898
 21
-415.0080808012035
 31
0.0
  0
LINE
  5
2A72
330
345E
100
AcDbEntity
  8
0
 62
     0
100
AcDbLine
 10
-111.3000000000065
 20
-342.8034348172041
 30
0.0
 11
40.32983652842449
 21
-415.0080808012017
 31
0.0
  0
LINE
  5
2A73
330
345E
100
AcDbEntity
  8
0
 62
     0
100
AcDbLine
 10
-104.5000000000072
 20
-336.0415766035529
 30
0.0
 11
-92.42122712724812
 21
-341.7933701764177
 31
0.0
  0
LINE
  5
2A74
330
345E
100
AcDbEntity
  8
0
 62
     0
100
AcDbLine
 10
-92.42122712724812
 20
-341.7933701764177
 30
0.0
 11
61.32974626541908
 21
-415.0080808012017
 31
0.0
  0
LINE
  5
2A75
330
345E
100
AcDbEntity
  8
0
 62
     0
100
AcDbLine
 10
-111.3000000000065
 20
-332.8034830730694
 30
0.0
 11
-104.5000000000072
 21
-336.0415766035529
 31
0.0
  0
LINE
  5
2A76
330
345E
100
AcDbEntity
  8
0
 62
     0
100
AcDbLine
 10
-104.5000000000054
 20
-326.0416248594192
 30
0.0
 11
-71.42131739025717
 21
-341.7933701764177
 31
0.0
  0
LINE
  5
2A77
330
345E
100
AcDbEntity
  8
0
 62
     0
100
AcDbLine
 10
-71.42131739025717
 20
-341.7933701764177
 30
0.0
 11
82.3296560024082
 21
-415.0080808012017
 31
0.0
  0
LINE
  5
2A78
330
345E
100
AcDbEntity
  8
0
 62
     0
100
AcDbLine
 10
-111.3000000000047
 20
-322.8035313289347
 30
0.0
 11
-104.5000000000054
 21
-326.0416248594192
 31
0.0
  0
LINE
  5
2A79
330
345E
100
AcDbEntity
  8
0
 62
     0
100
AcDbLine
 10
-104.500000000009
 20
-316.0416731152836
 30
0.0
 11
-50.42140765326802
 21
-341.7933701764177
 31
0.0
  0
LINE
  5
2A7A
330
345E
100
AcDbEntity
  8
0
 62
     0
100
AcDbLine
 10
-50.42140765326802
 20
-341.7933701764177
 30
0.0
 11
103.3295657393992
 21
-415.0080808012007
 31
0.0
  0
LINE
  5
2A7B
330
345E
100
AcDbEntity
  8
0
 62
     0
100
AcDbLine
 10
-111.3000000000083
 20
-312.8035795848
 30
0.0
 11
-104.500000000009
 21
-316.0416731152836
 31
0.0
  0
LINE
  5
2A7C
330
345E
100
AcDbEntity
  8
0
 62
     0
100
AcDbLine
 10
-104.5000000000072
 20
-306.041721371148
 30
0.0
 11
-29.42149791627344
 21
-341.7933701764168
 31
0.0
  0
LINE
  5
2A7D
330
345E
100
AcDbEntity
  8
0
 62
     0
100
AcDbLine
 10
-29.42149791627344
 20
-341.7933701764168
 30
0.0
 11
111.2999999999902
 21
-408.8035719415318
 31
0.0
  0
LINE
  5
2A7E
330
345E
100
AcDbEntity
  8
0
 62
     0
100
AcDbLine
 10
-111.3000000000029
 20
-302.8036278406653
 30
0.0
 11
-104.5000000000072
 21
-306.041721371148
 31
0.0
  0
LINE
  5
2A7F
330
345E
100
AcDbEntity
  8
0
 62
     0
100
AcDbLine
 10
-104.5000000000072
 20
-296.041769627016
 30
0.0
 11
-8.421588179284299
 21
-341.7933701764186
 31
0.0
  0
LINE
  5
2A80
330
345E
100
AcDbEntity
  8
0
 62
     0
100
AcDbLine
 10
-8.421588179284299
 20
-341.7933701764186
 30
0.0
 11
111.2999999999902
 21
-398.8036201974001
 31
0.0
  0
LINE
  5
2A81
330
345E
100
AcDbEntity
  8
0
 62
     0
100
AcDbLine
 10
-111.3000000000065
 20
-292.8036760965322
 30
0.0
 11
-104.5000000000072
 21
-296.041769627016
 31
0.0
  0
LINE
  5
2A82
330
345E
100
AcDbEntity
  8
0
 62
     0
100
AcDbLine
 10
-104.500000000009
 20
-286.0418178828804
 30
0.0
 11
12.57832155770848
 21
-341.7933701764186
 31
0.0
  0
LINE
  5
2A83
330
345E
100
AcDbEntity
  8
0
 62
     0
100
AcDbLine
 10
12.57832155770848
 20
-341.7933701764186
 30
0.0
 11
111.299999999992
 21
-388.8036684532663
 31
0.0
  0
LINE
  5
2A84
330
345E
100
AcDbEntity
  8
0
 62
     0
100
AcDbLine
 10
-111.3000000000047
 20
-282.8037243523986
 30
0.0
 11
-104.500000000009
 21
-286.0418178828804
 31
0.0
  0
LINE
  5
2A85
330
345E
100
AcDbEntity
  8
0
 62
     0
100
AcDbLine
 10
-104.5000000000054
 20
-276.0418661387466
 30
0.0
 11
33.57823129469944
 21
-341.7933701764186
 31
0.0
  0
LINE
  5
2A86
330
345E
100
AcDbEntity
  8
0
 62
     0
100
AcDbLine
 10
33.57823129469944
 20
-341.7933701764186
 30
0.0
 11
111.299999999992
 21
-378.8037167091307
 31
0.0
  0
LINE
  5
2A87
330
345E
100
AcDbEntity
  8
0
 62
     0
100
AcDbLine
 10
-111.3000000000047
 20
-272.803772608263
 30
0.0
 11
-104.5000000000054
 21
-276.0418661387466
 31
0.0
  0
LINE
  5
2A88
330
345E
100
AcDbEntity
  8
0
 62
     0
100
AcDbLine
 10
-104.500000000009
 20
-266.0419143946119
 30
0.0
 11
54.57814103168676
 21
-341.7933701764168
 31
0.0
  0
LINE
  5
2A89
330
345E
100
AcDbEntity
  8
0
 62
     0
100
AcDbLine
 10
54.57814103168676
 20
-341.7933701764168
 30
0.0
 11
111.299999999992
 21
-368.8037649649968
 31
0.0
  0
LINE
  5
2A8A
330
345E
100
AcDbEntity
  8
0
 62
     0
100
AcDbLine
 10
-111.3000000000083
 20
-262.8038208641274
 30
0.0
 11
-104.500000000009
 21
-266.0419143946119
 31
0.0
  0
LINE
  5
2A8B
330
345E
100
AcDbEntity
  8
0
 62
     0
100
AcDbLine
 10
-104.5000000000072
 20
-256.0419626504772
 30
0.0
 11
75.57805076867406
 21
-341.793370176415
 31
0.0
  0
LINE
  5
2A8C
330
345E
100
AcDbEntity
  8
0
 62
     0
100
AcDbLine
 10
75.5780507686777
 20
-341.7933701764168
 30
0.0
 11
111.2999999999938
 21
-358.8038132208631
 31
0.0
  0
LINE
  5
2A8D
330
345E
100
AcDbEntity
  8
0
 62
     0
100
AcDbLine
 10
-111.3000000000047
 20
-252.8038691199936
 30
0.0
 11
-104.500000000009
 21
-256.0419626504763
 31
0.0
  0
LINE
  5
2A8E
330
345E
100
AcDbEntity
  8
0
 62
     0
100
AcDbLine
 10
-104.5000000000072
 20
-246.0420109063443
 30
0.0
 11
96.57796050566687
 21
-341.7933701764168
 31
0.0
  0
LINE
  5
2A8F
330
345E
100
AcDbEntity
  8
0
 62
     0
100
AcDbLine
 10
96.57796050566869
 20
-341.7933701764186
 30
0.0
 11
111.2999999999938
 21
-348.8038614767293
 31
0.0
  0
LINE
  5
2A90
330
345E
100
AcDbEntity
  8
0
 62
     0
100
AcDbLine
 10
-111.3000000000065
 20
-242.8039173758598
 30
0.0
 11
-104.5000000000072
 21
-246.0420109063443
 31
0.0
  0
LINE
  5
2A91
330
345E
100
AcDbEntity
  8
0
 62
     0
100
AcDbLine
 10
-104.5000000000072
 20
-236.0420591622096
 30
0.0
 11
111.2999999999883
 21
-338.8039097325927
 31
0.0
  0
LINE
  5
2A92
330
345E
100
AcDbEntity
  8
0
 62
     0
100
AcDbLine
 10
-111.3000000000065
 20
-232.803965631726
 30
0.0
 11
-104.5000000000127
 21
-236.0420591622069
 31
0.0
  0
LINE
  5
2A93
330
345E
100
AcDbEntity
  8
0
 62
     0
100
AcDbLine
 10
-104.5000000000072
 20
-226.0421074180749
 30
0.0
 11
111.2999999999865
 21
-328.8039579884571
 31
0.0
  0
LINE
  5
2A94
330
345E
100
AcDbEntity
  8
0
 62
     0
100
AcDbLine
 10
-111.3000000000065
 20
-222.8040138875904
 30
0.0
 11
-104.5000000000109
 21
-226.0421074180731
 31
0.0
  0
LINE
  5
2A95
330
345E
100
AcDbEntity
  8
0
 62
     0
100
AcDbLine
 10
-104.500000000009
 20
-216.0421556739393
 30
0.0
 11
111.2999999999865
 21
-318.8040062443215
 31
0.0
  0
LINE
  5
2A96
330
345E
100
AcDbEntity
  8
0
 62
     0
100
AcDbLine
 10
-111.3000000000047
 20
-212.8040621434566
 30
0.0
 11
-104.5000000000127
 21
-216.0421556739374
 31
0.0
  0
LINE
  5
2A97
330
345E
100
AcDbEntity
  8
0
 62
     0
100
AcDbLine
 10
-104.500000000009
 20
-206.0422039298055
 30
0.0
 11
111.2999999999865
 21
-308.8040545001877
 31
0.0
  0
LINE
  5
2A98
330
345E
100
AcDbEntity
  8
0
 62
     0
100
AcDbLine
 10
-111.3000000000065
 20
-202.804110399321
 30
0.0
 11
-104.5000000000109
 21
-206.0422039298037
 31
0.0
  0
LINE
  5
2A99
330
345E
100
AcDbEntity
  8
0
 62
     0
100
AcDbLine
 10
-104.500000000009
 20
-196.0422521856717
 30
0.0
 11
111.2999999999847
 21
-298.8041027560539
 31
0.0
  0
LINE
  5
2A9A
330
345E
100
AcDbEntity
  8
0
 62
     0
100
AcDbLine
 10
-111.3000000000047
 20
-192.804158655189
 30
0.0
 11
-104.5000000000127
 21
-196.0422521856698
 31
0.0
  0
LINE
  5
2A9B
330
345E
100
AcDbEntity
  8
0
 62
     0
100
AcDbLine
 10
-104.5000000000072
 20
-186.0423004415378
 30
0.0
 11
111.2999999999883
 21
-288.8041510119201
 31
0.0
  0
LINE
  5
2A9C
330
345E
100
AcDbEntity
  8
0
 62
     0
100
AcDbLine
 10
-111.3000000000065
 20
-182.8042069110533
 30
0.0
 11
-104.5000000000127
 21
-186.0423004415343
 31
0.0
  0
LINE
  5
2A9D
330
345E
100
AcDbEntity
  8
0
 62
     0
100
AcDbLine
 10
-104.500000000009
 20
-176.0423486974023
 30
0.0
 11
111.2999999999847
 21
-278.8041992677845
 31
0.0
  0
LINE
  5
2A9E
330
345E
100
AcDbEntity
  8
0
 62
     0
100
AcDbLine
 10
-111.3000000000083
 20
-172.8042551669177
 30
0.0
 11
-104.5000000000127
 21
-176.0423486974005
 31
0.0
  0
LINE
  5
2A9F
330
345E
100
AcDbEntity
  8
0
 62
     0
100
AcDbLine
 10
-104.5000000000054
 20
-166.0423969532685
 30
0.0
 11
111.2999999999883
 21
-268.8042475236507
 31
0.0
  0
LINE
  5
2AA0
330
345E
100
AcDbEntity
  8
0
 62
     0
100
AcDbLine
 10
-111.3000000000047
 20
-162.8043034227839
 30
0.0
 11
-104.5000000000127
 21
-166.0423969532649
 31
0.0
  0
LINE
  5
2AA1
330
345E
100
AcDbEntity
  8
0
 62
     0
100
AcDbLine
 10
-104.5000000000072
 20
-156.0424452091329
 30
0.0
 11
111.2999999999865
 21
-258.8042957795151
 31
0.0
  0
LINE
  5
2AA2
330
345E
100
AcDbEntity
  8
0
 62
     0
100
AcDbLine
 10
-111.3000000000065
 20
-152.8043516786483
 30
0.0
 11
-104.5000000000109
 21
-156.0424452091311
 31
0.0
  0
LINE
  5
2AA3
330
345E
100
AcDbEntity
  8
0
 62
     0
100
AcDbLine
 10
-100.4031567455549
 20
-147.9933701764184
 30
0.0
 11
111.2999999999865
 21
-248.8043440353813
 31
0.0
  0
LINE
  5
2AA4
330
345E
100
AcDbEntity
  8
0
 62
     0
100
AcDbLine
 10
-79.40324700856582
 20
-147.9933701764184
 30
0.0
 11
111.299999999992
 21
-238.8043922912493
 31
0.0
  0
LINE
  5
2AA5
330
345E
100
AcDbEntity
  8
0
 62
     0
100
AcDbLine
 10
-58.40333727157485
 20
-147.9933701764184
 30
0.0
 11
111.2999999999883
 21
-228.8044405471137
 31
0.0
  0
LINE
  5
2AA6
330
345E
100
AcDbEntity
  8
0
 62
     0
100
AcDbLine
 10
-37.4034275345839
 20
-147.9933701764184
 30
0.0
 11
111.2999999999902
 21
-218.8044888029799
 31
0.0
  0
LINE
  5
2AA7
330
345E
100
AcDbEntity
  8
0
 62
     0
100
AcDbLine
 10
-16.40351779759112
 20
-147.9933701764184
 30
0.0
 11
111.2999999999902
 21
-208.8045370588443
 31
0.0
  0
LINE
  5
2AA8
330
345E
100
AcDbEntity
  8
0
 62
     0
100
AcDbLine
 10
4.596391939398014
 20
-147.9933701764184
 30
0.0
 11
111.2999999999902
 21
-198.8045853147104
 31
0.0
  0
LINE
  5
2AA9
330
345E
100
AcDbEntity
  8
0
 62
     0
100
AcDbLine
 10
25.59630167638898
 20
-147.9933701764194
 30
0.0
 11
111.2999999999902
 21
-188.8046335705767
 31
0.0
  0
LINE
  5
2AAA
330
345E
100
AcDbEntity
  8
0
 62
     0
100
AcDbLine
 10
46.59621141338173
 20
-147.9933701764194
 30
0.0
 11
111.299999999992
 21
-178.8046818264429
 31
0.0
  0
LINE
  5
2AAB
330
345E
100
AcDbEntity
  8
0
 62
     0
100
AcDbLine
 10
67.59612115037089
 20
-147.9933701764194
 30
0.0
 11
111.2999999999883
 21
-168.8047300823073
 31
0.0
  0
LINE
  5
2AAC
330
345E
100
AcDbEntity
  8
0
 62
     0
100
AcDbLine
 10
88.59603088736369
 20
-147.9933701764194
 30
0.0
 11
111.299999999992
 21
-158.8047783381734
 31
0.0
  0
LINE
  5
2AAD
330
345E
100
AcDbEntity
  8
0
 62
     0
100
AcDbLine
 10
109.5959406243546
 20
-147.9933701764194
 30
0.0
 11
111.2999999999902
 21
-148.8048265940379
 31
0.0
  0
ENDBLK
  5
2AAE
330
345E
100
AcDbEntity
  8
0
100
AcDbBlockEnd
  0
BLOCK
  5
3461
330
3460
100
AcDbEntity
  8
0
100
AcDbBlockBegin
  2
*X30
 70
     1
 10
0.0
 20
0.0
 30
0.0
  3
*X30
  1

  0
LINE
  5
2AB1
330
3460
100
AcDbEntity
  8
0
 62
     0
100
AcDbLine
 10
106.3545697506306
 20
-415.0080808011996
 30
0.0
 11
111.2999999999992
 21
-412.6531152576799
 31
0.0
  0
LINE
  5
2AB2
330
3460
100
AcDbEntity
  8
0
 62
     0
100
AcDbLine
 10
85.35466001363966
 20
-415.0080808012007
 30
0.0
 11
111.3000000000029
 21
-402.6531635135452
 31
0.0
  0
LINE
  5
2AB3
330
3460
100
AcDbEntity
  8
0
 62
     0
100
AcDbLine
 10
64.3547502766487
 20
-415.0080808012007
 30
0.0
 11
111.2999999999956
 21
-392.6532117694114
 31
0.0
  0
LINE
  5
2AB4
330
3460
100
AcDbEntity
  8
0
 62
     0
100
AcDbLine
 10
43.35484053965774
 20
-415.0080808012007
 30
0.0
 11
111.2999999999992
 21
-382.6532600252758
 31
0.0
  0
LINE
  5
2AB5
330
3460
100
AcDbEntity
  8
0
 62
     0
100
AcDbLine
 10
22.35493080266316
 20
-415.0080808012017
 30
0.0
 11
111.2999999999956
 21
-372.6533082811429
 31
0.0
  0
LINE
  5
2AB6
330
3460
100
AcDbEntity
  8
0
 62
     0
100
AcDbLine
 10
1.355021065675827
 20
-415.0080808011996
 30
0.0
 11
111.2999999999992
 21
-362.6533565370072
 31
0.0
  0
LINE
  5
2AB7
330
3460
100
AcDbEntity
  8
0
 62
     0
100
AcDbLine
 10
-19.64488867131149
 20
-415.0080808012007
 30
0.0
 11
111.2999999999992
 21
-352.6534047928744
 31
0.0
  0
LINE
  5
2AB8
330
3460
100
AcDbEntity
  8
0
 62
     0
100
AcDbLine
 10
-40.64479840830609
 20
-415.0080808012007
 30
0.0
 11
111.2999999999956
 21
-342.6534530487388
 31
0.0
  0
LINE
  5
2AB9
330
3460
100
AcDbEntity
  8
0
 62
     0
100
AcDbLine
 10
92.10626524737014
 20
-341.7933701764159
 30
0.0
 11
111.2999999999956
 21
-332.6535013046051
 31
0.0
  0
LINE
  5
2ABA
330
3460
100
AcDbEntity
  8
0
 62
     0
100
AcDbLine
 10
-61.64470814529703
 20
-415.0080808012007
 30
0.0
 11
92.10626524737014
 21
-341.7933701764159
 31
0.0
  0
LINE
  5
2ABB
330
3460
100
AcDbEntity
  8
0
 62
     0
100
AcDbLine
 10
71.10635551037922
 20
-341.7933701764168
 30
0.0
 11
111.2999999999992
 21
-322.6535495604703
 31
0.0
  0
LINE
  5
2ABC
330
3460
100
AcDbEntity
  8
0
 62
     0
100
AcDbLine
 10
-82.64461788228436
 20
-415.0080808012017
 30
0.0
 11
71.10635551037922
 21
-341.7933701764168
 31
0.0
  0
LINE
  5
2ABD
330
3460
100
AcDbEntity
  8
0
 62
     0
100
AcDbLine
 10
50.10644577338462
 20
-341.7933701764168
 30
0.0
 11
111.2999999999992
 21
-312.6535978163347
 31
0.0
  0
LINE
  5
2ABE
330
3460
100
AcDbEntity
  8
0
 62
     0
100
AcDbLine
 10
-103.6445276192752
 20
-415.0080808011996
 30
0.0
 11
50.10644577338462
 21
-341.7933701764168
 31
0.0
  0
LINE
  5
2ABF
330
3460
100
AcDbEntity
  8
0
 62
     0
100
AcDbLine
 10
29.1065360363973
 20
-341.7933701764168
 30
0.0
 11
111.2999999999992
 21
-302.6536460722009
 31
0.0
  0
LINE
  5
2AC0
330
3460
100
AcDbEntity
  8
0
 62
     0
100
AcDbLine
 10
-111.2999999999992
 20
-408.6535901730685
 30
0.0
 11
29.1065360363973
 21
-341.7933701764168
 31
0.0
  0
LINE
  5
2AC1
330
3460
100
AcDbEntity
  8
0
 62
     0
100
AcDbLine
 10
8.106626299406341
 20
-341.7933701764177
 30
0.0
 11
111.2999999999992
 21
-292.6536943280662
 31
0.0
  0
LINE
  5
2AC2
330
3460
100
AcDbEntity
  8
0
 62
     0
100
AcDbLine
 10
-111.2999999999956
 20
-398.6536384289339
 30
0.0
 11
8.106626299406341
 21
-341.7933701764177
 31
0.0
  0
LINE
  5
2AC3
330
3460
100
AcDbEntity
  8
0
 62
     0
100
AcDbLine
 10
-12.89328343758461
 20
-341.7933701764159
 30
0.0
 11
111.2999999999956
 21
-282.6537425839324
 31
0.0
  0
LINE
  5
2AC4
330
3460
100
AcDbEntity
  8
0
 62
     0
100
AcDbLine
 10
-111.2999999999992
 20
-388.6536866848
 30
0.0
 11
-12.89328343758461
 21
-341.7933701764159
 31
0.0
  0
LINE
  5
2AC5
330
3460
100
AcDbEntity
  8
0
 62
     0
100
AcDbLine
 10
-33.89319317457193
 20
-341.7933701764168
 30
0.0
 11
111.2999999999992
 21
-272.6537908397977
 31
0.0
  0
LINE
  5
2AC6
330
3460
100
AcDbEntity
  8
0
 62
     0
100
AcDbLine
 10
-111.2999999999992
 20
-378.6537349406653
 30
0.0
 11
-33.89319317457193
 21
-341.7933701764168
 31
0.0
  0
LINE
  5
2AC7
330
3460
100
AcDbEntity
  8
0
 62
     0
100
AcDbLine
 10
-54.89310291156654
 20
-341.7933701764168
 30
0.0
 11
111.2999999999956
 21
-262.6538390956639
 31
0.0
  0
LINE
  5
2AC8
330
3460
100
AcDbEntity
  8
0
 62
     0
100
AcDbLine
 10
-111.3000000000029
 20
-368.6537831965316
 30
0.0
 11
-54.89310291156654
 21
-341.7933701764168
 31
0.0
  0
LINE
  5
2AC9
330
3460
100
AcDbEntity
  8
0
 62
     0
100
AcDbLine
 10
-75.89301264855386
 20
-341.793370176415
 30
0.0
 11
111.2999999999992
 21
-252.6538873515283
 31
0.0
  0
LINE
  5
2ACA
330
3460
100
AcDbEntity
  8
0
 62
     0
100
AcDbLine
 10
-111.2999999999992
 20
-358.6538314523959
 30
0.0
 11
-75.89301264855747
 21
-341.7933701764168
 31
0.0
  0
LINE
  5
2ACB
330
3460
100
AcDbEntity
  8
0
 62
     0
100
AcDbLine
 10
-96.89292238554479
 20
-341.7933701764159
 30
0.0
 11
111.2999999999992
 21
-242.6539356073936
 31
0.0
  0
LINE
  5
2ACC
330
3460
100
AcDbEntity
  8
0
 62
     0
100
AcDbLine
 10
-111.2999999999956
 20
-348.6538797082612
 30
0.0
 11
-96.89292238554845
 21
-341.7933701764177
 31
0.0
  0
LINE
  5
2ACD
330
3460
100
AcDbEntity
  8
0
 62
     0
100
AcDbLine
 10
-104.4999999999963
 20
-335.4158344336429
 30
0.0
 11
111.2999999999992
 21
-232.6539838632598
 31
0.0
  0
LINE
  5
2ACE
330
3460
100
AcDbEntity
  8
0
 62
     0
100
AcDbLine
 10
-111.2999999999956
 20
-338.6539279641274
 30
0.0
 11
-104.4999999999963
 21
-335.4158344336429
 31
0.0
  0
LINE
  5
2ACF
330
3460
100
AcDbEntity
  8
0
 62
     0
100
AcDbLine
 10
-104.5000000000036
 20
-325.4158826895089
 30
0.0
 11
111.2999999999992
 21
-222.6540321191242
 31
0.0
  0
LINE
  5
2AD0
330
3460
100
AcDbEntity
  8
0
 62
     0
100
AcDbLine
 10
-111.2999999999992
 20
-328.6539762199918
 30
0.0
 11
-104.5000000000036
 21
-325.4158826895089
 31
0.0
  0
LINE
  5
2AD1
330
3460
100
AcDbEntity
  8
0
 62
     0
100
AcDbLine
 10
-104.5
 20
-315.4159309453744
 30
0.0
 11
111.2999999999992
 21
-212.6540803749913
 31
0.0
  0
LINE
  5
2AD2
330
3460
100
AcDbEntity
  8
0
 62
     0
100
AcDbLine
 10
-111.2999999999992
 20
-318.6540244758589
 30
0.0
 11
-104.5
 21
-315.4159309453744
 31
0.0
  0
LINE
  5
2AD3
330
3460
100
AcDbEntity
  8
0
 62
     0
100
AcDbLine
 10
-104.5
 20
-305.4159792012406
 30
0.0
 11
111.2999999999956
 21
-202.6541286308557
 31
0.0
  0
LINE
  5
2AD4
330
3460
100
AcDbEntity
  8
0
 62
     0
100
AcDbLine
 10
-111.2999999999992
 20
-308.6540727317232
 30
0.0
 11
-104.5
 21
-305.4159792012406
 31
0.0
  0
LINE
  5
2AD5
330
3460
100
AcDbEntity
  8
0
 62
     0
100
AcDbLine
 10
-104.5
 20
-295.4160274571077
 30
0.0
 11
111.2999999999956
 21
-192.6541768867228
 31
0.0
  0
LINE
  5
2AD6
330
3460
100
AcDbEntity
  8
0
 62
     0
100
AcDbLine
 10
-111.2999999999992
 20
-298.6541209875904
 30
0.0
 11
-104.5
 21
-295.4160274571077
 31
0.0
  0
LINE
  5
2AD7
330
3460
100
AcDbEntity
  8
0
 62
     0
100
AcDbLine
 10
-104.5
 20
-285.4160757129721
 30
0.0
 11
111.2999999999992
 21
-182.6542251425872
 31
0.0
  0
LINE
  5
2AD8
330
3460
100
AcDbEntity
  8
0
 62
     0
100
AcDbLine
 10
-111.2999999999956
 20
-288.6541692434548
 30
0.0
 11
-104.5
 21
-285.4160757129721
 31
0.0
  0
LINE
  5
2AD9
330
3460
100
AcDbEntity
  8
0
 62
     0
100
AcDbLine
 10
-104.5000000000036
 20
-275.4161239688383
 30
0.0
 11
111.2999999999956
 21
-172.6542733984534
 31
0.0
  0
LINE
  5
2ADA
330
3460
100
AcDbEntity
  8
0
 62
     0
100
AcDbLine
 10
-111.3000000000029
 20
-278.654217499321
 30
0.0
 11
-104.5000000000036
 21
-275.4161239688383
 31
0.0
  0
LINE
  5
2ADB
330
3460
100
AcDbEntity
  8
0
 62
     0
100
AcDbLine
 10
-104.5
 20
-265.4161722247036
 30
0.0
 11
111.2999999999992
 21
-162.6543216543186
 31
0.0
  0
LINE
  5
2ADC
330
3460
100
AcDbEntity
  8
0
 62
     0
100
AcDbLine
 10
-111.2999999999992
 20
-268.6542657551863
 30
0.0
 11
-104.5
 21
-265.4161722247036
 31
0.0
  0
LINE
  5
2ADD
330
3460
100
AcDbEntity
  8
0
 62
     0
100
AcDbLine
 10
-104.5
 20
-255.4162204805707
 30
0.0
 11
111.2999999999992
 21
-152.6543699101839
 31
0.0
  0
LINE
  5
2ADE
330
3460
100
AcDbEntity
  8
0
 62
     0
100
AcDbLine
 10
-111.2999999999956
 20
-258.6543140110534
 30
0.0
 11
-104.5
 21
-255.4162204805707
 31
0.0
  0
LINE
  5
2ADF
330
3460
100
AcDbEntity
  8
0
 62
     0
100
AcDbLine
 10
-104.5
 20
-245.4162687364351
 30
0.0
 11
100.0881948656788
 21
-147.9933701764166
 31
0.0
  0
LINE
  5
2AE0
330
3460
100
AcDbEntity
  8
0
 62
     0
100
AcDbLine
 10
-111.2999999999992
 20
-248.6543622669178
 30
0.0
 11
-104.5
 21
-245.4162687364351
 31
0.0
  0
LINE
  5
2AE1
330
3460
100
AcDbEntity
  8
0
 62
     0
100
AcDbLine
 10
-104.5
 20
-235.4163169923013
 30
0.0
 11
79.08828512868787
 21
-147.9933701764166
 31
0.0
  0
LINE
  5
2AE2
330
3460
100
AcDbEntity
  8
0
 62
     0
100
AcDbLine
 10
-111.2999999999956
 20
-238.654410522784
 30
0.0
 11
-104.5000000000036
 21
-235.4163169923013
 31
0.0
  0
LINE
  5
2AE3
330
3460
100
AcDbEntity
  8
0
 62
     0
100
AcDbLine
 10
-104.5
 20
-225.4163652481657
 30
0.0
 11
58.0883753916969
 21
-147.9933701764166
 31
0.0
  0
LINE
  5
2AE4
330
3460
100
AcDbEntity
  8
0
 62
     0
100
AcDbLine
 10
-111.2999999999992
 20
-228.6544587786502
 30
0.0
 11
-104.5000000000036
 21
-225.4163652481675
 31
0.0
  0
LINE
  5
2AE5
330
3460
100
AcDbEntity
  8
0
 62
     0
100
AcDbLine
 10
-104.5
 20
-215.41641350403
 30
0.0
 11
37.0884656547023
 21
-147.9933701764166
 31
0.0
  0
LINE
  5
2AE6
330
3460
100
AcDbEntity
  8
0
 62
     0
100
AcDbLine
 10
-111.2999999999992
 20
-218.6545070345146
 30
0.0
 11
-104.5000000000072
 21
-215.4164135040319
 31
0.0
  0
LINE
  5
2AE7
330
3460
100
AcDbEntity
  8
0
 62
     0
100
AcDbLine
 10
-104.5
 20
-205.4164617598963
 30
0.0
 11
16.08855591771498
 21
-147.9933701764166
 31
0.0
  0
LINE
  5
2AE8
330
3460
100
AcDbEntity
  8
0
 62
     0
100
AcDbLine
 10
-111.2999999999992
 20
-208.6545552903808
 30
0.0
 11
-104.5000000000036
 21
-205.4164617598981
 31
0.0
  0
LINE
  5
2AE9
330
3460
100
AcDbEntity
  8
0
 62
     0
100
AcDbLine
 10
-104.5
 20
-195.4165100157606
 30
0.0
 11
-4.911353819279611
 21
-147.9933701764166
 31
0.0
  0
LINE
  5
2AEA
330
3460
100
AcDbEntity
  8
0
 62
     0
100
AcDbLine
 10
-111.2999999999992
 20
-198.6546035462452
 30
0.0
 11
-104.5000000000036
 21
-195.4165100157625
 31
0.0
  0
LINE
  5
2AEB
330
3460
100
AcDbEntity
  8
0
 62
     0
100
AcDbLine
 10
-104.5000000000036
 20
-185.4165582716287
 30
0.0
 11
-25.91126355627057
 21
-147.9933701764184
 31
0.0
  0
LINE
  5
2AEC
330
3460
100
AcDbEntity
  8
0
 62
     0
100
AcDbLine
 10
-111.2999999999992
 20
-188.6546518021132
 30
0.0
 11
-104.5000000000036
 21
-185.4165582716304
 31
0.0
  0
LINE
  5
2AED
330
3460
100
AcDbEntity
  8
0
 62
     0
100
AcDbLine
 10
-104.5
 20
-175.416606527493
 30
0.0
 11
-46.91117329325789
 21
-147.9933701764184
 31
0.0
  0
LINE
  5
2AEE
330
3460
100
AcDbEntity
  8
0
 62
     0
100
AcDbLine
 10
-111.2999999999992
 20
-178.6547000579776
 30
0.0
 11
-104.5000000000036
 21
-175.4166065274949
 31
0.0
  0
LINE
  5
2AEF
330
3460
100
AcDbEntity
  8
0
 62
     0
100
AcDbLine
 10
-104.5
 20
-165.4166547833592
 30
0.0
 11
-67.91108303024884
 21
-147.9933701764184
 31
0.0
  0
LINE
  5
2AF0
330
3460
100
AcDbEntity
  8
0
 62
     0
100
AcDbLine
 10
-111.2999999999956
 20
-168.654748313842
 30
0.0
 11
-104.5000000000036
 21
-165.4166547833611
 31
0.0
  0
LINE
  5
2AF1
330
3460
100
AcDbEntity
  8
0
 62
     0
100
AcDbLine
 10
-104.5
 20
-155.4167030392255
 30
0.0
 11
-88.91099276723982
 21
-147.9933701764184
 31
0.0
  0
LINE
  5
2AF2
330
3460
100
AcDbEntity
  8
0
 62
     0
100
AcDbLine
 10
-111.2999999999992
 20
-158.65479656971
 30
0.0
 11
-104.5000000000036
 21
-155.4167030392273
 31
0.0
  0
LINE
  5
2AF3
330
3460
100
AcDbEntity
  8
0
 62
     0
100
AcDbLine
 10
-111.2999999999956
 20
-148.6548448255744
 30
0.0
 11
-109.9109025042307
 21
-147.9933701764184
 31
0.0
  0
ENDBLK
  5
2AF4
330
3460
100
AcDbEntity
  8
0
100
AcDbBlockEnd
  0
BLOCK
  5
3463
330
3462
100
AcDbEntity
  8
0
100
AcDbBlockBegin
  2
*U31
 70
     1
 10
0.0
 20
0.0
 30
0.0
  3
*U31
  1

  0
INSERT
  5
3045
330
3462
100
AcDbEntity
  8
NOTE
100
AcDbBlockReference
  2
_OPEN30
 10
-450.0
 20
-0.000000000001819
 30
0.0
 41
12.0
 42
12.0
 43
12.0
 50
312.6090116116892
  0
POLYLINE
  5
3046
330
3462
100
AcDbEntity
  8
NOTE
100
AcDb2dPolyline
 66
     1
 10
0.0
 20
0.0
 30
0.0
  0
VERTEX
  5
3047
330
3046
100
AcDbEntity
  8
NOTE
100
AcDbVertex
100
AcDb2dVertex
 10
-458.1239008361895
 20
8.831887408913694
 30
0.0
  0
VERTEX
  5
3048
330
3046
100
AcDbEntity
  8
NOTE
100
AcDbVertex
100
AcDb2dVertex
 10
-537.8693999922543
 20
95.52709505801249
 30
0.0
  0
VERTEX
  5
3049
330
3046
100
AcDbEntity
  8
NOTE
100
AcDbVertex
100
AcDb2dVertex
 10
-1133.080828563683
 20
95.52709505801249
 30
0.0
  0
SEQEND
  5
304A
330
3046
100
AcDbEntity
  8
NOTE
  0
ENDBLK
  5
304B
330
3462
100
AcDbEntity
  8
0
100
AcDbBlockEnd
  0
BLOCK
  5
3465
330
3464
100
AcDbEntity
  8
0
100
AcDbBlockBegin
  2
*X32
 70
     1
 10
0.0
 20
0.0
 30
0.0
  3
*X32
  1

  0
LINE
  5
304E
330
3464
100
AcDbEntity
  8
0
 62
     0
100
AcDbLine
 10
-422.2999999999974
 20
-1126.284990301656
 30
0.0
 11
-409.0714341068848
 21
-1132.584304071668
 31
0.0
  0
LINE
  5
304F
330
3464
100
AcDbEntity
  8
0
 62
     0
100
AcDbLine
 10
-422.2999999999974
 20
-1116.285038557524
 30
0.0
 11
-388.0715243698942
 21
-1132.58430407167
 31
0.0
  0
LINE
  5
3050
330
3464
100
AcDbEntity
  8
0
 62
     0
100
AcDbLine
 10
-422.2999999999974
 20
-1106.285086813389
 30
0.0
 11
-367.0716146329032
 21
-1132.58430407167
 31
0.0
  0
LINE
  5
3051
330
3464
100
AcDbEntity
  8
0
 62
     0
100
AcDbLine
 10
-422.2999999999956
 20
-1096.285135069254
 30
0.0
 11
-346.0717048959105
 21
-1132.58430407167
 31
0.0
  0
LINE
  5
3052
330
3464
100
AcDbEntity
  8
0
 62
     0
100
AcDbLine
 10
-422.2999999999974
 20
-1086.285183325119
 30
0.0
 11
-325.0717951589249
 21
-1132.584304071668
 31
0.0
  0
LINE
  5
3053
330
3464
100
AcDbEntity
  8
0
 62
     0
100
AcDbLine
 10
-422.2999999999991
 20
-1076.285231580985
 30
0.0
 11
-304.0718854219321
 21
-1132.584304071668
 31
0.0
  0
LINE
  5
3054
330
3464
100
AcDbEntity
  8
0
 62
     0
100
AcDbLine
 10
-422.2999999999956
 20
-1066.285279836851
 30
0.0
 11
-283.071975684941
 21
-1132.584304071668
 31
0.0
  0
LINE
  5
3055
330
3464
100
AcDbEntity
  8
0
 62
     0
100
AcDbLine
 10
-422.2999999999991
 20
-1056.285328092717
 30
0.0
 11
-262.0720659479521
 21
-1132.58430407167
 31
0.0
  0
LINE
  5
3056
330
3464
100
AcDbEntity
  8
0
 62
     0
100
AcDbLine
 10
-422.2999999999974
 20
-1046.285376348583
 30
0.0
 11
-241.0721562109593
 21
-1132.58430407167
 31
0.0
  0
LINE
  5
3057
330
3464
100
AcDbEntity
  8
0
 62
     0
100
AcDbLine
 10
-422.2999999999974
 20
-1036.285424604447
 30
0.0
 11
-220.0722464739683
 21
-1132.58430407167
 31
0.0
  0
LINE
  5
3058
330
3464
100
AcDbEntity
  8
0
 62
     0
100
AcDbLine
 10
-422.2999999999991
 20
-1026.285472860313
 30
0.0
 11
-199.0723367369772
 21
-1132.58430407167
 31
0.0
  0
LINE
  5
3059
330
3464
100
AcDbEntity
  8
0
 62
     0
100
AcDbLine
 10
-422.2999999999956
 20
-1016.285521116178
 30
0.0
 11
-178.0724269999846
 21
-1132.584304071669
 31
0.0
  0
LINE
  5
305A
330
3464
100
AcDbEntity
  8
0
 62
     0
100
AcDbLine
 10
-422.2999999999974
 20
-1006.285569372046
 30
0.0
 11
-157.0725172629936
 21
-1132.584304071671
 31
0.0
  0
LINE
  5
305B
330
3464
100
AcDbEntity
  8
0
 62
     0
100
AcDbLine
 10
-422.2999999999974
 20
-996.285617627911
 30
0.0
 11
-136.0726075260081
 21
-1132.584304071669
 31
0.0
  0
LINE
  5
305C
330
3464
100
AcDbEntity
  8
0
 62
     0
100
AcDbLine
 10
-422.2999999999974
 20
-986.2856658837753
 30
0.0
 11
-115.0726977890135
 21
-1132.584304071669
 31
0.0
  0
LINE
  5
305D
330
3464
100
AcDbEntity
  8
0
 62
     0
100
AcDbLine
 10
-422.2999999999974
 20
-976.2857141396414
 30
0.0
 11
-94.07278805202441
 21
-1132.584304071669
 31
0.0
  0
LINE
  5
305E
330
3464
100
AcDbEntity
  8
0
 62
     0
100
AcDbLine
 10
-422.2999999999974
 20
-966.2857623955057
 30
0.0
 11
-73.07287831503342
 21
-1132.584304071669
 31
0.0
  0
LINE
  5
305F
330
3464
100
AcDbEntity
  8
0
 62
     0
100
AcDbLine
 10
-422.2999999999974
 20
-956.2858106513731
 30
0.0
 11
-52.07296857804431
 21
-1132.584304071669
 31
0.0
  0
LINE
  5
3060
330
3464
100
AcDbEntity
  8
0
 62
     0
100
AcDbLine
 10
-422.2999999999974
 20
-946.2858589072382
 30
0.0
 11
-31.07305884105518
 21
-1132.584304071669
 31
0.0
  0
LINE
  5
3061
330
3464
100
AcDbEntity
  8
0
 62
     0
100
AcDbLine
 10
-422.2999999999974
 20
-936.2859071631035
 30
0.0
 11
-10.07314910406239
 21
-1132.584304071669
 31
0.0
  0
LINE
  5
3062
330
3464
100
AcDbEntity
  8
0
 62
     0
100
AcDbLine
 10
-422.2999999999974
 20
-926.2859554189688
 30
0.0
 11
10.92676063292856
 21
-1132.584304071669
 31
0.0
  0
LINE
  5
3063
330
3464
100
AcDbEntity
  8
0
 62
     0
100
AcDbLine
 10
-422.2999999999991
 20
-916.2860036748336
 30
0.0
 11
31.92667036991952
 21
-1132.584304071669
 31
0.0
  0
LINE
  5
3064
330
3464
100
AcDbEntity
  8
0
 62
     0
100
AcDbLine
 10
-422.2999999999974
 20
-906.2860519306992
 30
0.0
 11
52.92658010691048
 21
-1132.584304071669
 31
0.0
  0
LINE
  5
3065
330
3464
100
AcDbEntity
  8
0
 62
     0
100
AcDbLine
 10
-422.2999999999974
 20
-896.2861001865658
 30
0.0
 11
73.92648984390324
 21
-1132.584304071671
 31
0.0
  0
LINE
  5
3066
330
3464
100
AcDbEntity
  8
0
 62
     0
100
AcDbLine
 10
-422.2999999999991
 20
-886.286148442431
 30
0.0
 11
94.92639958089418
 21
-1132.584304071671
 31
0.0
  0
LINE
  5
3067
330
3464
100
AcDbEntity
  8
0
 62
     0
100
AcDbLine
 10
-422.2999999999991
 20
-876.2861966982972
 30
0.0
 11
115.9263093178851
 21
-1132.584304071671
 31
0.0
  0
LINE
  5
3068
330
3464
100
AcDbEntity
  8
0
 62
     0
100
AcDbLine
 10
-422.2999999999974
 20
-866.2862449541625
 30
0.0
 11
136.9262190548743
 21
-1132.584304071669
 31
0.0
  0
LINE
  5
3069
330
3464
100
AcDbEntity
  8
0
 62
     0
100
AcDbLine
 10
-422.2999999999991
 20
-856.2862932100278
 30
0.0
 11
157.9261287918634
 21
-1132.584304071669
 31
0.0
  0
LINE
  5
306A
330
3464
100
AcDbEntity
  8
0
 62
     0
100
AcDbLine
 10
-422.2999999999956
 20
-846.2863414658949
 30
0.0
 11
178.926038528858
 21
-1132.584304071671
 31
0.0
  0
LINE
  5
306B
330
3464
100
AcDbEntity
  8
0
 62
     0
100
AcDbLine
 10
-422.2999999999974
 20
-836.2863897217604
 30
0.0
 11
199.9259482658472
 21
-1132.584304071671
 31
0.0
  0
LINE
  5
306C
330
3464
100
AcDbEntity
  8
0
 62
     0
100
AcDbLine
 10
-422.2999999999991
 20
-826.2864379776246
 30
0.0
 11
220.9258580028345
 21
-1132.584304071669
 31
0.0
  0
LINE
  5
306D
330
3464
100
AcDbEntity
  8
0
 62
     0
100
AcDbLine
 10
-422.2999999999956
 20
-816.286486233491
 30
0.0
 11
241.9257677398273
 21
-1132.584304071669
 31
0.0
  0
LINE
  5
306E
330
3464
100
AcDbEntity
  8
0
 62
     0
100
AcDbLine
 10
-422.2999999999991
 20
-806.2865344893552
 30
0.0
 11
262.9256774768182
 21
-1132.584304071669
 31
0.0
  0
LINE
  5
306F
330
3464
100
AcDbEntity
  8
0
 62
     0
100
AcDbLine
 10
-422.2999999999974
 20
-796.2865827452205
 30
0.0
 11
283.9255872138092
 21
-1132.584304071669
 31
0.0
  0
LINE
  5
3070
330
3464
100
AcDbEntity
  8
0
 62
     0
100
AcDbLine
 10
-422.2999999999974
 20
-786.2866310010876
 30
0.0
 11
304.9254969508002
 21
-1132.584304071671
 31
0.0
  0
LINE
  5
3071
330
3464
100
AcDbEntity
  8
0
 62
     0
100
AcDbLine
 10
-422.2999999999974
 20
-776.2866792569529
 30
0.0
 11
325.9254066877911
 21
-1132.58430407167
 31
0.0
  0
LINE
  5
3072
330
3464
100
AcDbEntity
  8
0
 62
     0
100
AcDbLine
 10
-422.2999999999974
 20
-766.2867275128178
 30
0.0
 11
346.925316424782
 21
-1132.58430407167
 31
0.0
  0
LINE
  5
3073
330
3464
100
AcDbEntity
  8
0
 62
     0
100
AcDbLine
 10
-422.2999999999974
 20
-756.2867757686833
 30
0.0
 11
367.9252261617748
 21
-1132.58430407167
 31
0.0
  0
LINE
  5
3074
330
3464
100
AcDbEntity
  8
0
 62
     0
100
AcDbLine
 10
-422.2999999999974
 20
-746.2868240245486
 30
0.0
 11
388.925135898764
 21
-1132.58430407167
 31
0.0
  0
LINE
  5
3075
330
3464
100
AcDbEntity
  8
0
 62
     0
100
AcDbLine
 10
-422.2999999999991
 20
-736.2868722804151
 30
0.0
 11
409.9250456357529
 21
-1132.58430407167
 31
0.0
  0
LINE
  5
3076
330
3464
100
AcDbEntity
  8
0
 62
     0
100
AcDbLine
 10
-422.2999999999974
 20
-726.2869205362804
 30
0.0
 11
422.3000000000029
 21
-1128.477184631494
 31
0.0
  0
LINE
  5
3077
330
3464
100
AcDbEntity
  8
0
 62
     0
100
AcDbLine
 10
-422.2999999999991
 20
-716.2869687921457
 30
0.0
 11
422.3000000000029
 21
-1118.47723288736
 31
0.0
  0
LINE
  5
3078
330
3464
100
AcDbEntity
  8
0
 62
     0
100
AcDbLine
 10
-422.2999999999991
 20
-706.287017048011
 30
0.0
 11
422.3000000000011
 21
-1108.477281143225
 31
0.0
  0
LINE
  5
3079
330
3464
100
AcDbEntity
  8
0
 62
     0
100
AcDbLine
 10
-422.2999999999974
 20
-696.2870653038761
 30
0.0
 11
422.3000000000029
 21
-1098.47732939909
 31
0.0
  0
LINE
  5
307A
330
3464
100
AcDbEntity
  8
0
 62
     0
100
AcDbLine
 10
-422.2999999999991
 20
-686.2871135597433
 30
0.0
 11
422.3000000000011
 21
-1088.477377654957
 31
0.0
  0
LINE
  5
307B
330
3464
100
AcDbEntity
  8
0
 62
     0
100
AcDbLine
 10
-422.2999999999956
 20
-676.2871618156085
 30
0.0
 11
422.3000000000046
 21
-1078.477425910822
 31
0.0
  0
LINE
  5
307C
330
3464
100
AcDbEntity
  8
0
 62
     0
100
AcDbLine
 10
-422.2999999999991
 20
-666.2872100714738
 30
0.0
 11
422.3000000000029
 21
-1068.477474166688
 31
0.0
  0
LINE
  5
307D
330
3464
100
AcDbEntity
  8
0
 62
     0
100
AcDbLine
 10
-422.2999999999991
 20
-656.2872583273392
 30
0.0
 11
422.3000000000011
 21
-1058.477522422553
 31
0.0
  0
LINE
  5
307E
330
3464
100
AcDbEntity
  8
0
 62
     0
100
AcDbLine
 10
-422.2999999999974
 20
-646.2873065832045
 30
0.0
 11
422.3000000000046
 21
-1048.477570678418
 31
0.0
  0
LINE
  5
307F
330
3464
100
AcDbEntity
  8
0
 62
     0
100
AcDbLine
 10
-422.2999999999991
 20
-636.2873548390698
 30
0.0
 11
422.3000000000011
 21
-1038.477618934283
 31
0.0
  0
LINE
  5
3080
330
3464
100
AcDbEntity
  8
0
 62
     0
100
AcDbLine
 10
-422.2999999999974
 20
-626.2874030949368
 30
0.0
 11
422.3000000000046
 21
-1028.47766719015
 31
0.0
  0
LINE
  5
3081
330
3464
100
AcDbEntity
  8
0
 62
     0
100
AcDbLine
 10
-422.2999999999974
 20
-616.2874513508021
 30
0.0
 11
422.3000000000029
 21
-1018.477715446015
 31
0.0
  0
LINE
  5
3082
330
3464
100
AcDbEntity
  8
0
 62
     0
100
AcDbLine
 10
-422.2999999999991
 20
-606.2874996066677
 30
0.0
 11
422.3000000000011
 21
-1008.47776370188
 31
0.0
  0
LINE
  5
3083
330
3464
100
AcDbEntity
  8
0
 62
     0
100
AcDbLine
 10
-422.2999999999974
 20
-596.2875478625328
 30
0.0
 11
422.3000000000029
 21
-998.4778119577459
 31
0.0
  0
LINE
  5
3084
330
3464
100
AcDbEntity
  8
0
 62
     0
100
AcDbLine
 10
-422.2999999999974
 20
-586.2875961183981
 30
0.0
 11
422.3000000000029
 21
-988.4778602136112
 31
0.0
  0
LINE
  5
3085
330
3464
100
AcDbEntity
  8
0
 62
     0
100
AcDbLine
 10
-422.2999999999991
 20
-576.2876443742643
 30
0.0
 11
422.3000000000029
 21
-978.4779084694783
 31
0.0
  0
LINE
  5
3086
330
3464
100
AcDbEntity
  8
0
 62
     0
100
AcDbLine
 10
-422.2999999999974
 20
-566.2876926301304
 30
0.0
 11
422.3000000000029
 21
-968.4779567253436
 31
0.0
  0
LINE
  5
3087
330
3464
100
AcDbEntity
  8
0
 62
     0
100
AcDbLine
 10
-422.2999999999991
 20
-556.2877408859947
 30
0.0
 11
422.3000000000029
 21
-958.4780049812087
 31
0.0
  0
LINE
  5
3088
330
3464
100
AcDbEntity
  8
0
 62
     0
100
AcDbLine
 10
-422.2999999999991
 20
-546.2877891418602
 30
0.0
 11
422.3000000000011
 21
-948.4780532370738
 31
0.0
  0
LINE
  5
3089
330
3464
100
AcDbEntity
  8
0
 62
     0
100
AcDbLine
 10
-422.2999999999991
 20
-536.2878373977255
 30
0.0
 11
422.3000000000029
 21
-938.47810149294
 31
0.0
  0
LINE
  5
308A
330
3464
100
AcDbEntity
  8
0
 62
     0
100
AcDbLine
 10
-422.2999999999974
 20
-526.2878856535908
 30
0.0
 11
422.3000000000029
 21
-928.4781497488047
 31
0.0
  0
LINE
  5
308B
330
3464
100
AcDbEntity
  8
0
 62
     0
100
AcDbLine
 10
-422.2999999999991
 20
-516.2879339094579
 30
0.0
 11
422.3000000000011
 21
-918.4781980046716
 31
0.0
  0
LINE
  5
308C
330
3464
100
AcDbEntity
  8
0
 62
     0
100
AcDbLine
 10
-422.2999999999974
 20
-506.2879821653232
 30
0.0
 11
422.3000000000029
 21
-908.4782462605367
 31
0.0
  0
LINE
  5
308D
330
3464
100
AcDbEntity
  8
0
 62
     0
100
AcDbLine
 10
-422.2999999999974
 20
-496.2880304211885
 30
0.0
 11
422.3000000000029
 21
-898.4782945164024
 31
0.0
  0
LINE
  5
308E
330
3464
100
AcDbEntity
  8
0
 62
     0
100
AcDbLine
 10
-422.3000000000011
 20
-486.2880786770528
 30
0.0
 11
422.3000000000011
 21
-888.4783427722677
 31
0.0
  0
LINE
  5
308F
330
3464
100
AcDbEntity
  8
0
 62
     0
100
AcDbLine
 10
-422.2999999999956
 20
-476.2881269329191
 30
0.0
 11
422.3000000000046
 21
-878.478391028133
 31
0.0
  0
LINE
  5
3090
330
3464
100
AcDbEntity
  8
0
 62
     0
100
AcDbLine
 10
-422.2999999999991
 20
-466.2881751887851
 30
0.0
 11
422.3000000000029
 21
-868.4784392839999
 31
0.0
  0
LINE
  5
3091
330
3464
100
AcDbEntity
  8
0
 62
     0
100
AcDbLine
 10
-422.2999999999974
 20
-456.2882234446503
 30
0.0
 11
422.3000000000029
 21
-858.4784875398652
 31
0.0
  0
LINE
  5
3092
330
3464
100
AcDbEntity
  8
0
 62
     0
100
AcDbLine
 10
-422.2999999999974
 20
-446.2882717005168
 30
0.0
 11
422.3000000000046
 21
-848.4785357957303
 31
0.0
  0
LINE
  5
3093
330
3464
100
AcDbEntity
  8
0
 62
     0
100
AcDbLine
 10
-422.2999999999991
 20
-436.2883199563819
 30
0.0
 11
422.3000000000011
 21
-838.478584051595
 31
0.0
  0
LINE
  5
3094
330
3464
100
AcDbEntity
  8
0
 62
     0
100
AcDbLine
 10
-422.2999999999974
 20
-426.2883682122474
 30
0.0
 11
422.3000000000029
 21
-828.4786323074603
 31
0.0
  0
LINE
  5
3095
330
3464
100
AcDbEntity
  8
0
 62
     0
100
AcDbLine
 10
-422.2999999999974
 20
-416.2884164681144
 30
0.0
 11
422.3000000000029
 21
-818.4786805633272
 31
0.0
  0
LINE
  5
3096
330
3464
100
AcDbEntity
  8
0
 62
     0
100
AcDbLine
 10
-422.2999999999974
 20
-406.2884647239798
 30
0.0
 11
422.3000000000029
 21
-808.4787288191929
 31
0.0
  0
LINE
  5
3097
330
3464
100
AcDbEntity
  8
0
 62
     0
100
AcDbLine
 10
-422.2999999999991
 20
-396.2885129798442
 30
0.0
 11
422.3000000000029
 21
-798.4787770750581
 31
0.0
  0
LINE
  5
3098
330
3464
100
AcDbEntity
  8
0
 62
     0
100
AcDbLine
 10
-422.2999999999974
 20
-386.2885612357104
 30
0.0
 11
422.3000000000029
 21
-788.4788253309233
 31
0.0
  0
LINE
  5
3099
330
3464
100
AcDbEntity
  8
0
 62
     0
100
AcDbLine
 10
-422.2999999999991
 20
-376.2886094915748
 30
0.0
 11
422.3000000000029
 21
-778.4788735867886
 31
0.0
  0
LINE
  5
309A
330
3464
100
AcDbEntity
  8
0
 62
     0
100
AcDbLine
 10
-422.2999999999991
 20
-366.28865774744
 30
0.0
 11
422.3000000000064
 21
-768.4789218426559
 31
0.0
  0
LINE
  5
309B
330
3464
100
AcDbEntity
  8
0
 62
     0
100
AcDbLine
 10
-422.2999999999974
 20
-356.2887060033072
 30
0.0
 11
422.3000000000064
 21
-758.4789700985229
 31
0.0
  0
LINE
  5
309C
330
3464
100
AcDbEntity
  8
0
 62
     0
100
AcDbLine
 10
-422.2999999999991
 20
-346.2887542591725
 30
0.0
 11
422.3000000000046
 21
-748.4790183543873
 31
0.0
  0
LINE
  5
309D
330
3464
100
AcDbEntity
  8
0
 62
     0
100
AcDbLine
 10
-422.2999999999974
 20
-336.2888025150378
 30
0.0
 11
422.3000000000064
 21
-738.4790666102526
 31
0.0
  0
LINE
  5
309E
330
3464
100
AcDbEntity
  8
0
 62
     0
100
AcDbLine
 10
-422.2999999999974
 20
-326.288850770903
 30
0.0
 11
422.3000000000064
 21
-728.4791148661176
 31
0.0
  0
LINE
  5
309F
330
3464
100
AcDbEntity
  8
0
 62
     0
100
AcDbLine
 10
-422.2999999999974
 20
-316.2888990267684
 30
0.0
 11
422.3000000000064
 21
-718.4791631219832
 31
0.0
  0
LINE
  5
30A0
330
3464
100
AcDbEntity
  8
0
 62
     0
100
AcDbLine
 10
-422.2999999999974
 20
-306.2889472826345
 30
0.0
 11
422.3000000000064
 21
-708.4792113778503
 31
0.0
  0
LINE
  5
30A1
330
3464
100
AcDbEntity
  8
0
 62
     0
100
AcDbLine
 10
-422.2999999999974
 20
-296.2889955385008
 30
0.0
 11
422.3000000000064
 21
-698.4792596337156
 31
0.0
  0
LINE
  5
30A2
330
3464
100
AcDbEntity
  8
0
 62
     0
100
AcDbLine
 10
-422.2999999999991
 20
-286.2890437943652
 30
0.0
 11
422.3000000000064
 21
-688.4793078895807
 31
0.0
  0
LINE
  5
30A3
330
3464
100
AcDbEntity
  8
0
 62
     0
100
AcDbLine
 10
-422.2999999999974
 20
-276.2890920502305
 30
0.0
 11
422.3000000000083
 21
-678.4793561454462
 31
0.0
  0
LINE
  5
30A4
330
3464
100
AcDbEntity
  8
0
 62
     0
100
AcDbLine
 10
-422.2999999999991
 20
-266.2891403060959
 30
0.0
 11
422.3000000000064
 21
-668.4794044013115
 31
0.0
  0
LINE
  5
30A5
330
3464
100
AcDbEntity
  8
0
 62
     0
100
AcDbLine
 10
-422.2999999999974
 20
-256.2891885619629
 30
0.0
 11
422.3000000000046
 21
-658.4794526571783
 31
0.0
  0
LINE
  5
30A6
330
3464
100
AcDbEntity
  8
0
 62
     0
100
AcDbLine
 10
-422.2999999999974
 20
-246.2892368178282
 30
0.0
 11
422.3000000000083
 21
-648.4795009130447
 31
0.0
  0
LINE
  5
30A7
330
3464
100
AcDbEntity
  8
0
 62
     0
100
AcDbLine
 10
-422.2999999999991
 20
-236.2892850736935
 30
0.0
 11
422.3000000000046
 21
-638.4795491689092
 31
0.0
  0
LINE
  5
30A8
330
3464
100
AcDbEntity
  8
0
 62
     0
100
AcDbLine
 10
-422.2999999999974
 20
-226.2893333295588
 30
0.0
 11
422.3000000000064
 21
-628.4795974247745
 31
0.0
  0
LINE
  5
30A9
330
3464
100
AcDbEntity
  8
0
 62
     0
100
AcDbLine
 10
-422.2999999999991
 20
-216.2893815854241
 30
0.0
 11
422.3000000000064
 21
-618.4796456806399
 31
0.0
  0
LINE
  5
30AA
330
3464
100
AcDbEntity
  8
0
 62
     0
100
AcDbLine
 10
-422.2999999999974
 20
-206.2894298412902
 30
0.0
 11
422.3000000000046
 21
-608.4796939365051
 31
0.0
  0
LINE
  5
30AB
330
3464
100
AcDbEntity
  8
0
 62
     0
100
AcDbLine
 10
-422.2999999999991
 20
-196.2894780971564
 30
0.0
 11
422.3000000000064
 21
-598.4797421923721
 31
0.0
  0
LINE
  5
30AC
330
3464
100
AcDbEntity
  8
0
 62
     0
100
AcDbLine
 10
-406.3243199616863
 20
-193.8969890261324
 30
0.0
 11
422.3000000000064
 21
-588.4797904482375
 31
0.0
  0
LINE
  5
30AD
330
3464
100
AcDbEntity
  8
0
 62
     0
100
AcDbLine
 10
-385.3244102246972
 20
-193.8969890261324
 30
0.0
 11
422.3000000000064
 21
-578.4798387041028
 31
0.0
  0
LINE
  5
30AE
330
3464
100
AcDbEntity
  8
0
 62
     0
100
AcDbLine
 10
-364.3245004877026
 20
-193.8969890261324
 30
0.0
 11
422.3000000000083
 21
-568.479886959968
 31
0.0
  0
LINE
  5
30AF
330
3464
100
AcDbEntity
  8
0
 62
     0
100
AcDbLine
 10
-343.3245907507136
 20
-193.8969890261313
 30
0.0
 11
422.3000000000064
 21
-558.4799352158333
 31
0.0
  0
LINE
  5
30B0
330
3464
100
AcDbEntity
  8
0
 62
     0
100
AcDbLine
 10
-322.3246810137207
 20
-193.8969890261333
 30
0.0
 11
422.3000000000064
 21
-548.4799834716993
 31
0.0
  0
LINE
  5
30B1
330
3464
100
AcDbEntity
  8
0
 62
     0
100
AcDbLine
 10
-301.3247712767297
 20
-193.8969890261333
 30
0.0
 11
422.3000000000083
 21
-538.4800317275658
 31
0.0
  0
LINE
  5
30B2
330
3464
100
AcDbEntity
  8
0
 62
     0
100
AcDbLine
 10
-280.3248615397406
 20
-193.8969890261333
 30
0.0
 11
422.3000000000064
 21
-528.48007998343
 31
0.0
  0
LINE
  5
30B3
330
3464
100
AcDbEntity
  8
0
 62
     0
100
AcDbLine
 10
-259.3249518027478
 20
-193.8969890261333
 30
0.0
 11
422.3000000000064
 21
-518.4801282392952
 31
0.0
  0
LINE
  5
30B4
330
3464
100
AcDbEntity
  8
0
 62
     0
100
AcDbLine
 10
-238.3250420657569
 20
-193.8969890261333
 30
0.0
 11
422.3000000000064
 21
-508.4801764951607
 31
0.0
  0
LINE
  5
30B5
330
3464
100
AcDbEntity
  8
0
 62
     0
100
AcDbLine
 10
-217.3251323287659
 20
-193.8969890261333
 30
0.0
 11
422.3000000000064
 21
-498.480224751026
 31
0.0
  0
LINE
  5
30B6
330
3464
100
AcDbEntity
  8
0
 62
     0
100
AcDbLine
 10
206.5000000000073
 20
-385.7184224365092
 30
0.0
 11
210.6549920293528
 21
-387.6969890261316
 31
0.0
  0
LINE
  5
30B7
330
3464
100
AcDbEntity
  8
0
 62
     0
100
AcDbLine
 10
210.6549920293546
 20
-387.6969890261335
 30
0.0
 11
422.3000000000064
 21
-488.4802730068932
 31
0.0
  0
LINE
  5
30B8
330
3464
100
AcDbEntity
  8
0
 62
     0
100
AcDbLine
 10
-196.3252225917748
 20
-193.8969890261351
 30
0.0
 11
206.5000000000036
 21
-385.7184224365074
 31
0.0
  0
LINE
  5
30B9
330
3464
100
AcDbEntity
  8
0
 62
     0
100
AcDbLine
 10
206.500000000009
 20
-375.7184706923745
 30
0.0
 11
231.6549017663438
 21
-387.6969890261316
 31
0.0
  0
LINE
  5
30BA
330
3464
100
AcDbEntity
  8
0
 62
     0
100
AcDbLine
 10
231.6549017663474
 20
-387.6969890261335
 30
0.0
 11
422.3000000000083
 21
-478.4803212627585
 31
0.0
  0
LINE
  5
30BB
330
3464
100
AcDbEntity
  8
0
 62
     0
100
AcDbLine
 10
-175.3253128547821
 20
-193.8969890261342
 30
0.0
 11
206.5000000000055
 21
-375.7184706923727
 31
0.0
  0
LINE
  5
30BC
330
3464
100
AcDbEntity
  8
0
 62
     0
100
AcDbLine
 10
206.5000000000073
 20
-365.7185189482398
 30
0.0
 11
252.6548115033329
 21
-387.6969890261316
 31
0.0
  0
LINE
  5
30BD
330
3464
100
AcDbEntity
  8
0
 62
     0
100
AcDbLine
 10
252.6548115033365
 20
-387.6969890261335
 30
0.0
 11
422.3000000000064
 21
-468.4803695186237
 31
0.0
  0
LINE
  5
30BE
330
3464
100
AcDbEntity
  8
0
 62
     0
100
AcDbLine
 10
-154.3254031177967
 20
-193.8969890261333
 30
0.0
 11
206.5000000000036
 21
-365.718518948238
 31
0.0
  0
LINE
  5
30BF
330
3464
100
AcDbEntity
  8
0
 62
     0
100
AcDbLine
 10
206.5000000000073
 20
-355.7185672041052
 30
0.0
 11
273.6547212403257
 21
-387.6969890261316
 31
0.0
  0
LINE
  5
30C0
330
3464
100
AcDbEntity
  8
0
 62
     0
100
AcDbLine
 10
273.6547212403293
 20
-387.6969890261335
 30
0.0
 11
422.3000000000064
 21
-458.4804177744889
 31
0.0
  0
LINE
  5
30C1
330
3464
100
AcDbEntity
  8
0
 62
     0
100
AcDbLine
 10
-133.3254933808038
 20
-193.8969890261333
 30
0.0
 11
206.5000000000036
 21
-355.7185672041033
 31
0.0
  0
LINE
  5
30C2
330
3464
100
AcDbEntity
  8
0
 62
     0
100
AcDbLine
 10
206.500000000009
 20
-345.7186154599704
 30
0.0
 11
294.6546309773166
 21
-387.6969890261316
 31
0.0
  0
LINE
  5
30C3
330
3464
100
AcDbEntity
  8
0
 62
     0
100
AcDbLine
 10
294.6546309773203
 20
-387.6969890261325
 30
0.0
 11
422.3000000000083
 21
-448.4804660303541
 31
0.0
  0
LINE
  5
30C4
330
3464
100
AcDbEntity
  8
0
 62
     0
100
AcDbLine
 10
-112.3255836438165
 20
-193.8969890261313
 30
0.0
 11
206.5000000000036
 21
-345.7186154599677
 31
0.0
  0
LINE
  5
30C5
330
3464
100
AcDbEntity
  8
0
 62
     0
100
AcDbLine
 10
206.5000000000073
 20
-335.7186637158374
 30
0.0
 11
315.6545407143076
 21
-387.6969890261335
 31
0.0
  0
LINE
  5
30C6
330
3464
100
AcDbEntity
  8
0
 62
     0
100
AcDbLine
 10
315.6545407143076
 20
-387.6969890261335
 30
0.0
 11
422.3000000000046
 21
-438.4805142862214
 31
0.0
  0
LINE
  5
30C7
330
3464
100
AcDbEntity
  8
0
 62
     0
100
AcDbLine
 10
-91.32567390682558
 20
-193.8969890261333
 30
0.0
 11
206.5000000000036
 21
-335.7186637158357
 31
0.0
  0
LINE
  5
30C8
330
3464
100
AcDbEntity
  8
0
 62
     0
100
AcDbLine
 10
206.500000000009
 20
-325.7187119717019
 30
0.0
 11
336.6544504512968
 21
-387.6969890261316
 31
0.0
  0
LINE
  5
30C9
330
3464
100
AcDbEntity
  8
0
 62
     0
100
AcDbLine
 10
336.6544504512968
 20
-387.6969890261316
 30
0.0
 11
422.3000000000083
 21
-428.4805625420867
 31
0.0
  0
LINE
  5
30CA
330
3464
100
AcDbEntity
  8
0
 62
     0
100
AcDbLine
 10
-70.32576416983284
 20
-193.8969890261324
 30
0.0
 11
206.5000000000055
 21
-325.7187119717
 31
0.0
  0
LINE
  5
30CB
330
3464
100
AcDbEntity
  8
0
 62
     0
100
AcDbLine
 10
206.500000000009
 20
-315.718760227568
 30
0.0
 11
357.6543601882877
 21
-387.6969890261316
 31
0.0
  0
LINE
  5
30CC
330
3464
100
AcDbEntity
  8
0
 62
     0
100
AcDbLine
 10
357.6543601882877
 20
-387.6969890261316
 30
0.0
 11
422.3000000000064
 21
-418.4806107979518
 31
0.0
  0
LINE
  5
30CD
330
3464
100
AcDbEntity
  8
0
 62
     0
100
AcDbLine
 10
-49.3258544328437
 20
-193.8969890261324
 30
0.0
 11
206.5000000000036
 21
-315.7187602275653
 31
0.0
  0
LINE
  5
30CE
330
3464
100
AcDbEntity
  8
0
 62
     0
100
AcDbLine
 10
206.5000000000055
 20
-305.7188084834324
 30
0.0
 11
378.6542699252768
 21
-387.6969890261309
 31
0.0
  0
LINE
  5
30CF
330
3464
100
AcDbEntity
  8
0
 62
     0
100
AcDbLine
 10
378.6542699252768
 20
-387.6969890261309
 30
0.0
 11
422.3000000000064
 21
-408.480659053817
 31
0.0
  0
LINE
  5
30D0
330
3464
100
AcDbEntity
  8
0
 62
     0
100
AcDbLine
 10
-28.32594469585274
 20
-193.8969890261324
 30
0.0
 11
206.5000000000036
 21
-305.7188084834306
 31
0.0
  0
LINE
  5
30D1
330
3464
100
AcDbEntity
  8
0
 62
     0
100
AcDbLine
 10
206.500000000009
 20
-295.7188567392977
 30
0.0
 11
399.6541796622714
 21
-387.6969890261309
 31
0.0
  0
LINE
  5
30D2
330
3464
100
AcDbEntity
  8
0
 62
     0
100
AcDbLine
 10
399.6541796622714
 20
-387.6969890261309
 30
0.0
 11
422.3000000000083
 21
-398.4807073096829
 31
0.0
  0
LINE
  5
30D3
330
3464
100
AcDbEntity
  8
0
 62
     0
100
AcDbLine
 10
-7.326034958859963
 20
-193.8969890261324
 30
0.0
 11
206.5000000000055
 21
-295.7188567392959
 31
0.0
  0
LINE
  5
30D4
330
3464
100
AcDbEntity
  8
0
 62
     0
100
AcDbLine
 10
206.5000000000036
 20
-285.7189049951629
 30
0.0
 11
420.6540893992603
 21
-387.6969890261325
 31
0.0
  0
LINE
  5
30D5
330
3464
100
AcDbEntity
  8
0
 62
     0
100
AcDbLine
 10
420.6540893992603
 20
-387.6969890261325
 30
0.0
 11
422.3000000000064
 21
-388.4807555655498
 31
0.0
  0
LINE
  5
30D6
330
3464
100
AcDbEntity
  8
0
 62
     0
100
AcDbLine
 10
13.67387477813099
 20
-193.8969890261342
 30
0.0
 11
206.5000000000036
 21
-285.7189049951629
 31
0.0
  0
LINE
  5
30D7
330
3464
100
AcDbEntity
  8
0
 62
     0
100
AcDbLine
 10
206.5000000000055
 20
-275.7189532510283
 30
0.0
 11
422.3000000000029
 21
-378.4808038214123
 31
0.0
  0
LINE
  5
30D8
330
3464
100
AcDbEntity
  8
0
 62
     0
100
AcDbLine
 10
34.67378451512195
 20
-193.8969890261342
 30
0.0
 11
206.5000000000036
 21
-275.7189532510283
 31
0.0
  0
LINE
  5
30D9
330
3464
100
AcDbEntity
  8
0
 62
     0
100
AcDbLine
 10
206.5000000000055
 20
-265.7190015068936
 30
0.0
 11
422.3000000000029
 21
-368.4808520772776
 31
0.0
  0
LINE
  5
30DA
330
3464
100
AcDbEntity
  8
0
 62
     0
100
AcDbLine
 10
55.67369425211473
 20
-193.8969890261342
 30
0.0
 11
206.5000000000036
 21
-265.7190015068936
 31
0.0
  0
LINE
  5
30DB
330
3464
100
AcDbEntity
  8
0
 62
     0
100
AcDbLine
 10
206.5000000000036
 20
-255.7190497627589
 30
0.0
 11
422.3000000000029
 21
-358.4809003331429
 31
0.0
  0
LINE
  5
30DC
330
3464
100
AcDbEntity
  8
0
 62
     0
100
AcDbLine
 10
76.67360398910386
 20
-193.8969890261342
 30
0.0
 11
206.5000000000036
 21
-255.7190497627589
 31
0.0
  0
LINE
  5
30DD
330
3464
100
AcDbEntity
  8
0
 62
     0
100
AcDbLine
 10
206.5000000000055
 20
-245.7190980186242
 30
0.0
 11
422.3000000000029
 21
-348.4809485890083
 31
0.0
  0
LINE
  5
30DE
330
3464
100
AcDbEntity
  8
0
 62
     0
100
AcDbLine
 10
97.67351372609482
 20
-193.8969890261333
 30
0.0
 11
206.5000000000036
 21
-245.7190980186242
 31
0.0
  0
LINE
  5
30DF
330
3464
100
AcDbEntity
  8
0
 62
     0
100
AcDbLine
 10
206.5000000000036
 20
-235.7191462744895
 30
0.0
 11
422.3000000000046
 21
-338.4809968448735
 31
0.0
  0
LINE
  5
30E0
330
3464
100
AcDbEntity
  8
0
 62
     0
100
AcDbLine
 10
118.6734234630876
 20
-193.8969890261333
 30
0.0
 11
206.5000000000036
 21
-235.7191462744895
 31
0.0
  0
LINE
  5
30E1
330
3464
100
AcDbEntity
  8
0
 62
     0
100
AcDbLine
 10
206.5000000000036
 20
-225.7191945303566
 30
0.0
 11
422.3000000000029
 21
-328.4810451007406
 31
0.0
  0
LINE
  5
30E2
330
3464
100
AcDbEntity
  8
0
 62
     0
100
AcDbLine
 10
139.6733332000731
 20
-193.8969890261342
 30
0.0
 11
206.5000000000036
 21
-225.7191945303566
 31
0.0
  0
LINE
  5
30E3
330
3464
100
AcDbEntity
  8
0
 62
     0
100
AcDbLine
 10
206.5000000000036
 20
-215.7192427862219
 30
0.0
 11
422.3000000000011
 21
-318.4810933566059
 31
0.0
  0
LINE
  5
30E4
330
3464
100
AcDbEntity
  8
0
 62
     0
100
AcDbLine
 10
160.6732429370621
 20
-193.8969890261324
 30
0.0
 11
206.5000000000036
 21
-215.7192427862219
 31
0.0
  0
LINE
  5
30E5
330
3464
100
AcDbEntity
  8
0
 62
     0
100
AcDbLine
 10
206.5000000000055
 20
-205.7192910420872
 30
0.0
 11
422.3000000000046
 21
-308.4811416124712
 31
0.0
  0
LINE
  5
30E6
330
3464
100
AcDbEntity
  8
0
 62
     0
100
AcDbLine
 10
181.673152674055
 20
-193.8969890261324
 30
0.0
 11
206.5000000000055
 21
-205.7192910420872
 31
0.0
  0
LINE
  5
30E7
330
3464
100
AcDbEntity
  8
0
 62
     0
100
AcDbLine
 10
206.5000000000036
 20
-195.7193392979525
 30
0.0
 11
422.3000000000011
 21
-298.4811898683365
 31
0.0
  0
LINE
  5
30E8
330
3464
100
AcDbEntity
  8
0
 62
     0
100
AcDbLine
 10
202.6730624110442
 20
-193.8969890261313
 30
0.0
 11
206.5000000000036
 21
-195.7193392979525
 31
0.0
  0
LINE
  5
30E9
330
3464
100
AcDbEntity
  8
0
 62
     0
100
AcDbLine
 10
223.6729721480333
 20
-193.8969890261305
 30
0.0
 11
422.3000000000046
 21
-288.4812381242028
 31
0.0
  0
LINE
  5
30EA
330
3464
100
AcDbEntity
  8
0
 62
     0
100
AcDbLine
 10
244.6728818850242
 20
-193.8969890261313
 30
0.0
 11
422.3000000000064
 21
-278.4812863800699
 31
0.0
  0
LINE
  5
30EB
330
3464
100
AcDbEntity
  8
0
 62
     0
100
AcDbLine
 10
265.6727916220134
 20
-193.8969890261313
 30
0.0
 11
422.3000000000046
 21
-268.4813346359352
 31
0.0
  0
LINE
  5
30EC
330
3464
100
AcDbEntity
  8
0
 62
     0
100
AcDbLine
 10
286.672701359008
 20
-193.8969890261313
 30
0.0
 11
422.3000000000083
 21
-258.4813828918004
 31
0.0
  0
LINE
  5
30ED
330
3464
100
AcDbEntity
  8
0
 62
     0
100
AcDbLine
 10
307.6726110959972
 20
-193.8969890261313
 30
0.0
 11
422.3000000000064
 21
-248.4814311476656
 31
0.0
  0
LINE
  5
30EE
330
3464
100
AcDbEntity
  8
0
 62
     0
100
AcDbLine
 10
328.672520832988
 20
-193.8969890261313
 30
0.0
 11
422.3000000000046
 21
-238.481479403531
 31
0.0
  0
LINE
  5
30EF
330
3464
100
AcDbEntity
  8
0
 62
     0
100
AcDbLine
 10
349.6724305699808
 20
-193.8969890261313
 30
0.0
 11
422.3000000000083
 21
-228.4815276593972
 31
0.0
  0
LINE
  5
30F0
330
3464
100
AcDbEntity
  8
0
 62
     0
100
AcDbLine
 10
370.67234030697
 20
-193.8969890261333
 30
0.0
 11
422.3000000000064
 21
-218.4815759152643
 31
0.0
  0
LINE
  5
30F1
330
3464
100
AcDbEntity
  8
0
 62
     0
100
AcDbLine
 10
391.6722500439628
 20
-193.8969890261333
 30
0.0
 11
422.3000000000064
 21
-208.4816241711287
 31
0.0
  0
LINE
  5
30F2
330
3464
100
AcDbEntity
  8
0
 62
     0
100
AcDbLine
 10
412.6721597809535
 20
-193.8969890261324
 30
0.0
 11
422.3000000000064
 21
-198.481672426994
 31
0.0
  0
ENDBLK
  5
30F3
330
3464
100
AcDbEntity
  8
0
100
AcDbBlockEnd
  0
BLOCK
  5
3467
330
3466
100
AcDbEntity
  8
0
100
AcDbBlockBegin
  2
*X33
 70
     1
 10
0.0
 20
0.0
 30
0.0
  3
*X33
  1

  0
LINE
  5
30F6
330
3466
100
AcDbEntity
  8
0
 62
     0
100
AcDbLine
 10
409.3374096649495
 20
-1132.584304071668
 30
0.0
 11
422.3000000000064
 21
-1126.411645262509
 31
0.0
  0
LINE
  5
30F7
330
3466
100
AcDbEntity
  8
0
 62
     0
100
AcDbLine
 10
388.3374999279549
 20
-1132.58430407167
 30
0.0
 11
422.3000000000064
 21
-1116.411693518374
 31
0.0
  0
LINE
  5
30F8
330
3466
100
AcDbEntity
  8
0
 62
     0
100
AcDbLine
 10
367.337590190964
 20
-1132.58430407167
 30
0.0
 11
422.3000000000029
 21
-1106.411741774242
 31
0.0
  0
LINE
  5
30F9
330
3466
100
AcDbEntity
  8
0
 62
     0
100
AcDbLine
 10
346.337680453973
 20
-1132.584304071668
 30
0.0
 11
422.3000000000064
 21
-1096.411790030106
 31
0.0
  0
LINE
  5
30FA
330
3466
100
AcDbEntity
  8
0
 62
     0
100
AcDbLine
 10
325.3377707169857
 20
-1132.584304071668
 30
0.0
 11
422.3000000000029
 21
-1086.411838285972
 31
0.0
  0
LINE
  5
30FB
330
3466
100
AcDbEntity
  8
0
 62
     0
100
AcDbLine
 10
304.3378609799948
 20
-1132.584304071668
 30
0.0
 11
422.3000000000064
 21
-1076.411886541837
 31
0.0
  0
LINE
  5
30FC
330
3466
100
AcDbEntity
  8
0
 62
     0
100
AcDbLine
 10
283.3379512430038
 20
-1132.584304071666
 30
0.0
 11
422.3000000000064
 21
-1066.411934797701
 31
0.0
  0
LINE
  5
30FD
330
3466
100
AcDbEntity
  8
0
 62
     0
100
AcDbLine
 10
262.3380415060128
 20
-1132.584304071668
 30
0.0
 11
422.3000000000029
 21
-1056.411983053569
 31
0.0
  0
LINE
  5
30FE
330
3466
100
AcDbEntity
  8
0
 62
     0
100
AcDbLine
 10
241.3381317690219
 20
-1132.584304071668
 30
0.0
 11
422.3000000000064
 21
-1046.412031309432
 31
0.0
  0
LINE
  5
30FF
330
3466
100
AcDbEntity
  8
0
 62
     0
100
AcDbLine
 10
220.3382220320309
 20
-1132.584304071668
 30
0.0
 11
422.3000000000064
 21
-1036.4120795653
 31
0.0
  0
LINE
  5
3100
330
3466
100
AcDbEntity
  8
0
 62
     0
100
AcDbLine
 10
199.3383122950363
 20
-1132.584304071668
 30
0.0
 11
422.3000000000064
 21
-1026.412127821164
 31
0.0
  0
LINE
  5
3101
330
3466
100
AcDbEntity
  8
0
 62
     0
100
AcDbLine
 10
178.3384025580526
 20
-1132.584304071666
 30
0.0
 11
422.3000000000064
 21
-1016.41217607703
 31
0.0
  0
LINE
  5
3102
330
3466
100
AcDbEntity
  8
0
 62
     0
100
AcDbLine
 10
157.3384928210614
 20
-1132.584304071668
 30
0.0
 11
422.3000000000064
 21
-1006.412224332896
 31
0.0
  0
LINE
  5
3103
330
3466
100
AcDbEntity
  8
0
 62
     0
100
AcDbLine
 10
136.338583084067
 20
-1132.584304071668
 30
0.0
 11
422.3000000000029
 21
-996.412272588763
 31
0.0
  0
LINE
  5
3104
330
3466
100
AcDbEntity
  8
0
 62
     0
100
AcDbLine
 10
115.3386733470797
 20
-1132.584304071666
 30
0.0
 11
422.3000000000064
 21
-986.4123208446271
 31
0.0
  0
LINE
  5
3105
330
3466
100
AcDbEntity
  8
0
 62
     0
100
AcDbLine
 10
94.33876361008881
 20
-1132.584304071666
 30
0.0
 11
422.3000000000064
 21
-976.4123691004911
 31
0.0
  0
LINE
  5
3106
330
3466
100
AcDbEntity
  8
0
 62
     0
100
AcDbLine
 10
73.33885387309781
 20
-1132.584304071666
 30
0.0
 11
422.3000000000029
 21
-966.4124173563575
 31
0.0
  0
LINE
  5
3107
330
3466
100
AcDbEntity
  8
0
 62
     0
100
AcDbLine
 10
52.33894413610688
 20
-1132.584304071666
 30
0.0
 11
422.3000000000064
 21
-956.4124656122221
 31
0.0
  0
LINE
  5
3108
330
3466
100
AcDbEntity
  8
0
 62
     0
100
AcDbLine
 10
31.33903439911592
 20
-1132.584304071668
 30
0.0
 11
422.3000000000029
 21
-946.4125138680897
 31
0.0
  0
LINE
  5
3109
330
3466
100
AcDbEntity
  8
0
 62
     0
100
AcDbLine
 10
10.33912466212496
 20
-1132.584304071668
 30
0.0
 11
422.3000000000064
 21
-936.4125621239564
 31
0.0
  0
LINE
  5
310A
330
3466
100
AcDbEntity
  8
0
 62
     0
100
AcDbLine
 10
-10.660785074866
 20
-1132.584304071668
 30
0.0
 11
422.3000000000102
 21
-926.4126103798208
 31
0.0
  0
LINE
  5
310B
330
3466
100
AcDbEntity
  8
0
 62
     0
100
AcDbLine
 10
-31.6606948118606
 20
-1132.584304071668
 30
0.0
 11
422.3000000000029
 21
-916.4126586356868
 31
0.0
  0
LINE
  5
310C
330
3466
100
AcDbEntity
  8
0
 62
     0
100
AcDbLine
 10
-52.66060454884789
 20
-1132.584304071668
 30
0.0
 11
422.3000000000029
 21
-906.4127068915512
 31
0.0
  0
LINE
  5
310D
330
3466
100
AcDbEntity
  8
0
 62
     0
100
AcDbLine
 10
-73.66051428583884
 20
-1132.58430407167
 30
0.0
 11
422.3000000000064
 21
-896.412755147419
 31
0.0
  0
LINE
  5
310E
330
3466
100
AcDbEntity
  8
0
 62
     0
100
AcDbLine
 10
-94.66042402282985
 20
-1132.584304071668
 30
0.0
 11
422.3000000000064
 21
-886.4128034032836
 31
0.0
  0
LINE
  5
310F
330
3466
100
AcDbEntity
  8
0
 62
     0
100
AcDbLine
 10
-115.6603337598171
 20
-1132.584304071666
 30
0.0
 11
422.3000000000064
 21
-876.4128516591497
 31
0.0
  0
LINE
  5
3110
330
3466
100
AcDbEntity
  8
0
 62
     0
100
AcDbLine
 10
-136.6602434968045
 20
-1132.584304071666
 30
0.0
 11
422.3000000000064
 21
-866.4128999150142
 31
0.0
  0
LINE
  5
3111
330
3466
100
AcDbEntity
  8
0
 62
     0
100
AcDbLine
 10
-157.660153233799
 20
-1132.584304071666
 30
0.0
 11
422.3000000000029
 21
-856.4129481708803
 31
0.0
  0
LINE
  5
3112
330
3466
100
AcDbEntity
  8
0
 62
     0
100
AcDbLine
 10
-178.66006297079
 20
-1132.584304071668
 30
0.0
 11
422.3000000000064
 21
-846.4129964267465
 31
0.0
  0
LINE
  5
3113
330
3466
100
AcDbEntity
  8
0
 62
     0
100
AcDbLine
 10
-199.6599727077773
 20
-1132.584304071668
 30
0.0
 11
422.3000000000102
 21
-836.4130446826109
 31
0.0
  0
LINE
  5
3114
330
3466
100
AcDbEntity
  8
0
 62
     0
100
AcDbLine
 10
-220.6598824447719
 20
-1132.584304071668
 30
0.0
 11
422.3000000000064
 21
-826.4130929384773
 31
0.0
  0
LINE
  5
3115
330
3466
100
AcDbEntity
  8
0
 62
     0
100
AcDbLine
 10
-241.6597921817629
 20
-1132.584304071668
 30
0.0
 11
422.3000000000064
 21
-816.4131411943417
 31
0.0
  0
LINE
  5
3116
330
3466
100
AcDbEntity
  8
0
 62
     0
100
AcDbLine
 10
-262.6597019187575
 20
-1132.584304071668
 30
0.0
 11
422.3000000000029
 21
-806.4131894502079
 31
0.0
  0
LINE
  5
3117
330
3466
100
AcDbEntity
  8
0
 62
     0
100
AcDbLine
 10
-283.6596116557448
 20
-1132.584304071668
 30
0.0
 11
422.3000000000064
 21
-796.4132377060739
 31
0.0
  0
LINE
  5
3118
330
3466
100
AcDbEntity
  8
0
 62
     0
100
AcDbLine
 10
-304.6595213927322
 20
-1132.584304071668
 30
0.0
 11
422.3000000000064
 21
-786.4132859619403
 31
0.0
  0
LINE
  5
3119
330
3466
100
AcDbEntity
  8
0
 62
     0
100
AcDbLine
 10
-325.6594311297267
 20
-1132.584304071666
 30
0.0
 11
422.3000000000064
 21
-776.4133342178046
 31
0.0
  0
LINE
  5
311A
330
3466
100
AcDbEntity
  8
0
 62
     0
100
AcDbLine
 10
-346.6593408667177
 20
-1132.584304071666
 30
0.0
 11
422.3000000000029
 21
-766.4133824736708
 31
0.0
  0
LINE
  5
311B
330
3466
100
AcDbEntity
  8
0
 62
     0
100
AcDbLine
 10
-367.659250603705
 20
-1132.584304071666
 30
0.0
 11
422.3000000000064
 21
-756.4134307295353
 31
0.0
  0
LINE
  5
311C
330
3466
100
AcDbEntity
  8
0
 62
     0
100
AcDbLine
 10
-388.659160340696
 20
-1132.584304071664
 30
0.0
 11
422.3000000000064
 21
-746.4134789853996
 31
0.0
  0
LINE
  5
311D
330
3466
100
AcDbEntity
  8
0
 62
     0
100
AcDbLine
 10
-409.6590700776868
 20
-1132.584304071666
 30
0.0
 11
422.3000000000102
 21
-736.4135272412659
 31
0.0
  0
LINE
  5
311E
330
3466
100
AcDbEntity
  8
0
 62
     0
100
AcDbLine
 10
-422.2999999999883
 20
-1128.603839592344
 30
0.0
 11
422.3000000000102
 21
-726.4135754971302
 31
0.0
  0
LINE
  5
311F
330
3466
100
AcDbEntity
  8
0
 62
     0
100
AcDbLine
 10
-422.2999999999883
 20
-1118.603887848208
 30
0.0
 11
422.3000000000064
 21
-716.4136237529965
 31
0.0
  0
LINE
  5
3120
330
3466
100
AcDbEntity
  8
0
 62
     0
100
AcDbLine
 10
-422.2999999999847
 20
-1108.603936104073
 30
0.0
 11
422.3000000000102
 21
-706.4136720088607
 31
0.0
  0
LINE
  5
3121
330
3466
100
AcDbEntity
  8
0
 62
     0
100
AcDbLine
 10
-422.2999999999847
 20
-1098.603984359939
 30
0.0
 11
422.3000000000102
 21
-696.4137202647273
 31
0.0
  0
LINE
  5
3122
330
3466
100
AcDbEntity
  8
0
 62
     0
100
AcDbLine
 10
-422.2999999999847
 20
-1088.604032615805
 30
0.0
 11
422.3000000000102
 21
-686.4137685205933
 31
0.0
  0
LINE
  5
3123
330
3466
100
AcDbEntity
  8
0
 62
     0
100
AcDbLine
 10
-422.2999999999883
 20
-1078.604080871671
 30
0.0
 11
422.3000000000102
 21
-676.4138167764575
 31
0.0
  0
LINE
  5
3124
330
3466
100
AcDbEntity
  8
0
 62
     0
100
AcDbLine
 10
-422.2999999999883
 20
-1068.604129127536
 30
0.0
 11
422.3000000000064
 21
-666.4138650323239
 31
0.0
  0
LINE
  5
3125
330
3466
100
AcDbEntity
  8
0
 62
     0
100
AcDbLine
 10
-422.2999999999847
 20
-1058.6041773834
 30
0.0
 11
422.3000000000064
 21
-656.41391328819
 31
0.0
  0
LINE
  5
3126
330
3466
100
AcDbEntity
  8
0
 62
     0
100
AcDbLine
 10
-422.2999999999847
 20
-1048.604225639266
 30
0.0
 11
422.3000000000102
 21
-646.4139615440545
 31
0.0
  0
LINE
  5
3127
330
3466
100
AcDbEntity
  8
0
 62
     0
100
AcDbLine
 10
-422.2999999999883
 20
-1038.604273895134
 30
0.0
 11
422.3000000000102
 21
-636.4140097999204
 31
0.0
  0
LINE
  5
3128
330
3466
100
AcDbEntity
  8
0
 62
     0
100
AcDbLine
 10
-422.2999999999883
 20
-1028.604322150999
 30
0.0
 11
422.3000000000064
 21
-626.4140580557865
 31
0.0
  0
LINE
  5
3129
330
3466
100
AcDbEntity
  8
0
 62
     0
100
AcDbLine
 10
-422.2999999999847
 20
-1018.604370406863
 30
0.0
 11
422.3000000000102
 21
-616.4141063116512
 31
0.0
  0
LINE
  5
312A
330
3466
100
AcDbEntity
  8
0
 62
     0
100
AcDbLine
 10
-422.2999999999883
 20
-1008.604418662729
 30
0.0
 11
422.3000000000064
 21
-606.4141545675172
 31
0.0
  0
LINE
  5
312B
330
3466
100
AcDbEntity
  8
0
 62
     0
100
AcDbLine
 10
-422.2999999999847
 20
-998.6044669185936
 30
0.0
 11
422.3000000000102
 21
-596.4142028233818
 31
0.0
  0
LINE
  5
312C
330
3466
100
AcDbEntity
  8
0
 62
     0
100
AcDbLine
 10
-422.2999999999847
 20
-988.6045151744616
 30
0.0
 11
422.3000000000136
 21
-586.4142510792499
 31
0.0
  0
LINE
  5
312D
330
3466
100
AcDbEntity
  8
0
 62
     0
100
AcDbLine
 10
-422.2999999999883
 20
-978.604563430326
 30
0.0
 11
422.3000000000064
 21
-576.4142993351141
 31
0.0
  0
LINE
  5
312E
330
3466
100
AcDbEntity
  8
0
 62
     0
100
AcDbLine
 10
-422.2999999999847
 20
-968.6046116861906
 30
0.0
 11
422.3000000000102
 21
-566.4143475909805
 31
0.0
  0
LINE
  5
312F
330
3466
100
AcDbEntity
  8
0
 62
     0
100
AcDbLine
 10
-422.2999999999847
 20
-958.6046599420567
 30
0.0
 11
422.3000000000102
 21
-556.4143958468448
 31
0.0
  0
LINE
  5
3130
330
3466
100
AcDbEntity
  8
0
 62
     0
100
AcDbLine
 10
-422.2999999999883
 20
-948.6047081979227
 30
0.0
 11
422.3000000000102
 21
-546.4144441027109
 31
0.0
  0
LINE
  5
3131
330
3466
100
AcDbEntity
  8
0
 62
     0
100
AcDbLine
 10
-422.2999999999847
 20
-938.6047564537872
 30
0.0
 11
422.3000000000102
 21
-536.4144923585771
 31
0.0
  0
LINE
  5
3132
330
3466
100
AcDbEntity
  8
0
 62
     0
100
AcDbLine
 10
-422.2999999999847
 20
-928.6048047096537
 30
0.0
 11
422.3000000000102
 21
-526.4145406144433
 31
0.0
  0
LINE
  5
3133
330
3466
100
AcDbEntity
  8
0
 62
     0
100
AcDbLine
 10
-422.2999999999883
 20
-918.6048529655199
 30
0.0
 11
422.3000000000064
 21
-516.4145888703094
 31
0.0
  0
LINE
  5
3134
330
3466
100
AcDbEntity
  8
0
 62
     0
100
AcDbLine
 10
-422.2999999999847
 20
-908.6049012213845
 30
0.0
 11
422.3000000000102
 21
-506.414637126174
 31
0.0
  0
LINE
  5
3135
330
3466
100
AcDbEntity
  8
0
 62
     0
100
AcDbLine
 10
-422.2999999999883
 20
-898.6049494772505
 30
0.0
 11
422.3000000000102
 21
-496.4146853820383
 31
0.0
  0
LINE
  5
3136
330
3466
100
AcDbEntity
  8
0
 62
     0
100
AcDbLine
 10
-422.2999999999847
 20
-888.6049977331149
 30
0.0
 11
422.3000000000102
 21
-486.4147336379046
 31
0.0
  0
LINE
  5
3137
330
3466
100
AcDbEntity
  8
0
 62
     0
100
AcDbLine
 10
-422.2999999999847
 20
-878.6050459889811
 30
0.0
 11
422.3000000000102
 21
-476.4147818937708
 31
0.0
  0
LINE
  5
3138
330
3466
100
AcDbEntity
  8
0
 62
     0
100
AcDbLine
 10
-422.2999999999883
 20
-868.6050942448472
 30
0.0
 11
422.3000000000064
 21
-466.414830149637
 31
0.0
  0
LINE
  5
3139
330
3466
100
AcDbEntity
  8
0
 62
     0
100
AcDbLine
 10
-422.2999999999883
 20
-858.6051425007136
 30
0.0
 11
422.3000000000102
 21
-456.4148784055014
 31
0.0
  0
LINE
  5
313A
330
3466
100
AcDbEntity
  8
0
 62
     0
100
AcDbLine
 10
-422.2999999999847
 20
-848.6051907565776
 30
0.0
 11
422.3000000000102
 21
-446.4149266613676
 31
0.0
  0
LINE
  5
313B
330
3466
100
AcDbEntity
  8
0
 62
     0
100
AcDbLine
 10
-422.2999999999847
 20
-838.6052390124422
 30
0.0
 11
422.3000000000102
 21
-436.414974917232
 31
0.0
  0
LINE
  5
313C
330
3466
100
AcDbEntity
  8
0
 62
     0
100
AcDbLine
 10
-422.2999999999883
 20
-828.6052872683084
 30
0.0
 11
422.3000000000064
 21
-426.4150231730982
 31
0.0
  0
LINE
  5
313D
330
3466
100
AcDbEntity
  8
0
 62
     0
100
AcDbLine
 10
-422.2999999999847
 20
-818.6053355241748
 30
0.0
 11
422.3000000000102
 21
-416.4150714289643
 31
0.0
  0
LINE
  5
313E
330
3466
100
AcDbEntity
  8
0
 62
     0
100
AcDbLine
 10
-422.2999999999883
 20
-808.605383780041
 30
0.0
 11
422.3000000000102
 21
-406.4151196848288
 31
0.0
  0
LINE
  5
313F
330
3466
100
AcDbEntity
  8
0
 62
     0
100
AcDbLine
 10
-422.2999999999847
 20
-798.6054320359053
 30
0.0
 11
422.3000000000102
 21
-396.415167940695
 31
0.0
  0
LINE
  5
3140
330
3466
100
AcDbEntity
  8
0
 62
     0
100
AcDbLine
 10
419.6082756384383
 20
-387.6969890261262
 30
0.0
 11
422.3000000000136
 21
-386.4152161965593
 31
0.0
  0
LINE
  5
3141
330
3466
100
AcDbEntity
  8
0
 62
     0
100
AcDbLine
 10
-422.2999999999847
 20
-788.6054802917715
 30
0.0
 11
419.6082756384383
 21
-387.696989026128
 31
0.0
  0
LINE
  5
3142
330
3466
100
AcDbEntity
  8
0
 62
     0
100
AcDbLine
 10
398.6083659014438
 20
-387.6969890261297
 30
0.0
 11
422.3000000000064
 21
-376.4152644524275
 31
0.0
  0
LINE
  5
3143
330
3466
100
AcDbEntity
  8
0
 62
     0
100
AcDbLine
 10
-422.2999999999883
 20
-778.6055285476393
 30
0.0
 11
398.6083659014438
 21
-387.6969890261297
 31
0.0
  0
LINE
  5
3144
330
3466
100
AcDbEntity
  8
0
 62
     0
100
AcDbLine
 10
377.6084561644566
 20
-387.696989026128
 30
0.0
 11
422.3000000000102
 21
-366.4153127082918
 31
0.0
  0
LINE
  5
3145
330
3466
100
AcDbEntity
  8
0
 62
     0
100
AcDbLine
 10
-422.2999999999883
 20
-768.6055768035038
 30
0.0
 11
377.6084561644529
 21
-387.6969890261297
 31
0.0
  0
LINE
  5
3146
330
3466
100
AcDbEntity
  8
0
 62
     0
100
AcDbLine
 10
356.608546427462
 20
-387.696989026128
 30
0.0
 11
422.3000000000064
 21
-356.4153609641581
 31
0.0
  0
LINE
  5
3147
330
3466
100
AcDbEntity
  8
0
 62
     0
100
AcDbLine
 10
-422.2999999999883
 20
-758.6056250593701
 30
0.0
 11
356.6085464274583
 21
-387.6969890261297
 31
0.0
  0
LINE
  5
3148
330
3466
100
AcDbEntity
  8
0
 62
     0
100
AcDbLine
 10
335.6086366904747
 20
-387.696989026128
 30
0.0
 11
422.3000000000102
 21
-346.4154092200224
 31
0.0
  0
LINE
  5
3149
330
3466
100
AcDbEntity
  8
0
 62
     0
100
AcDbLine
 10
-422.2999999999847
 20
-748.6056733152345
 30
0.0
 11
335.6086366904709
 21
-387.6969890261297
 31
0.0
  0
LINE
  5
314A
330
3466
100
AcDbEntity
  8
0
 62
     0
100
AcDbLine
 10
314.6087269534837
 20
-387.696989026128
 30
0.0
 11
422.3000000000102
 21
-336.4154574758886
 31
0.0
  0
LINE
  5
314B
330
3466
100
AcDbEntity
  8
0
 62
     0
100
AcDbLine
 10
-422.2999999999847
 20
-738.6057215711006
 30
0.0
 11
314.6087269534801
 21
-387.6969890261297
 31
0.0
  0
LINE
  5
314C
330
3466
100
AcDbEntity
  8
0
 62
     0
100
AcDbLine
 10
293.6088172164927
 20
-387.6969890261262
 30
0.0
 11
422.3000000000064
 21
-326.415505731753
 31
0.0
  0
LINE
  5
314D
330
3466
100
AcDbEntity
  8
0
 62
     0
100
AcDbLine
 10
-422.2999999999883
 20
-728.6057698269652
 30
0.0
 11
293.6088172164854
 21
-387.6969890261297
 31
0.0
  0
LINE
  5
314E
330
3466
100
AcDbEntity
  8
0
 62
     0
100
AcDbLine
 10
272.6089074795018
 20
-387.696989026128
 30
0.0
 11
422.3000000000102
 21
-316.415553987619
 31
0.0
  0
LINE
  5
314F
330
3466
100
AcDbEntity
  8
0
 62
     0
100
AcDbLine
 10
-422.2999999999883
 20
-718.6058180828331
 30
0.0
 11
272.6089074795018
 21
-387.696989026128
 31
0.0
  0
LINE
  5
3150
330
3466
100
AcDbEntity
  8
0
 62
     0
100
AcDbLine
 10
251.6089977425145
 20
-387.696989026128
 30
0.0
 11
422.3000000000102
 21
-306.4156022434854
 31
0.0
  0
LINE
  5
3151
330
3466
100
AcDbEntity
  8
0
 62
     0
100
AcDbLine
 10
-422.2999999999847
 20
-708.6058663386975
 30
0.0
 11
251.6089977425145
 21
-387.696989026128
 31
0.0
  0
LINE
  5
3152
330
3466
100
AcDbEntity
  8
0
 62
     0
100
AcDbLine
 10
230.6090880055199
 20
-387.696989026128
 30
0.0
 11
422.3000000000102
 21
-296.4156504993497
 31
0.0
  0
LINE
  5
3153
330
3466
100
AcDbEntity
  8
0
 62
     0
100
AcDbLine
 10
-422.2999999999883
 20
-698.6059145945636
 30
0.0
 11
230.6090880055199
 21
-387.696989026128
 31
0.0
  0
LINE
  5
3154
330
3466
100
AcDbEntity
  8
0
 62
     0
100
AcDbLine
 10
209.6091782685288
 20
-387.696989026128
 30
0.0
 11
422.3000000000102
 21
-286.415698755216
 31
0.0
  0
LINE
  5
3155
330
3466
100
AcDbEntity
  8
0
 62
     0
100
AcDbLine
 10
-422.2999999999883
 20
-688.605962850428
 30
0.0
 11
209.6091782685288
 21
-387.696989026128
 31
0.0
  0
LINE
  5
3156
330
3466
100
AcDbEntity
  8
0
 62
     0
100
AcDbLine
 10
206.5000000000182
 20
-379.1775975814635
 30
0.0
 11
422.3000000000102
 21
-276.4157470110804
 31
0.0
  0
LINE
  5
3157
330
3466
100
AcDbEntity
  8
0
 62
     0
100
AcDbLine
 10
-422.2999999999883
 20
-678.6060111062944
 30
0.0
 11
206.5000000000146
 21
-379.1775975814652
 31
0.0
  0
LINE
  5
3158
330
3466
100
AcDbEntity
  8
0
 62
     0
100
AcDbLine
 10
206.5000000000109
 20
-369.1776458373315
 30
0.0
 11
422.3000000000064
 21
-266.4157952669484
 31
0.0
  0
LINE
  5
3159
330
3466
100
AcDbEntity
  8
0
 62
     0
100
AcDbLine
 10
-422.2999999999883
 20
-668.6060593621605
 30
0.0
 11
206.5000000000109
 21
-369.1776458373332
 31
0.0
  0
LINE
  5
315A
330
3466
100
AcDbEntity
  8
0
 62
     0
100
AcDbLine
 10
206.5000000000146
 20
-359.1776940931959
 30
0.0
 11
422.3000000000102
 21
-256.4158435228128
 31
0.0
  0
LINE
  5
315B
330
3466
100
AcDbEntity
  8
0
 62
     0
100
AcDbLine
 10
-422.2999999999847
 20
-658.6061076180249
 30
0.0
 11
206.5000000000109
 21
-359.1776940931977
 31
0.0
  0
LINE
  5
315C
330
3466
100
AcDbEntity
  8
0
 62
     0
100
AcDbLine
 10
206.5000000000146
 20
-349.1777423490621
 30
0.0
 11
422.3000000000102
 21
-246.415891778679
 31
0.0
  0
LINE
  5
315D
330
3466
100
AcDbEntity
  8
0
 62
     0
100
AcDbLine
 10
-422.2999999999847
 20
-648.6061558738911
 30
0.0
 11
206.5000000000109
 21
-349.177742349064
 31
0.0
  0
LINE
  5
315E
330
3466
100
AcDbEntity
  8
0
 62
     0
100
AcDbLine
 10
206.5000000000146
 20
-339.1777906049265
 30
0.0
 11
422.3000000000102
 21
-236.4159400345434
 31
0.0
  0
LINE
  5
315F
330
3466
100
AcDbEntity
  8
0
 62
     0
100
AcDbLine
 10
-422.2999999999883
 20
-638.6062041297555
 30
0.0
 11
206.5000000000109
 21
-339.1777906049283
 31
0.0
  0
LINE
  5
3160
330
3466
100
AcDbEntity
  8
0
 62
     0
100
AcDbLine
 10
206.5000000000146
 20
-329.1778388607927
 30
0.0
 11
422.3000000000102
 21
-226.4159882904078
 31
0.0
  0
LINE
  5
3161
330
3466
100
AcDbEntity
  8
0
 62
     0
100
AcDbLine
 10
-422.2999999999883
 20
-628.6062523856217
 30
0.0
 11
206.5000000000146
 21
-329.1778388607927
 31
0.0
  0
LINE
  5
3162
330
3466
100
AcDbEntity
  8
0
 62
     0
100
AcDbLine
 10
206.5000000000146
 20
-319.1778871166588
 30
0.0
 11
422.3000000000102
 21
-216.416036546274
 31
0.0
  0
LINE
  5
3163
330
3466
100
AcDbEntity
  8
0
 62
     0
100
AcDbLine
 10
-422.2999999999847
 20
-618.6063006414861
 30
0.0
 11
206.5000000000146
 21
-319.1778871166588
 31
0.0
  0
LINE
  5
3164
330
3466
100
AcDbEntity
  8
0
 62
     0
100
AcDbLine
 10
206.5000000000109
 20
-309.1779353725252
 30
0.0
 11
422.3000000000102
 21
-206.4160848021402
 31
0.0
  0
LINE
  5
3165
330
3466
100
AcDbEntity
  8
0
 62
     0
100
AcDbLine
 10
-422.2999999999847
 20
-608.6063488973522
 30
0.0
 11
206.5000000000109
 21
-309.1779353725252
 31
0.0
  0
LINE
  5
3166
330
3466
100
AcDbEntity
  8
0
 62
     0
100
AcDbLine
 10
206.5000000000109
 20
-299.1779836283913
 30
0.0
 11
422.3000000000102
 21
-196.4161330580063
 31
0.0
  0
LINE
  5
3167
330
3466
100
AcDbEntity
  8
0
 62
     0
100
AcDbLine
 10
-422.2999999999847
 20
-598.6063971532185
 30
0.0
 11
206.5000000000109
 21
-299.1779836283913
 31
0.0
  0
LINE
  5
3168
330
3466
100
AcDbEntity
  8
0
 62
     0
100
AcDbLine
 10
206.5000000000146
 20
-289.1780318842539
 30
0.0
 11
406.5902955197524
 21
-193.8969890261287
 31
0.0
  0
LINE
  5
3169
330
3466
100
AcDbEntity
  8
0
 62
     0
100
AcDbLine
 10
-422.2999999999883
 20
-588.6064454090845
 30
0.0
 11
206.5000000000109
 21
-289.1780318842557
 31
0.0
  0
LINE
  5
316A
330
3466
100
AcDbEntity
  8
0
 62
     0
100
AcDbLine
 10
206.5000000000146
 20
-279.1780801401201
 30
0.0
 11
385.5903857827616
 21
-193.8969890261287
 31
0.0
  0
LINE
  5
316B
330
3466
100
AcDbEntity
  8
0
 62
     0
100
AcDbLine
 10
-422.2999999999883
 20
-578.606493664949
 30
0.0
 11
206.5000000000109
 21
-279.1780801401219
 31
0.0
  0
LINE
  5
316C
330
3466
100
AcDbEntity
  8
0
 62
     0
100
AcDbLine
 10
206.5000000000146
 20
-269.1781283959845
 30
0.0
 11
364.5904760457706
 21
-193.8969890261287
 31
0.0
  0
LINE
  5
316D
330
3466
100
AcDbEntity
  8
0
 62
     0
100
AcDbLine
 10
-422.2999999999847
 20
-568.6065419208135
 30
0.0
 11
206.5000000000109
 21
-269.1781283959863
 31
0.0
  0
LINE
  5
316E
330
3466
100
AcDbEntity
  8
0
 62
     0
100
AcDbLine
 10
206.5000000000146
 20
-259.1781766518507
 30
0.0
 11
343.590566308776
 21
-193.8969890261305
 31
0.0
  0
LINE
  5
316F
330
3466
100
AcDbEntity
  8
0
 62
     0
100
AcDbLine
 10
-422.2999999999883
 20
-558.6065901766812
 30
0.0
 11
206.5000000000073
 21
-259.1781766518543
 31
0.0
  0
LINE
  5
3170
330
3466
100
AcDbEntity
  8
0
 62
     0
100
AcDbLine
 10
206.5000000000146
 20
-249.1782249077169
 30
0.0
 11
322.5906565717888
 21
-193.8969890261305
 31
0.0
  0
LINE
  5
3171
330
3466
100
AcDbEntity
  8
0
 62
     0
100
AcDbLine
 10
-422.2999999999847
 20
-548.6066384325456
 30
0.0
 11
206.5000000000109
 21
-249.1782249077187
 31
0.0
  0
LINE
  5
3172
330
3466
100
AcDbEntity
  8
0
 62
     0
100
AcDbLine
 10
206.5000000000182
 20
-239.1782731635812
 30
0.0
 11
301.5907468347978
 21
-193.8969890261305
 31
0.0
  0
LINE
  5
3173
330
3466
100
AcDbEntity
  8
0
 62
     0
100
AcDbLine
 10
-422.2999999999883
 20
-538.6066866884119
 30
0.0
 11
206.5000000000073
 21
-239.1782731635867
 31
0.0
  0
LINE
  5
3174
330
3466
100
AcDbEntity
  8
0
 62
     0
100
AcDbLine
 10
206.5000000000146
 20
-229.1783214194475
 30
0.0
 11
280.5908370978031
 21
-193.8969890261305
 31
0.0
  0
LINE
  5
3175
330
3466
100
AcDbEntity
  8
0
 62
     0
100
AcDbLine
 10
-422.2999999999883
 20
-528.6067349442763
 30
0.0
 11
206.5000000000073
 21
-229.1783214194511
 31
0.0
  0
LINE
  5
3176
330
3466
100
AcDbEntity
  8
0
 62
     0
100
AcDbLine
 10
206.5000000000146
 20
-219.1783696753118
 30
0.0
 11
259.5909273608159
 21
-193.8969890261305
 31
0.0
  0
LINE
  5
3177
330
3466
100
AcDbEntity
  8
0
 62
     0
100
AcDbLine
 10
-422.2999999999847
 20
-518.6067832001408
 30
0.0
 11
206.5000000000109
 21
-219.1783696753155
 31
0.0
  0
LINE
  5
3178
330
3466
100
AcDbEntity
  8
0
 62
     0
100
AcDbLine
 10
206.5000000000146
 20
-209.1784179311781
 30
0.0
 11
238.5910176238249
 21
-193.8969890261305
 31
0.0
  0
LINE
  5
3179
330
3466
100
AcDbEntity
  8
0
 62
     0
100
AcDbLine
 10
-422.2999999999847
 20
-508.606831456007
 30
0.0
 11
206.5000000000073
 21
-209.1784179311817
 31
0.0
  0
LINE
  5
317A
330
3466
100
AcDbEntity
  8
0
 62
     0
100
AcDbLine
 10
206.5000000000146
 20
-199.1784661870441
 30
0.0
 11
217.5911078868339
 21
-193.8969890261305
 31
0.0
  0
LINE
  5
317B
330
3466
100
AcDbEntity
  8
0
 62
     0
100
AcDbLine
 10
-422.2999999999883
 20
-498.606879711875
 30
0.0
 11
206.5000000000036
 21
-199.1784661870497
 31
0.0
  0
LINE
  5
317C
330
3466
100
AcDbEntity
  8
0
 62
     0
100
AcDbLine
 10
-422.2999999999883
 20
-488.6069279677395
 30
0.0
 11
196.5911981498466
 21
-193.8969890261287
 31
0.0
  0
LINE
  5
317D
330
3466
100
AcDbEntity
  8
0
 62
     0
100
AcDbLine
 10
-422.2999999999847
 20
-478.6069762236037
 30
0.0
 11
175.5912884128593
 21
-193.8969890261287
 31
0.0
  0
LINE
  5
317E
330
3466
100
AcDbEntity
  8
0
 62
     0
100
AcDbLine
 10
-422.2999999999883
 20
-468.60702447947
 30
0.0
 11
154.5913786758647
 21
-193.8969890261287
 31
0.0
  0
LINE
  5
317F
330
3466
100
AcDbEntity
  8
0
 62
     0
100
AcDbLine
 10
-422.2999999999847
 20
-458.607072735336
 30
0.0
 11
133.5914689388737
 21
-193.8969890261305
 31
0.0
  0
LINE
  5
3180
330
3466
100
AcDbEntity
  8
0
 62
     0
100
AcDbLine
 10
-422.2999999999847
 20
-448.6071209912024
 30
0.0
 11
112.5915592018827
 21
-193.8969890261287
 31
0.0
  0
LINE
  5
3181
330
3466
100
AcDbEntity
  8
0
 62
     0
100
AcDbLine
 10
-422.2999999999883
 20
-438.6071692470665
 30
0.0
 11
91.5916494648918
 21
-193.8969890261287
 31
0.0
  0
LINE
  5
3182
330
3466
100
AcDbEntity
  8
0
 62
     0
100
AcDbLine
 10
-422.2999999999847
 20
-428.6072175029312
 30
0.0
 11
70.59173972790086
 21
-193.8969890261287
 31
0.0
  0
LINE
  5
3183
330
3466
100
AcDbEntity
  8
0
 62
     0
100
AcDbLine
 10
-422.2999999999883
 20
-418.6072657587971
 30
0.0
 11
49.59182999090625
 21
-193.8969890261287
 31
0.0
  0
LINE
  5
3184
330
3466
100
AcDbEntity
  8
0
 62
     0
100
AcDbLine
 10
-422.2999999999847
 20
-408.6073140146616
 30
0.0
 11
28.59192025392258
 21
-193.8969890261269
 31
0.0
  0
LINE
  5
3185
330
3466
100
AcDbEntity
  8
0
 62
     0
100
AcDbLine
 10
-422.2999999999847
 20
-398.6073622705299
 30
0.0
 11
7.592010516931622
 21
-193.8969890261287
 31
0.0
  0
LINE
  5
3186
330
3466
100
AcDbEntity
  8
0
 62
     0
100
AcDbLine
 10
-422.2999999999883
 20
-388.6074105263942
 30
0.0
 11
-13.40789922006296
 21
-193.8969890261287
 31
0.0
  0
LINE
  5
3187
330
3466
100
AcDbEntity
  8
0
 62
     0
100
AcDbLine
 10
-422.2999999999883
 20
-378.6074587822604
 30
0.0
 11
-34.40780895705393
 21
-193.8969890261287
 31
0.0
  0
LINE
  5
3188
330
3466
100
AcDbEntity
  8
0
 62
     0
100
AcDbLine
 10
-422.2999999999847
 20
-368.6075070381248
 30
0.0
 11
-55.40771869404125
 21
-193.8969890261287
 31
0.0
  0
LINE
  5
3189
330
3466
100
AcDbEntity
  8
0
 62
     0
100
AcDbLine
 10
-422.2999999999883
 20
-358.6075552939911
 30
0.0
 11
-76.40762843103219
 21
-193.8969890261269
 31
0.0
  0
LINE
  5
318A
330
3466
100
AcDbEntity
  8
0
 62
     0
100
AcDbLine
 10
-422.2999999999847
 20
-348.607603549859
 30
0.0
 11
-97.40753816802316
 21
-193.8969890261287
 31
0.0
  0
LINE
  5
318B
330
3466
100
AcDbEntity
  8
0
 62
     0
100
AcDbLine
 10
-422.2999999999847
 20
-338.6076518057234
 30
0.0
 11
-118.4074479050141
 21
-193.8969890261287
 31
0.0
  0
LINE
  5
318C
330
3466
100
AcDbEntity
  8
0
 62
     0
100
AcDbLine
 10
-422.2999999999883
 20
-328.6077000615896
 30
0.0
 11
-139.4073576420014
 21
-193.8969890261269
 31
0.0
  0
LINE
  5
318D
330
3466
100
AcDbEntity
  8
0
 62
     0
100
AcDbLine
 10
-422.2999999999847
 20
-318.6077483174539
 30
0.0
 11
-160.4072673789924
 21
-193.8969890261269
 31
0.0
  0
LINE
  5
318E
330
3466
100
AcDbEntity
  8
0
 62
     0
100
AcDbLine
 10
-422.2999999999847
 20
-308.6077965733202
 30
0.0
 11
-181.4071771159833
 21
-193.8969890261269
 31
0.0
  0
LINE
  5
318F
330
3466
100
AcDbEntity
  8
0
 62
     0
100
AcDbLine
 10
-422.2999999999847
 20
-298.6078448291846
 30
0.0
 11
-202.4070868529743
 21
-193.8969890261269
 31
0.0
  0
LINE
  5
3190
330
3466
100
AcDbEntity
  8
0
 62
     0
100
AcDbLine
 10
-422.2999999999883
 20
-288.6078930850526
 30
0.0
 11
-223.4069965899653
 21
-193.8969890261287
 31
0.0
  0
LINE
  5
3191
330
3466
100
AcDbEntity
  8
0
 62
     0
100
AcDbLine
 10
-422.2999999999847
 20
-278.607941340917
 30
0.0
 11
-244.4069063269562
 21
-193.8969890261287
 31
0.0
  0
LINE
  5
3192
330
3466
100
AcDbEntity
  8
0
 62
     0
100
AcDbLine
 10
-422.2999999999883
 20
-268.6079895967833
 30
0.0
 11
-265.4068160639508
 21
-193.8969890261287
 31
0.0
  0
LINE
  5
3193
330
3466
100
AcDbEntity
  8
0
 62
     0
100
AcDbLine
 10
-422.2999999999847
 20
-258.6080378526476
 30
0.0
 11
-286.4067258009381
 21
-193.8969890261287
 31
0.0
  0
LINE
  5
3194
330
3466
100
AcDbEntity
  8
0
 62
     0
100
AcDbLine
 10
-422.2999999999883
 20
-248.608086108512
 30
0.0
 11
-307.4066355379291
 21
-193.8969890261269
 31
0.0
  0
LINE
  5
3195
330
3466
100
AcDbEntity
  8
0
 62
     0
100
AcDbLine
 10
-422.2999999999883
 20
-238.60813436438
 30
0.0
 11
-328.4065452749201
 21
-193.8969890261287
 31
0.0
  0
LINE
  5
3196
330
3466
100
AcDbEntity
  8
0
 62
     0
100
AcDbLine
 10
-422.2999999999847
 20
-228.6081826202444
 30
0.0
 11
-349.4064550119111
 21
-193.8969890261287
 31
0.0
  0
LINE
  5
3197
330
3466
100
AcDbEntity
  8
0
 62
     0
100
AcDbLine
 10
-422.2999999999883
 20
-218.6082308761106
 30
0.0
 11
-370.4063647488983
 21
-193.8969890261269
 31
0.0
  0
LINE
  5
3198
330
3466
100
AcDbEntity
  8
0
 62
     0
100
AcDbLine
 10
-422.2999999999847
 20
-208.608279131975
 30
0.0
 11
-391.4062744858893
 21
-193.8969890261269
 31
0.0
  0
LINE
  5
3199
330
3466
100
AcDbEntity
  8
0
 62
     0
100
AcDbLine
 10
-422.2999999999847
 20
-198.6083273878412
 30
0.0
 11
-412.4061842228802
 21
-193.8969890261269
 31
0.0
  0
ENDBLK
  5
319A
330
3466
100
AcDbEntity
  8
0
100
AcDbBlockEnd
  0
ENDSEC
  0
SECTION
  2
ENTITIES
  0
TEXT
  5
953
330
33D5
100
AcDbEntity
  8
OUTLINE
  6
Continuous
 62
     3
100
AcDbText
 10
-418.231467
 20
13.715189
 30
0.0
 40
64.0
  1
 
 41
0.9
100
AcDbText
  0
TEXT
  5
954
330
33D5
100
AcDbEntity
  8
OUTLINE
  6
Continuous
 62
     3
100
AcDbText
 10
-418.231467
 20
13.715189
 30
0.0
 40
64.0
  1
 
 41
0.9
100
AcDbText
  0
TEXT
  5
955
330
33D5
100
AcDbEntity
  8
OUTLINE
  6
Continuous
 62
     3
100
AcDbText
 10
1341.41903
 20
-706.0588199999997
 30
0.0
 40
64.0
  1
 
 41
0.9
100
AcDbText
  0
TEXT
  5
956
330
33D5
100
AcDbEntity
  8
OUTLINE
  6
Continuous
 62
     3
100
AcDbText
 10
1341.41903
 20
-706.0588199999997
 30
0.0
 40
64.0
  1
 
 41
0.9
100
AcDbText
  0
TEXT
  5
957
330
33D5
100
AcDbEntity
  8
OUTLINE
  6
Continuous
 62
     3
100
AcDbText
 10
1341.41903
 20
-706.0588199999997
 30
0.0
 40
64.0
  1
 
 41
0.9
100
AcDbText
  0
TEXT
  5
958
330
33D5
100
AcDbEntity
  8
OUTLINE
  6
Continuous
 62
     3
100
AcDbText
 10
1341.41903
 20
-706.0588199999997
 30
0.0
 40
64.0
  1
 
 41
0.9
100
AcDbText
  0
TEXT
  5
3265
330
33D5
100
AcDbEntity
  8
ETC
100
AcDbText
 10
720.8511233124409
 20
449.4270614903678
 30
0.0
 40
64.0
  1
システム部材
 41
0.9
100
AcDbText
  0
TEXT
  5
3266
330
33D5
100
AcDbEntity
  8
ETC
100
AcDbText
 10
717.9845575867907
 20
551.2578212458882
 30
0.0
 40
64.0
  1
QWH-80SA_6
 41
0.9
100
AcDbText
  0
TEXT
  5
3267
330
33D5
100
AcDbEntity
  8
ETC
100
AcDbText
 10
717.9845575867907
 20
351.2578212458884
 30
0.0
 40
64.0
  1
QWH-80SA
 41
0.9
100
AcDbText
  0
LINE
  5
3268
330
33D5
100
AcDbEntity
  8
DETAIL
100
AcDbLine
 10
475.0
 20
-0.3999999999969077
 30
0.0
 11
475.0
 21
-7.99999999999727
 31
0.0
  0
LINE
  5
3269
330
33D5
100
AcDbEntity
  8
DETAIL
100
AcDbLine
 10
-475.0
 20
-0.3999999999969077
 30
0.0
 11
-475.0
 21
-7.99999999999727
 31
0.0
  0
LINE
  5
326A
330
33D5
100
AcDbEntity
  8
DETAIL
100
AcDbLine
 10
-435.0
 20
0.0000000000027285
 30
0.0
 11
-475.0
 21
0.0000000000027285
 31
0.0
  0
LINE
  5
326B
330
33D5
100
AcDbEntity
  8
DETAIL
100
AcDbLine
 10
475.0
 20
-1.476199999997334
 30
0.0
 11
475.0
 21
-1.87619999999697
 31
0.0
  0
LINE
  5
326C
330
33D5
100
AcDbEntity
  8
DETAIL
100
AcDbLine
 10
475.0
 20
0.0000000000027285
 30
0.0
 11
435.0
 21
0.0000000000027285
 31
0.0
  0
LINE
  5
326D
330
33D5
100
AcDbEntity
  8
DETAIL
100
AcDbLine
 10
436.0
 20
-139.061986437624
 30
0.0
 11
-436.0
 21
-139.061986437624
 31
0.0
  0
LINE
  5
326E
330
33D5
100
AcDbEntity
  8
DETAIL
100
AcDbLine
 10
437.0
 20
-139.061986437624
 30
0.0
 11
437.0
 21
-165.8442706291662
 31
0.0
  0
LINE
  5
326F
330
33D5
100
AcDbEntity
  8
DETAIL
100
AcDbLine
 10
-437.0
 20
-139.061986437624
 30
0.0
 11
-437.0000000000109
 21
-7.99999999999727
 31
0.0
  0
LINE
  5
3270
330
33D5
100
AcDbEntity
  8
DETAIL
100
AcDbLine
 10
-437.0
 20
-165.8442706291662
 30
0.0
 11
-437.0
 21
-139.061986437624
 31
0.0
  0
LINE
  5
3271
330
33D5
100
AcDbEntity
  8
DETAIL
100
AcDbLine
 10
-436.0
 20
-139.061986437624
 30
0.0
 11
-437.0
 21
-139.061986437624
 31
0.0
  0
LINE
  5
3272
330
33D5
100
AcDbEntity
  8
DETAIL
100
AcDbLine
 10
437.0
 20
-7.99999999999727
 30
0.0
 11
437.0
 21
-139.061986437624
 31
0.0
  0
LINE
  5
3273
330
33D5
100
AcDbEntity
  8
DETAIL
100
AcDbLine
 10
436.0
 20
-139.061986437624
 30
0.0
 11
437.0
 21
-139.061986437624
 31
0.0
  0
LINE
  5
3274
330
33D5
100
AcDbEntity
  8
DETAIL
100
AcDbLine
 10
435.0
 20
0.0000000000027285
 30
0.0
 11
-435.0
 21
0.0000000000027285
 31
0.0
  0
LINE
  5
3275
330
33D5
100
AcDbEntity
  8
DETAIL
100
AcDbLine
 10
475.0
 20
-7.99999999999727
 30
0.0
 11
-475.0
 21
-7.99999999999727
 31
0.0
  0
LINE
  5
3276
330
33D5
100
AcDbEntity
  8
DETAIL
100
AcDbLine
 10
434.4999999999995
 20
-1161.999999999997
 30
0.0
 11
434.4999999999995
 21
-1146.999965518883
 31
0.0
  0
LINE
  5
3277
330
33D5
100
AcDbEntity
  8
DETAIL
100
AcDbLine
 10
434.4999999999995
 20
-1166.883757344662
 30
0.0
 11
434.4999999999995
 21
-1161.999999999997
 31
0.0
  0
LINE
  5
3278
330
33D5
100
AcDbEntity
  8
DETAIL
100
AcDbLine
 10
434.4999999999995
 20
-1161.999999999997
 30
0.0
 11
-434.4999999999999
 21
-1161.999999999997
 31
0.0
  0
LINE
  5
3279
330
33D5
100
AcDbEntity
  8
DETAIL
100
AcDbLine
 10
-434.4999999999999
 20
-1166.883757344662
 30
0.0
 11
-434.4999999999999
 21
-1161.976199999996
 31
0.0
  0
LINE
  5
327A
330
33D5
100
AcDbEntity
  8
DETAIL
100
AcDbLine
 10
-434.4999999999999
 20
-1161.999999999997
 30
0.0
 11
-434.4999999999999
 21
-1146.999965518883
 31
0.0
  0
LINE
  5
327B
330
33D5
100
AcDbEntity
  8
DETAIL
100
AcDbLine
 10
-434.4999999999999
 20
-1166.883757344662
 30
0.0
 11
-429.4999999999999
 21
-1168.999999999997
 31
0.0
  0
LINE
  5
327C
330
33D5
100
AcDbEntity
  8
DETAIL
100
AcDbLine
 10
429.4999999999994
 20
-1168.999999999997
 30
0.0
 11
-429.4999999999999
 21
-1168.999999999997
 31
0.0
  0
LINE
  5
327D
330
33D5
100
AcDbEntity
  8
DETAIL
100
AcDbLine
 10
429.4999999999994
 20
-1168.999999999997
 30
0.0
 11
434.4999999999995
 21
-1166.883757344662
 31
0.0
  0
LINE
  5
327E
330
33D5
100
AcDbEntity
  8
DETAIL
100
AcDbLine
 10
437.3000000000102
 20
-165.8442706291662
 30
0.0
 11
448.5
 21
-165.8442706291662
 31
0.0
  0
LINE
  5
327F
330
33D5
100
AcDbEntity
  8
DETAIL
100
AcDbLine
 10
448.5000000000109
 20
-180.6106221121645
 30
0.0
 11
448.5000000000109
 21
-165.8442706291662
 31
0.0
  0
LINE
  5
3280
330
33D5
100
AcDbEntity
  8
DETAIL
100
AcDbLine
 10
448.5000000000109
 20
-1146.999965518883
 30
0.0
 11
-448.4999999999891
 21
-1146.999965518886
 31
0.0
  0
LINE
  5
3281
330
33D5
100
AcDbEntity
  8
DETAIL
100
AcDbLine
 10
437.3000000000102
 20
-178.8869189512388
 30
0.0
 11
437.3000000000102
 21
-165.8442706291662
 31
0.0
  0
LINE
  5
3282
330
33D5
100
AcDbEntity
  8
DETAIL
100
AcDbLine
 10
-437.2999999999882
 20
-165.8442706291662
 30
0.0
 11
-448.4999999999891
 21
-165.8442706291662
 31
0.0
  0
LINE
  5
3283
330
33D5
100
AcDbEntity
  8
DETAIL
100
AcDbLine
 10
-448.5
 20
-165.8442706291662
 30
0.0
 11
-448.5
 21
-180.6106221121645
 31
0.0
  0
LINE
  5
3284
330
33D5
100
AcDbEntity
  8
DETAIL
100
AcDbLine
 10
-437.2999999999882
 20
-165.8442706291662
 30
0.0
 11
-437.2999999999882
 21
-178.8869189512388
 31
0.0
  0
LINE
  5
3285
330
33D5
100
AcDbEntity
  8
DETAIL
100
AcDbLine
 10
437.3000000000102
 20
-178.8869189512388
 30
0.0
 11
437.3000000000102
 21
-193.7751297301817
 31
0.0
  0
LINE
  5
3286
330
33D5
100
AcDbEntity
  8
DETAIL
100
AcDbLine
 10
-437.2999999999882
 20
-178.8869189512388
 30
0.0
 11
-437.2999999999882
 21
-193.7751297301817
 31
0.0
  0
LINE
  5
3287
330
33D5
100
AcDbEntity
  8
DETAIL
100
AcDbLine
 10
-437.2999999999882
 20
-178.8869189512388
 30
0.0
 11
437.3000000000102
 21
-178.8869189512388
 31
0.0
  0
LINE
  5
3288
330
33D5
100
AcDbEntity
  8
DETAIL
100
AcDbLine
 10
-437.2999999999882
 20
-165.8442706291662
 30
0.0
 11
-437.2999999999882
 21
-178.8869189512388
 31
0.0
  0
LINE
  5
3289
330
33D5
100
AcDbEntity
  8
DETAIL
100
AcDbLine
 10
437.3000000000102
 20
-165.8442706291662
 30
0.0
 11
437.3000000000102
 21
-178.8869189512388
 31
0.0
  0
LINE
  5
328A
330
33D5
100
AcDbEntity
  8
DETAIL
100
AcDbLine
 10
-437.2999999999882
 20
-165.8442706291662
 30
0.0
 11
437.3000000000102
 21
-165.8442706291662
 31
0.0
  0
LINE
  5
328B
330
33D5
100
AcDbEntity
  8
DETAIL
100
AcDbLine
 10
-437.2999999999882
 20
-193.7751297301817
 30
0.0
 11
-437.2999999999882
 21
-193.8969890261251
 31
0.0
  0
LINE
  5
328C
330
33D5
100
AcDbEntity
  8
DETAIL
100
AcDbLine
 10
-437.2999999999882
 20
-193.8969890261251
 30
0.0
 11
437.3000000000102
 21
-193.8969890261251
 31
0.0
  0
LINE
  5
328D
330
33D5
100
AcDbEntity
  8
DETAIL
100
AcDbLine
 10
437.3000000000102
 20
-193.7751297301817
 30
0.0
 11
437.3000000000102
 21
-193.8969890261251
 31
0.0
  0
LINE
  5
328E
330
33D5
100
AcDbEntity
  8
DETAIL
100
AcDbLine
 10
437.3000000000102
 20
-1146.146950447276
 30
0.0
 11
422.3000000000102
 21
-1146.146950447276
 31
0.0
  0
LINE
  5
328F
330
33D5
100
AcDbEntity
  8
DETAIL
100
AcDbLine
 10
437.3000000000102
 20
-193.8969890261251
 30
0.0
 11
437.3000000000102
 21
-1146.26880974322
 31
0.0
  0
LINE
  5
3290
330
33D5
100
AcDbEntity
  8
DETAIL
100
AcDbLine
 10
448.5
 20
-180.6106221121645
 30
0.0
 11
437.3000000000102
 21
-180.6106221121645
 31
0.0
  0
LINE
  5
3291
330
33D5
100
AcDbEntity
  8
DETAIL
100
AcDbLine
 10
448.5
 20
-180.6106221121645
 30
0.0
 11
448.5000000000109
 21
-1146.999965518883
 31
0.0
  0
LINE
  5
3292
330
33D5
100
AcDbEntity
  8
DETAIL
100
AcDbLine
 10
422.3000000000102
 20
-297.7670728938792
 30
0.0
 11
422.3000000000102
 21
-652.6027631253372
 31
0.0
  0
LINE
  5
3293
330
33D5
100
AcDbEntity
  8
DETAIL
100
AcDbLine
 10
422.3000000000102
 20
-193.8969890261251
 30
0.0
 11
422.3000000000102
 21
-285.3602305780933
 31
0.0
  0
LINE
  5
3294
330
33D5
100
AcDbEntity
  8
DETAIL
100
AcDbLine
 10
422.3000000000102
 20
-1146.146950447276
 30
0.0
 11
422.3000000000102
 21
-1146.26880974322
 31
0.0
  0
LINE
  5
3295
330
33D5
100
AcDbEntity
  8
DETAIL
100
AcDbLine
 10
422.3000000000102
 20
-1032.252137988368
 30
0.0
 11
422.3000000000102
 21
-1146.146950447276
 31
0.0
  0
LINE
  5
3296
330
33D5
100
AcDbEntity
  8
DETAIL
100
AcDbLine
 10
422.3000000000102
 20
-665.0096054411252
 30
0.0
 11
422.3000000000102
 21
-1019.845295672583
 31
0.0
  0
LINE
  5
3297
330
33D5
100
AcDbEntity
  8
DETAIL
100
AcDbLine
 10
422.3000000000102
 20
-1146.26880974322
 30
0.0
 11
437.3000000000102
 21
-1146.26880974322
 31
0.0
  0
LINE
  5
3298
330
33D5
100
AcDbEntity
  8
DETAIL
100
AcDbLine
 10
422.3000000000102
 20
-1145.885558837678
 30
0.0
 11
-422.2999999999883
 21
-1145.885558837678
 31
0.0
  0
LINE
  5
3299
330
33D5
100
AcDbEntity
  8
DETAIL
100
AcDbLine
 10
422.3000000000102
 20
-1145.641840245788
 30
0.0
 11
-422.2999999999883
 21
-1145.641840245788
 31
0.0
  0
LINE
  5
329A
330
33D5
100
AcDbEntity
  8
DETAIL
100
AcDbLine
 10
422.3000000000102
 20
-1032.252137988368
 30
0.0
 11
422.3000000000102
 21
-1019.967154968525
 31
0.0
  0
LINE
  5
329B
330
33D5
100
AcDbEntity
  8
DETAIL
100
AcDbLine
 10
422.3000000000102
 20
-297.7670728938792
 30
0.0
 11
422.3000000000102
 21
-285.482089874038
 31
0.0
  0
LINE
  5
329C
330
33D5
100
AcDbEntity
  8
DETAIL
100
AcDbLine
 10
-422.2999999999883
 20
-285.482089874038
 30
0.0
 11
-422.2999999999883
 21
-297.7670728938792
 31
0.0
  0
LINE
  5
329D
330
33D5
100
AcDbEntity
  8
DETAIL
100
AcDbLine
 10
-422.2999999999883
 20
-1019.967154968525
 30
0.0
 11
-422.2999999999883
 21
-1032.252137988368
 31
0.0
  0
LINE
  5
329E
330
33D5
100
AcDbEntity
  8
DETAIL
100
AcDbLine
 10
-422.2999999999883
 20
-653.6361013710074
 30
0.0
 11
-422.2999999999883
 21
-665.0096054411252
 31
0.0
  0
LINE
  5
329F
330
33D5
100
AcDbEntity
  8
DETAIL
100
AcDbLine
 10
422.3000000000102
 20
-665.0096054411252
 30
0.0
 11
422.3000000000102
 21
-653.6361013710074
 31
0.0
  0
LINE
  5
32A0
330
33D5
100
AcDbEntity
  8
DETAIL
100
AcDbLine
 10
-437.2999999999882
 20
-1146.146950447276
 30
0.0
 11
-422.2999999999883
 21
-1146.146950447276
 31
0.0
  0
LINE
  5
32A1
330
33D5
100
AcDbEntity
  8
DETAIL
100
AcDbLine
 10
-437.2999999999882
 20
-1146.146950447276
 30
0.0
 11
-437.2999999999882
 21
-193.8969890261251
 31
0.0
  0
LINE
  5
32A2
330
33D5
100
AcDbEntity
  8
DETAIL
100
AcDbLine
 10
-448.4999999999891
 20
-180.6106221121645
 30
0.0
 11
-437.2999999999882
 21
-180.6106221121645
 31
0.0
  0
LINE
  5
32A3
330
33D5
100
AcDbEntity
  8
DETAIL
100
AcDbLine
 10
-448.4999999999891
 20
-1146.999965518886
 30
0.0
 11
-448.4999999999891
 21
-180.6106221121645
 31
0.0
  0
LINE
  5
32A4
330
33D5
100
AcDbEntity
  8
DETAIL
100
AcDbLine
 10
-422.2999999999883
 20
-1019.845295672583
 30
0.0
 11
-422.2999999999883
 21
-665.0096054411252
 31
0.0
  0
LINE
  5
32A5
330
33D5
100
AcDbEntity
  8
DETAIL
100
AcDbLine
 10
-422.2999999999883
 20
-1146.146950447276
 30
0.0
 11
-422.2999999999883
 21
-1032.252137988368
 31
0.0
  0
LINE
  5
32A6
330
33D5
100
AcDbEntity
  8
DETAIL
100
AcDbLine
 10
-422.2999999999883
 20
-285.3602305780933
 30
0.0
 11
-422.2999999999883
 21
-193.8969890261251
 31
0.0
  0
LINE
  5
32A7
330
33D5
100
AcDbEntity
  8
DETAIL
100
AcDbLine
 10
-422.2999999999883
 20
-652.6027631253372
 30
0.0
 11
-422.2999999999883
 21
-297.7670728938792
 31
0.0
  0
LINE
  5
32A8
330
33D5
100
AcDbEntity
  8
DETAIL
100
AcDbLine
 10
-422.2999999999883
 20
-1132.584304071662
 30
0.0
 11
422.3000000000102
 21
-1132.584304071662
 31
0.0
  0
CIRCLE
  5
32A9
330
33D5
100
AcDbEntity
  8
ARRANGE
100
AcDbCircle
 10
0.0
 20
0.0000000000027285
 30
0.0
 40
40.0
  0
LINE
  5
32AA
330
33D5
100
AcDbEntity
  8
ARRANGE
100
AcDbLine
 10
-19.19638649990156
 20
19.19638649990611
 30
0.0
 11
19.19638649989792
 21
-19.19638649990247
 31
0.0
  0
LINE
  5
32AB
330
33D5
100
AcDbEntity
  8
ARRANGE
100
AcDbLine
 10
19.19638649989792
 20
19.19638649990611
 30
0.0
 11
-19.19638649990156
 21
-19.19638649990065
 31
0.0
  0
LINE
  5
32AC
330
33D5
100
AcDbEntity
  8
BASIC
100
AcDbLine
 10
0.0
 20
-1.476199999997334
 30
0.0
 11
0.0
 21
-1.476199999997334
 31
0.0
  0
LINE
  5
32AD
330
33D5
100
AcDbEntity
  8
BASIC
100
AcDbLine
 10
0.0
 20
25.00000000000455
 30
0.0
 11
0.0
 21
-1193.999999999997
 31
0.0
  0
LINE
  5
32AE
330
33D5
100
AcDbEntity
  8
NOTE
100
AcDbLine
 10
450.0
 20
-12.49999999999727
 30
0.0
 11
450.0
 21
12.50000000000273
 31
0.0
  0
LINE
  5
32AF
330
33D5
100
AcDbEntity
  8
NOTE
100
AcDbLine
 10
-450.0
 20
-12.49999999999727
 30
0.0
 11
-450.0
 21
12.50000000000273
 31
0.0
  0
LINE
  5
32B0
330
33D5
100
AcDbEntity
  8
DETAIL
100
AcDbLine
 39
50.0
 10
-434.4999999999999
 20
-1146.999965518886
 30
0.0
 11
-434.4999999999999
 21
-1147.999965518886
 31
0.0
  0
INSERT
  5
32B1
330
33D5
100
AcDbEntity
  8
0
100
AcDbBlockReference
  2
*U31
 10
0.0
 20
0.0000000000045475
 30
0.0
1001
ACAD
1000
DSTYLE
1002
{
1070
    41
1040
12.0
1070
    42
1040
20.0
1070
    43
1040
200.0
1070
    44
1040
20.0
1070
    73
1070
     0
1070
    74
1070
     0
1070
    77
1070
     1
1070
    78
1070
     8
1070
   140
1040
64.0
1070
   147
1040
50.0
1070
   172
1070
     1
1070
   174
1070
     1
1070
   275
1070
     0
1070
   284
1070
     0
1070
   285
1070
     0
1070
   286
1070
     0
1070
   341
1005
0
1070
   342
1005
0
1002
}
  0
LINE
  5
32B2
330
33D5
100
AcDbEntity
  8
NOTE
100
AcDbLine
 39
50.0
 10
-462.5
 20
0.0000000000027285
 30
0.0
 11
-437.5
 21
0.0000000000027285
 31
0.0
  0
LINE
  5
32B3
330
33D5
100
AcDbEntity
  8
NOTE
100
AcDbLine
 39
50.0
 10
437.5
 20
0.0000000000027285
 30
0.0
 11
462.5
 21
0.0000000000027285
 31
0.0
  0
LINE
  5
32B4
330
33D5
100
AcDbEntity
  8
OUTLINE
100
AcDbLine
 10
-435.0
 20
0.0000000000027285
 30
0.0
 11
-475.0
 21
0.0000000000027285
 31
0.0
  0
LINE
  5
32B5
330
33D5
100
AcDbEntity
  8
OUTLINE
100
AcDbLine
 10
475.0
 20
0.0000000000027285
 30
0.0
 11
435.0
 21
0.0000000000027285
 31
0.0
  0
LINE
  5
32B6
330
33D5
100
AcDbEntity
  8
OUTLINE
100
AcDbLine
 10
435.0
 20
0.0000000000027285
 30
0.0
 11
-435.0
 21
0.0000000000027285
 31
0.0
  0
LINE
  5
32B7
330
33D5
100
AcDbEntity
  8
OUTLINE
100
AcDbLine
 10
475.0
 20
-0.3999999999969077
 30
0.0
 11
475.0
 21
-7.99999999999727
 31
0.0
  0
LINE
  5
32B8
330
33D5
100
AcDbEntity
  8
OUTLINE
100
AcDbLine
 10
475.0
 20
-1.476199999997334
 30
0.0
 11
475.0
 21
-1.87619999999697
 31
0.0
  0
LINE
  5
32B9
330
33D5
100
AcDbEntity
  8
OUTLINE
100
AcDbLine
 10
436.0
 20
-139.061986437624
 30
0.0
 11
-436.0
 21
-139.061986437624
 31
0.0
  0
LINE
  5
32BA
330
33D5
100
AcDbEntity
  8
OUTLINE
100
AcDbLine
 10
437.0
 20
-139.061986437624
 30
0.0
 11
437.0
 21
-165.8442706291662
 31
0.0
  0
LINE
  5
32BB
330
33D5
100
AcDbEntity
  8
OUTLINE
100
AcDbLine
 10
-437.0
 20
-165.8442706291662
 30
0.0
 11
-437.0
 21
-139.061986437624
 31
0.0
  0
LINE
  5
32BC
330
33D5
100
AcDbEntity
  8
OUTLINE
100
AcDbLine
 10
-436.0
 20
-139.061986437624
 30
0.0
 11
-437.0
 21
-139.061986437624
 31
0.0
  0
LINE
  5
32BD
330
33D5
100
AcDbEntity
  8
OUTLINE
100
AcDbLine
 10
436.0
 20
-139.061986437624
 30
0.0
 11
437.0
 21
-139.061986437624
 31
0.0
  0
LINE
  5
32BE
330
33D5
100
AcDbEntity
  8
OUTLINE
100
AcDbLine
 10
475.0
 20
-7.99999999999727
 30
0.0
 11
-475.0
 21
-7.99999999999727
 31
0.0
  0
LINE
  5
32BF
330
33D5
100
AcDbEntity
  8
OUTLINE
100
AcDbLine
 10
434.4999999999995
 20
-1161.999999999997
 30
0.0
 11
-434.4999999999999
 21
-1161.999999999997
 31
0.0
  0
LINE
  5
32C0
330
33D5
100
AcDbEntity
  8
OUTLINE
100
AcDbLine
 10
-434.4999999999999
 20
-1166.883757344662
 30
0.0
 11
-429.4999999999999
 21
-1168.999999999997
 31
0.0
  0
LINE
  5
32C1
330
33D5
100
AcDbEntity
  8
OUTLINE
100
AcDbLine
 10
429.4999999999994
 20
-1168.999999999997
 30
0.0
 11
-429.4999999999999
 21
-1168.999999999997
 31
0.0
  0
LINE
  5
32C2
330
33D5
100
AcDbEntity
  8
OUTLINE
100
AcDbLine
 10
429.4999999999994
 20
-1168.999999999997
 30
0.0
 11
434.4999999999995
 21
-1166.883757344662
 31
0.0
  0
LINE
  5
32C3
330
33D5
100
AcDbEntity
  8
OUTLINE
100
AcDbLine
 10
437.3000000000102
 20
-165.8442706291662
 30
0.0
 11
448.5
 21
-165.8442706291662
 31
0.0
  0
LINE
  5
32C4
330
33D5
100
AcDbEntity
  8
OUTLINE
100
AcDbLine
 10
448.5000000000109
 20
-180.6106221121645
 30
0.0
 11
448.5000000000109
 21
-165.8442706291662
 31
0.0
  0
LINE
  5
32C5
330
33D5
100
AcDbEntity
  8
OUTLINE
100
AcDbLine
 10
448.5000000000109
 20
-1146.999965518883
 30
0.0
 11
-448.4999999999891
 21
-1146.999965518886
 31
0.0
  0
LINE
  5
32C6
330
33D5
100
AcDbEntity
  8
OUTLINE
100
AcDbLine
 10
437.3000000000102
 20
-178.8869189512388
 30
0.0
 11
437.3000000000102
 21
-165.8442706291662
 31
0.0
  0
LINE
  5
32C7
330
33D5
100
AcDbEntity
  8
OUTLINE
100
AcDbLine
 10
-437.2999999999882
 20
-165.8442706291662
 30
0.0
 11
-448.4999999999891
 21
-165.8442706291662
 31
0.0
  0
LINE
  5
32C8
330
33D5
100
AcDbEntity
  8
OUTLINE
100
AcDbLine
 10
-448.5
 20
-165.8442706291662
 30
0.0
 11
-448.5
 21
-180.6106221121645
 31
0.0
  0
LINE
  5
32C9
330
33D5
100
AcDbEntity
  8
OUTLINE
100
AcDbLine
 10
-437.2999999999882
 20
-165.8442706291662
 30
0.0
 11
-437.2999999999882
 21
-178.8869189512388
 31
0.0
  0
LINE
  5
32CA
330
33D5
100
AcDbEntity
  8
OUTLINE
100
AcDbLine
 10
437.3000000000102
 20
-178.8869189512388
 30
0.0
 11
437.3000000000102
 21
-193.7751297301817
 31
0.0
  0
LINE
  5
32CB
330
33D5
100
AcDbEntity
  8
OUTLINE
100
AcDbLine
 10
-437.2999999999882
 20
-178.8869189512388
 30
0.0
 11
-437.2999999999882
 21
-193.7751297301817
 31
0.0
  0
LINE
  5
32CC
330
33D5
100
AcDbEntity
  8
OUTLINE
100
AcDbLine
 10
-437.2999999999882
 20
-178.8869189512388
 30
0.0
 11
437.3000000000102
 21
-178.8869189512388
 31
0.0
  0
LINE
  5
32CD
330
33D5
100
AcDbEntity
  8
OUTLINE
100
AcDbLine
 10
-437.2999999999882
 20
-165.8442706291662
 30
0.0
 11
-437.2999999999882
 21
-178.8869189512388
 31
0.0
  0
LINE
  5
32CE
330
33D5
100
AcDbEntity
  8
OUTLINE
100
AcDbLine
 10
437.3000000000102
 20
-165.8442706291662
 30
0.0
 11
437.3000000000102
 21
-178.8869189512388
 31
0.0
  0
LINE
  5
32CF
330
33D5
100
AcDbEntity
  8
OUTLINE
100
AcDbLine
 10
-437.2999999999882
 20
-165.8442706291662
 30
0.0
 11
437.3000000000102
 21
-165.8442706291662
 31
0.0
  0
LINE
  5
32D0
330
33D5
100
AcDbEntity
  8
OUTLINE
100
AcDbLine
 10
437.3000000000102
 20
-193.7751297301817
 30
0.0
 11
437.3000000000102
 21
-193.8969890261251
 31
0.0
  0
LINE
  5
32D1
330
33D5
100
AcDbEntity
  8
OUTLINE
100
AcDbLine
 10
437.3000000000102
 20
-1146.146950447276
 30
0.0
 11
422.3000000000102
 21
-1146.146950447276
 31
0.0
  0
LINE
  5
32D2
330
33D5
100
AcDbEntity
  8
OUTLINE
100
AcDbLine
 10
437.3000000000102
 20
-193.8969890261251
 30
0.0
 11
437.3000000000102
 21
-1146.26880974322
 31
0.0
  0
LINE
  5
32D3
330
33D5
100
AcDbEntity
  8
OUTLINE
100
AcDbLine
 10
448.5
 20
-180.6106221121645
 30
0.0
 11
437.3000000000102
 21
-180.6106221121645
 31
0.0
  0
LINE
  5
32D4
330
33D5
100
AcDbEntity
  8
OUTLINE
100
AcDbLine
 10
448.5
 20
-180.6106221121645
 30
0.0
 11
448.5000000000109
 21
-1146.999965518883
 31
0.0
  0
LINE
  5
32D5
330
33D5
100
AcDbEntity
  8
OUTLINE
100
AcDbLine
 10
422.3000000000102
 20
-1146.146950447276
 30
0.0
 11
422.3000000000102
 21
-1146.26880974322
 31
0.0
  0
LINE
  5
32D6
330
33D5
100
AcDbEntity
  8
OUTLINE
100
AcDbLine
 10
422.3000000000102
 20
-1146.26880974322
 30
0.0
 11
437.3000000000102
 21
-1146.26880974322
 31
0.0
  0
LINE
  5
32D7
330
33D5
100
AcDbEntity
  8
OUTLINE
100
AcDbLine
 10
422.3000000000102
 20
-1145.885558837678
 30
0.0
 11
-422.2999999999883
 21
-1145.885558837678
 31
0.0
  0
LINE
  5
32D8
330
33D5
100
AcDbEntity
  8
OUTLINE
100
AcDbLine
 10
422.3000000000102
 20
-1145.641840245788
 30
0.0
 11
-422.2999999999883
 21
-1145.641840245788
 31
0.0
  0
LINE
  5
32D9
330
33D5
100
AcDbEntity
  8
OUTLINE
100
AcDbLine
 10
-437.2999999999882
 20
-1146.146950447276
 30
0.0
 11
-422.2999999999883
 21
-1146.146950447276
 31
0.0
  0
LINE
  5
32DA
330
33D5
100
AcDbEntity
  8
OUTLINE
100
AcDbLine
 10
-437.2999999999882
 20
-1146.146950447276
 30
0.0
 11
-437.2999999999882
 21
-193.8969890261251
 31
0.0
  0
LINE
  5
32DB
330
33D5
100
AcDbEntity
  8
OUTLINE
100
AcDbLine
 10
-448.4999999999891
 20
-180.6106221121645
 30
0.0
 11
-437.2999999999882
 21
-180.6106221121645
 31
0.0
  0
LINE
  5
32DC
330
33D5
100
AcDbEntity
  8
OUTLINE
100
AcDbLine
 10
-448.4999999999891
 20
-1146.999965518886
 30
0.0
 11
-448.4999999999891
 21
-180.6106221121645
 31
0.0
  0
LINE
  5
32DD
330
33D5
100
AcDbEntity
  8
OUTLINE
100
AcDbLine
 39
50.0
 10
-434.4999999999999
 20
-1146.999965518886
 30
0.0
 11
-434.4999999999999
 21
-1147.999965518886
 31
0.0
  0
LINE
  5
32DE
330
33D5
100
AcDbEntity
  8
DETAIL
100
AcDbLine
 39
50.0
 10
-475.0
 20
-0.3999999999969077
 30
0.0
 11
-475.0
 21
0.0000000000027285
 31
0.0
  0
LINE
  5
32DF
330
33D5
100
AcDbEntity
  8
OUTLINE
100
AcDbLine
 10
-475.0
 20
-0.3999999999969077
 30
0.0
 11
-475.0
 21
-7.99999999999727
 31
0.0
  0
LINE
  5
32E0
330
33D5
100
AcDbEntity
  8
OUTLINE
100
AcDbLine
 39
50.0
 10
-475.0
 20
-0.3999999999969077
 30
0.0
 11
-475.0
 21
0.0000000000027285
 31
0.0
  0
LINE
  5
32E1
330
33D5
100
AcDbEntity
  8
OUTLINE
100
AcDbLine
 10
-437.0
 20
-139.061986437624
 30
0.0
 11
-437.0000000000109
 21
-7.99999999999727
 31
0.0
  0
LINE
  5
32E2
330
33D5
100
AcDbEntity
  8
OUTLINE
100
AcDbLine
 10
437.0
 20
-7.99999999999727
 30
0.0
 11
437.0
 21
-139.061986437624
 31
0.0
  0
LINE
  5
32E3
330
33D5
100
AcDbEntity
  8
OUTLINE
100
AcDbLine
 10
-434.4999999999999
 20
-1161.999999999997
 30
0.0
 11
-434.4999999999999
 21
-1146.999965518883
 31
0.0
  0
LINE
  5
32E4
330
33D5
100
AcDbEntity
  8
OUTLINE
100
AcDbLine
 10
-434.4999999999999
 20
-1166.883757344662
 30
0.0
 11
-434.4999999999999
 21
-1161.976199999996
 31
0.0
  0
LINE
  5
32E5
330
33D5
100
AcDbEntity
  8
OUTLINE
100
AcDbLine
 10
434.4999999999995
 20
-1161.999999999997
 30
0.0
 11
434.4999999999995
 21
-1146.999965518883
 31
0.0
  0
LINE
  5
32E6
330
33D5
100
AcDbEntity
  8
OUTLINE
100
AcDbLine
 10
434.4999999999995
 20
-1166.883757344662
 30
0.0
 11
434.4999999999995
 21
-1161.999999999997
 31
0.0
  0
INSERT
  5
32E7
330
33D5
100
AcDbEntity
  8
DETAIL___1
  6
Continuous
100
AcDbBlockReference
  2
*X32
 10
0.0
 20
0.0000000000045475
 30
0.0
1001
ACADANNOTATIVE
1000
AnnotativeData
1002
{
1070
     1
1070
     0
1002
}
1001
ACAD
1000
HATCH
1002
{
1070
    19
1000
LINE
1040
72.22849999999998
1040
5.838766301980095
1000
R14_HATCH_DATA
1000
30C2
1011
1.0
1021
0.0000000000045475
1031
0.0
1011
0.0
1021
1.000000000004547
1031
0.0
1011
0.0
1021
0.0000000000045475
1031
1.0
1040
0.0
1010
0.0
1020
0.0
1030
1.0
1000
LINE
1070
     0
1070
     0
1071
        2
1071
        7
1070
     0
1070
     1
1071
        6
1040
206.5000000000109
1040
-193.8969890261296
1040
-422.2999999999883
1040
-193.8969890261296
1040
-422.2999999999883
1040
-1132.584304071666
1040
422.3000000000102
1040
-1132.584304071668
1040
422.3000000000136
1040
-387.6969890261297
1040
206.5000000000109
1040
-387.6969890261289
1071
        0
1071
        7
1070
     0
1070
     1
1071
        4
1040
422.3000000000102
1040
-387.6969890261309
1040
422.3000000000136
1040
-193.8969890261305
1040
206.5000000000109
1040
-193.8969890261287
1040
206.5000000000146
1040
-387.6969890261297
1071
        0
1070
     0
1070
     1
1040
5.838766301980095
1040
72.22849999999998
1070
     0
1070
     1
1040
5.838766301980095
1040
20359.54547779152
1040
7767.512661460576
1040
3.881680532789153
1040
8.151533417570705
1070
     0
1040
3.271177933407547
1071
        2
1040
-109.4656780554032
1040
-378.493678045822
1040
0.0
1040
320.6751664771072
1040
-310.5983076285338
1040
0.0
1002
}
  0
INSERT
  5
32E8
330
33D5
100
AcDbEntity
  8
DETAIL___1
  6
Continuous
100
AcDbBlockReference
  2
*X33
 10
0.0
 20
0.0000000000045475
 30
0.0
1001
ACADANNOTATIVE
1000
AnnotativeData
1002
{
1070
     1
1070
     0
1002
}
1001
ACAD
1000
HATCH
1002
{
1070
    19
1000
LINE
1040
72.22849999999998
1040
0.4444190051994897
1000
R14_HATCH_DATA
1000
30C8
1011
1.0
1021
0.0000000000045475
1031
0.0
1011
0.0
1021
1.000000000004547
1031
0.0
1011
0.0
1021
0.0000000000045475
1031
1.0
1040
0.0
1010
0.0
1020
0.0
1030
1.0
1000
LINE
1070
     0
1070
     0
1071
        2
1071
        7
1070
     0
1070
     1
1071
        6
1040
422.3000000000102
1040
-387.6969890261289
1040
206.5000000000146
1040
-387.6969890261297
1040
206.5000000000073
1040
-193.8969890261305
1040
-422.2999999999847
1040
-193.8969890261278
1040
-422.2999999999847
1040
-1132.584304071668
1040
422.3000000000064
1040
-1132.58430407167
1071
        0
1071
       23
1070
     0
1070
     1
1071
        4
1040
422.3000000000102
1040
-193.8969890261296
1040
206.5000000000146
1040
-193.8969890261305
1040
206.5000000000109
1040
-387.6969890261297
1040
422.3000000000102
1040
-387.6969890261297
1071
        0
1070
     0
1070
     1
1040
0.4444190051994897
1040
72.22849999999998
1070
     0
1070
     1
1040
0.4444190051994897
1040
20359.54547779152
1040
7767.512661460576
1040
-3.881680532789157
1040
8.151533417570702
1070
     0
1040
2.109192895220791
1071
        2
1040
-171.4247852559893
1040
-394.4240312067623
1040
0.0
1040
345.6675573120808
1040
-310.2208185983473
1040
0.0
1002
}
  0
LINE
  5
32E9
330
33D5
100
AcDbEntity
  8
DETAIL
100
AcDbLine
 39
50.0
 10
-422.2999999999883
 20
-285.3602305780933
 30
0.0
 11
-422.2999999999883
 21
-285.482089874038
 31
0.0
  0
LINE
  5
32EA
330
33D5
100
AcDbEntity
  8
DETAIL
100
AcDbLine
 39
50.0
 10
-422.2999999999883
 20
-652.6027631253372
 30
0.0
 11
-422.2999999999883
 21
-653.6361013710074
 31
0.0
  0
LINE
  5
32EB
330
33D5
100
AcDbEntity
  8
DETAIL
100
AcDbLine
 39
50.0
 10
-422.2999999999883
 20
-1019.845295672583
 30
0.0
 11
-422.2999999999883
 21
-1019.967154968525
 31
0.0
  0
LINE
  5
32EC
330
33D5
100
AcDbEntity
  8
DETAIL
100
AcDbLine
 39
50.0
 10
422.3000000000102
 20
-1019.845295672583
 30
0.0
 11
422.3000000000102
 21
-1019.967154968525
 31
0.0
  0
LINE
  5
32ED
330
33D5
100
AcDbEntity
  8
DETAIL
100
AcDbLine
 39
50.0
 10
422.3000000000102
 20
-652.6027631253372
 30
0.0
 11
422.3000000000102
 21
-653.6361013710074
 31
0.0
  0
LINE
  5
32EE
330
33D5
100
AcDbEntity
  8
DETAIL
100
AcDbLine
 39
50.0
 10
422.3000000000102
 20
-285.3602305780933
 30
0.0
 11
422.3000000000102
 21
-285.482089874038
 31
0.0
  0
LINE
  5
32EF
330
33D5
100
AcDbEntity
  8
DETAIL
100
AcDbLine
 39
50.0
 10
-422.2999999999883
 20
-193.8969890261251
 30
0.0
 11
-422.2999999999883
 21
-1132.584304071662
 31
0.0
  0
LINE
  5
32F0
330
33D5
100
AcDbEntity
  8
DETAIL
100
AcDbLine
 39
50.0
 10
-422.2999999999883
 20
-1132.584304071662
 30
0.0
 11
422.3000000000102
 21
-1132.584304071662
 31
0.0
  0
LINE
  5
32F1
330
33D5
100
AcDbEntity
  8
DETAIL
100
AcDbLine
 39
50.0
 10
422.3000000000102
 20
-1132.584304071662
 30
0.0
 11
422.3000000000102
 21
-193.8969890261251
 31
0.0
  0
LINE
  5
32F2
330
33D5
100
AcDbEntity
  8
DETAIL
100
AcDbLine
 39
50.0
 10
422.3000000000102
 20
-193.8969890261251
 30
0.0
 11
-422.2999999999883
 21
-193.8969890261251
 31
0.0
  0
LINE
  5
32F3
330
33D5
100
AcDbEntity
  8
OUTLINE
100
AcDbLine
 39
50.0
 10
-437.2999999999882
 20
-193.8969890261251
 30
0.0
 11
437.3000000000102
 21
-193.8969890261251
 31
0.0
  0
LINE
  5
32F4
330
33D5
100
AcDbEntity
  8
OUTLINE
100
AcDbLine
 39
50.0
 10
-422.2999999999883
 20
-193.8969890261251
 30
0.0
 11
-422.2999999999883
 21
-1146.146950447276
 31
0.0
  0
LINE
  5
32F5
330
33D5
100
AcDbEntity
  8
OUTLINE
100
AcDbLine
 39
50.0
 10
-422.2999999999883
 20
-1132.584304071662
 30
0.0
 11
422.3000000000102
 21
-1132.584304071662
 31
0.0
  0
LINE
  5
32F6
330
33D5
100
AcDbEntity
  8
OUTLINE
100
AcDbLine
 39
50.0
 10
422.3000000000102
 20
-1146.146950447276
 30
0.0
 11
422.3000000000102
 21
-193.8969890261251
 31
0.0
  0
LINE
  5
32F7
330
33D5
100
AcDbEntity
  8
OUTLINE
100
AcDbLine
 10
-437.2999999999882
 20
-193.7751297301817
 30
0.0
 11
-437.2999999999882
 21
-193.8969890261251
 31
0.0
  0
LINE
  5
32F8
330
33D5
100
AcDbEntity
  8
SIZE
100
AcDbLine
 10
495.0
 20
0.0000000000027285
 30
0.0
 11
597.6322695937453
 21
0.0000000000027285
 31
0.0
  0
LINE
  5
32F9
330
33D5
100
AcDbEntity
  8
SIZE
100
AcDbLine
 10
495.0
 20
-7.99999999999727
 30
0.0
 11
597.6322695937453
 21
-7.99999999999727
 31
0.0
  0
LINE
  5
32FA
330
33D5
100
AcDbEntity
  8
SIZE
100
AcDbLine
 10
577.6322695937452
 20
12.00000000000273
 30
0.0
 11
577.6322695937452
 21
24.00000000000273
 31
0.0
  0
LINE
  5
32FB
330
33D5
100
AcDbEntity
  8
SIZE
100
AcDbLine
 10
577.6322695937452
 20
-19.99999999999727
 30
0.0
 11
577.6322695937452
 21
-90.39999999999736
 31
0.0
  0
LINE
  5
32FC
330
33D5
100
AcDbEntity
  8
SIZE
100
AcDbLine
 10
577.6322695937452
 20
0.0000000000027285
 30
0.0
 11
577.6322695937452
 21
-7.99999999999727
 31
0.0
  0
INSERT
  5
32FD
330
33D5
100
AcDbEntity
  8
SIZE
100
AcDbBlockReference
  2
_DOTBLANK
 10
577.6322695937452
 20
0.0000000000027285
 30
0.0
 41
12.0
 42
12.0
 43
12.0
 50
270.0
  0
INSERT
  5
32FE
330
33D5
100
AcDbEntity
  8
SIZE
100
AcDbBlockReference
  2
_DOTBLANK
 10
577.6322695937452
 20
-7.99999999999727
 30
0.0
 41
12.0
 42
12.0
 43
12.0
 50
90.0
  0
LINE
  5
32FF
330
33D5
100
AcDbEntity
  8
SIZE
100
AcDbLine
 10
-475.0
 20
20.00000000000273
 30
0.0
 11
-475.0
 21
346.9763056766923
 31
0.0
  0
LINE
  5
3300
330
33D5
100
AcDbEntity
  8
SIZE
100
AcDbLine
 10
475.0
 20
19.60000000000308
 30
0.0
 11
475.0
 21
346.9763056766923
 31
0.0
  0
LINE
  5
3301
330
33D5
100
AcDbEntity
  8
SIZE
100
AcDbLine
 10
-463.0
 20
326.9763056766922
 30
0.0
 11
463.0
 21
326.9763056766922
 31
0.0
  0
INSERT
  5
3302
330
33D5
100
AcDbEntity
  8
SIZE
100
AcDbBlockReference
  2
_DOTBLANK
 10
-475.0
 20
326.9763056766922
 30
0.0
 41
12.0
 42
12.0
 43
12.0
 50
180.0
  0
INSERT
  5
3303
330
33D5
100
AcDbEntity
  8
SIZE
100
AcDbBlockReference
  2
_DOTBLANK
 10
475.0
 20
326.9763056766922
 30
0.0
 41
12.0
 42
12.0
 43
12.0
  0
LINE
  5
3304
330
33D5
100
AcDbEntity
  8
SIZE
100
AcDbLine
 10
-450.0
 20
32.50000000000274
 30
0.0
 11
-450.0
 21
226.7018665200603
 31
0.0
  0
LINE
  5
3305
330
33D5
100
AcDbEntity
  8
SIZE
100
AcDbLine
 10
450.0
 20
32.50000000000274
 30
0.0
 11
450.0
 21
226.7018665200603
 31
0.0
  0
LINE
  5
3306
330
33D5
100
AcDbEntity
  8
SIZE
100
AcDbLine
 10
-438.0
 20
206.7018665200603
 30
0.0
 11
438.0
 21
206.7018665200603
 31
0.0
  0
INSERT
  5
3307
330
33D5
100
AcDbEntity
  8
SIZE
100
AcDbBlockReference
  2
_DOTBLANK
 10
-450.0
 20
206.7018665200603
 30
0.0
 41
12.0
 42
12.0
 43
12.0
 50
180.0
  0
INSERT
  5
3308
330
33D5
100
AcDbEntity
  8
SIZE
100
AcDbBlockReference
  2
_DOTBLANK
 10
450.0
 20
206.7018665200603
 30
0.0
 41
12.0
 42
12.0
 43
12.0
  0
LINE
  5
3309
330
33D5
100
AcDbEntity
  8
SIZE
100
AcDbLine
 10
-468.4999999999891
 20
-1146.999965518886
 30
0.0
 11
-854.2032129615144
 21
-1146.999965518886
 31
0.0
  0
LINE
  5
330A
330
33D5
100
AcDbEntity
  8
SIZE
100
AcDbLine
 10
-449.5
 20
-1168.999999999997
 30
0.0
 11
-854.2032129615144
 21
-1168.999999999996
 31
0.0
  0
LINE
  5
330B
330
33D5
100
AcDbEntity
  8
SIZE
100
AcDbLine
 10
-834.2032129615144
 20
-1134.999965518886
 30
0.0
 11
-834.2032129615144
 21
-1122.999965518886
 31
0.0
  0
LINE
  5
330C
330
33D5
100
AcDbEntity
  8
SIZE
100
AcDbLine
 10
-834.2032129615144
 20
-1180.999999999996
 30
0.0
 11
-834.2032129615144
 21
-1306.257142857139
 31
0.0
  0
LINE
  5
330D
330
33D5
100
AcDbEntity
  8
SIZE
100
AcDbLine
 10
-834.2032129615144
 20
-1146.999965518886
 30
0.0
 11
-834.2032129615144
 21
-1168.999999999996
 31
0.0
  0
INSERT
  5
330E
330
33D5
100
AcDbEntity
  8
SIZE
100
AcDbBlockReference
  2
_DOTBLANK
 10
-834.2032129615144
 20
-1146.999965518886
 30
0.0
 41
12.0
 42
12.0
 43
12.0
 50
270.0
  0
INSERT
  5
330F
330
33D5
100
AcDbEntity
  8
SIZE
100
AcDbBlockReference
  2
_DOTBLANK
 10
-834.2032129615144
 20
-1168.999999999996
 30
0.0
 41
12.0
 42
12.0
 43
12.0
 50
90.0
  0
LINE
  5
3310
330
33D5
100
AcDbEntity
  8
SIZE
100
AcDbLine
 10
-495.0
 20
0.0000000000027285
 30
0.0
 11
-854.2032129615106
 21
0.0000000000027285
 31
0.0
  0
LINE
  5
3311
330
33D5
100
AcDbEntity
  8
SIZE
100
AcDbLine
 10
-468.4999999999891
 20
-1146.999965518886
 30
0.0
 11
-854.2032129615106
 21
-1146.999965518886
 31
0.0
  0
LINE
  5
3312
330
33D5
100
AcDbEntity
  8
SIZE
100
AcDbLine
 10
-834.2032129615107
 20
-11.99999999999727
 30
0.0
 11
-834.2032129615112
 21
-1134.999965518886
 31
0.0
  0
INSERT
  5
3313
330
33D5
100
AcDbEntity
  8
SIZE
100
AcDbBlockReference
  2
_DOTBLANK
 10
-834.2032129615107
 20
0.0000000000027285
 30
0.0
 41
12.0
 42
12.0
 43
12.0
 50
90.0
  0
INSERT
  5
3314
330
33D5
100
AcDbEntity
  8
SIZE
100
AcDbBlockReference
  2
_DOTBLANK
 10
-834.2032129615112
 20
-1146.999965518886
 30
0.0
 41
12.0
 42
12.0
 43
12.0
 50
270.0
  0
LINE
  5
3315
330
33D5
100
AcDbEntity
  8
SIZE
100
AcDbLine
 10
-448.4999999999891
 20
-1166.999965518886
 30
0.0
 11
-448.4999999999891
 21
-1370.759950238715
 31
0.0
  0
LINE
  5
3316
330
33D5
100
AcDbEntity
  8
SIZE
100
AcDbLine
 10
448.5000000000109
 20
-1166.999965518882
 30
0.0
 11
448.5000000000109
 21
-1370.759950238715
 31
0.0
  0
LINE
  5
3317
330
33D5
100
AcDbEntity
  8
SIZE
100
AcDbLine
 10
-436.4999999999889
 20
-1350.759950238715
 30
0.0
 11
436.5000000000109
 21
-1350.759950238715
 31
0.0
  0
INSERT
  5
3318
330
33D5
100
AcDbEntity
  8
SIZE
100
AcDbBlockReference
  2
_DOTBLANK
 10
-448.4999999999891
 20
-1350.759950238715
 30
0.0
 41
12.0
 42
12.0
 43
12.0
 50
180.0
  0
INSERT
  5
3319
330
33D5
100
AcDbEntity
  8
SIZE
100
AcDbBlockReference
  2
_DOTBLANK
 10
448.5000000000109
 20
-1350.759950238715
 30
0.0
 41
12.0
 42
12.0
 43
12.0
  0
TEXT
  5
331A
330
33D5
100
AcDbEntity
  8
SIZE
100
AcDbText
 10
-74.02565180574403
 20
-1340.759950238715
 30
0.0
 40
64.0
  1
897
 41
0.9
100
AcDbText
  0
TEXT
  5
331B
330
33D5
100
AcDbEntity
  8
SIZE
100
AcDbText
 10
-844.2032129615144
 20
-1296.257142857139
 30
0.0
 40
64.0
  1
22
 50
90.0
 41
0.9
100
AcDbText
  0
TEXT
  5
331C
330
33D5
100
AcDbEntity
  8
SIZE
100
AcDbText
 10
-844.2032129615107
 20
-665.2523684737273
 30
0.0
 40
64.0
  1
1147
 50
90.0
 41
0.9
100
AcDbText
  0
TEXT
  5
331D
330
33D5
100
AcDbEntity
  8
SIZE
100
AcDbText
 10
-74.02565180574403
 20
216.7018665200603
 30
0.0
 40
64.0
  1
900
 41
0.9
100
AcDbText
  0
TEXT
  5
331E
330
33D5
100
AcDbEntity
  8
SIZE
100
AcDbText
 10
-74.02565180574403
 20
336.9763056766922
 30
0.0
 40
64.0
  1
950
 41
0.9
100
AcDbText
  0
TEXT
  5
331F
330
33D5
100
AcDbEntity
  8
SIZE
100
AcDbText
 10
567.6322695937452
 20
-80.39999999999713
 30
0.0
 40
64.0
  1
8
 50
90.0
 41
0.9
100
AcDbText
  0
TEXT
  5
3320
330
33D5
100
AcDbEntity
  8
NOTE
100
AcDbText
 10
-1127.595114277968
 20
113.527095058017
 30
0.0
 40
64.0
  1
16×φ15取付穴
 41
0.9
100
AcDbText
  0
ENDSEC
  0
SECTION
  2
OBJECTS
  0
DICTIONARY
  5
336D
330
0
100
AcDbDictionary
281
     1
  3
ACAD_2007HEADERVARS_RT
350
3579
  3
ACAD_COLOR
350
33CB
  3
ACAD_GROUP
350
336E
  3
ACAD_LAYOUT
350
33CA
  3
ACAD_MATERIAL
350
3371
  3
ACAD_MLEADERSTYLE
350
33CE
  3
ACAD_MLINESTYLE
350
33C7
  3
ACAD_PLOTSETTINGS
350
33C9
  3
ACAD_PLOTSTYLENAME
350
336F
  3
ACAD_SCALELIST
350
339B
  3
ACAD_TABLESTYLE
350
33CC
  3
ACAD_VISUALSTYLE
350
338A
  3
ACDB_RECOMPOSE_DATA
350
3577
  3
AcDbVariableDictionary
350
356E
  3
AcmDictionary
350
351B
  3
AMG
350
3468
  3
DWGPROPS
350
3578
  3
MAPISURF_MODULE
350
34E8
  0
DICTIONARY
  5
3543
330
33BD
100
AcDbDictionary
280
     1
281
     1
  3
ADSK_XREC_LAYER_RECONCILED
360
3544
  0
DICTIONARY
  5
3545
330
33ED
100
AcDbDictionary
280
     1
281
     1
  3
ADSK_XREC_LAYER_RECONCILED
360
3546
  0
DICTIONARY
  5
3547
330
33EE
100
AcDbDictionary
280
     1
281
     1
  3
ADSK_XREC_LAYER_RECONCILED
360
3548
  0
DICTIONARY
  5
3549
330
33EF
100
AcDbDictionary
280
     1
281
     1
  3
ADSK_XREC_LAYER_RECONCILED
360
354A
  0
DICTIONARY
  5
354B
330
33F0
100
AcDbDictionary
280
     1
281
     1
  3
ADSK_XREC_LAYER_RECONCILED
360
354C
  0
DICTIONARY
  5
354D
330
33F1
100
AcDbDictionary
280
     1
281
     1
  3
ADSK_XREC_LAYER_RECONCILED
360
354E
  0
DICTIONARY
  5
354F
330
33F3
100
AcDbDictionary
280
     1
281
     1
  3
ADSK_XREC_LAYER_RECONCILED
360
3550
  0
DICTIONARY
  5
3551
330
33F4
100
AcDbDictionary
280
     1
281
     1
  3
ADSK_XREC_LAYER_RECONCILED
360
3552
  0
DICTIONARY
  5
3553
330
33F5
100
AcDbDictionary
280
     1
281
     1
  3
ADSK_XREC_LAYER_RECONCILED
360
3554
  0
DICTIONARY
  5
3555
330
33F6
100
AcDbDictionary
280
     1
281
     1
  3
ADSK_XREC_LAYER_RECONCILED
360
3556
  0
DICTIONARY
  5
3557
330
33F7
100
AcDbDictionary
280
     1
281
     1
  3
ADSK_XREC_LAYER_RECONCILED
360
3558
  0
DICTIONARY
  5
3559
330
33F8
100
AcDbDictionary
280
     1
281
     1
  3
ADSK_XREC_LAYER_RECONCILED
360
355A
  0
DICTIONARY
  5
355B
330
33F9
100
AcDbDictionary
280
     1
281
     1
  3
ADSK_XREC_LAYER_RECONCILED
360
355C
  0
DICTIONARY
  5
355D
330
33D5
100
AcDbDictionary
280
     1
281
     1
  3
ACAD_INDEX
360
355E
  0
DICTIONARY
  5
3579
102
{ACAD_REACTORS
330
336D
102
}
330
336D
100
AcDbDictionary
281
     1
  3
DIMARCSYM
350
357A
  3
DIMLTEX1
350
357C
  3
DIMLTEX2
350
357D
  3
DIMLTYPE
350
357B
  0
DICTIONARY
  5
33CB
102
{ACAD_REACTORS
330
336D
102
}
330
336D
100
AcDbDictionary
281
     1
  0
DICTIONARY
  5
336E
102
{ACAD_REACTORS
330
336D
102
}
330
336D
100
AcDbDictionary
281
     1
  0
DICTIONARY
  5
33CA
102
{ACAD_REACTORS
330
336D
102
}
330
336D
100
AcDbDictionary
281
     1
  3
Model
350
33D8
  3
レイアウト1
350
33D4
  0
DICTIONARY
  5
3371
102
{ACAD_REACTORS
330
336D
102
}
330
336D
100
AcDbDictionary
281
     1
  3
ByBlock
350
337A
  3
ByLayer
350
3372
  3
Global
350
3382
  0
DICTIONARY
  5
33CE
102
{ACAD_REACTORS
330
336D
102
}
330
336D
100
AcDbDictionary
281
     1
  3
Standard
350
33CF
  0
DICTIONARY
  5
33C7
102
{ACAD_REACTORS
330
336D
102
}
330
336D
100
AcDbDictionary
281
     1
  3
Standard
350
33C8
  0
DICTIONARY
  5
33C9
102
{ACAD_REACTORS
330
336D
102
}
330
336D
100
AcDbDictionary
281
     1
  0
ACDBDICTIONARYWDFLT
  5
336F
102
{ACAD_REACTORS
330
336D
102
}
330
336D
100
AcDbDictionary
281
     1
  3
Normal
350
3370
100
AcDbDictionaryWithDefault
340
3370
  0
DICTIONARY
  5
339B
102
{ACAD_REACTORS
330
336D
102
}
330
336D
100
AcDbDictionary
281
     1
  3
A0
350
339C
  3
A1
350
339D
  3
A2
350
339E
  3
A3
350
339F
  3
A4
350
33A0
  3
A5
350
33A1
  3
A6
350
33A2
  3
A7
350
33A3
  3
A8
350
33A4
  3
A9
350
33A5
  3
B0
350
33A6
  3
B1
350
33A7
  3
B2
350
33A8
  3
B3
350
33A9
  3
B4
350
33AA
  3
B5
350
33AB
  3
B6
350
33AC
  3
B7
350
33AD
  3
B8
350
33AE
  3
B9
350
33AF
  3
C0
350
33B0
  3
C1
350
33B1
  3
C2
350
33B2
  3
C3
350
33B3
  3
C4
350
33B4
  3
C5
350
33B5
  3
C6
350
33B6
  3
C7
350
33B7
  3
C8
350
33B8
  3
C9
350
33B9
  3
D0
350
33BA
  3
D1
350
33BB
  3
D2
350
33BC
  0
DICTIONARY
  5
33CC
102
{ACAD_REACTORS
330
336D
102
}
330
336D
100
AcDbDictionary
281
     1
  3
Standard
350
33CD
  0
DICTIONARY
  5
338A
102
{ACAD_REACTORS
330
336D
102
}
330
336D
100
AcDbDictionary
281
     1
  3
2dWireframe
350
3390
  3
3D Hidden
350
3392
  3
3dWireframe
350
3391
  3
Basic
350
338F
  3
Brighten
350
3396
  3
ColorChange
350
339A
  3
Conceptual
350
3393
  3
Dim
350
3395
  3
Facepattern
350
3399
  3
Flat
350
338B
  3
FlatWithEdges
350
338C
  3
Gouraud
350
338D
  3
GouraudWithEdges
350
338E
  3
Linepattern
350
3398
  3
Realistic
350
3394
  3
Thicken
350
3397
  0
XRECORD
  5
3577
102
{ACAD_REACTORS
330
336D
102
}
330
336D
100
AcDbXrecord
280
     1
 90
        1
330
33CD
  0
DICTIONARY
  5
356E
102
{ACAD_REACTORS
330
336D
102
}
330
336D
100
AcDbDictionary
281
     1
  3
CANNOSCALE
350
3571
  3
CMLEADERSTYLE
350
3570
  3
CTABLESTYLE
350
356F
  3
DIMASSOC
350
3574
  3
INDEXCTL
350
3573
  3
SORTENTS
350
3572
  0
DICTIONARY
  5
351B
102
{ACAD_REACTORS
330
336D
102
}
330
336D
100
AcDbDictionary
281
     1
  3
AcmStdDictionary
350
3529
  0
DICTIONARY
  5
3468
102
{ACAD_REACTORS
330
336D
102
}
330
336D
100
AcDbDictionary
281
     1
  3
AcMgSettings
350
3469
  0
XRECORD
  5
3578
102
{ACAD_REACTORS
330
336D
102
}
330
336D
100
AcDbXrecord
280
     1
  1
DWGPROPS COOKIE
  2

  3

  4

  6

  7

  8
A090053
  9

300
AmdtFileType=84
301
=
302
=
303
=
304
=
305
=
306
=
307
=
308
=
309
=
 40
1.045082708333333
 41
2452321.396199653
 42
2456213.410898264
  1

 90
        1
  0
XRECORD
  5
3544
102
{ACAD_REACTORS
330
3543
102
}
330
3543
100
AcDbXrecord
280
     1
290
     1
  0
XRECORD
  5
3546
102
{ACAD_REACTORS
330
3545
102
}
330
3545
100
AcDbXrecord
280
     1
290
     1
  0
XRECORD
  5
3548
102
{ACAD_REACTORS
330
3547
102
}
330
3547
100
AcDbXrecord
280
     1
290
     1
  0
XRECORD
  5
354A
102
{ACAD_REACTORS
330
3549
102
}
330
3549
100
AcDbXrecord
280
     1
290
     1
  0
XRECORD
  5
354C
102
{ACAD_REACTORS
330
354B
102
}
330
354B
100
AcDbXrecord
280
     1
290
     1
  0
XRECORD
  5
354E
102
{ACAD_REACTORS
330
354D
102
}
330
354D
100
AcDbXrecord
280
     1
290
     1
  0
XRECORD
  5
3550
102
{ACAD_REACTORS
330
354F
102
}
330
354F
100
AcDbXrecord
280
     1
290
     1
  0
XRECORD
  5
3552
102
{ACAD_REACTORS
330
3551
102
}
330
3551
100
AcDbXrecord
280
     1
290
     1
  0
XRECORD
  5
3554
102
{ACAD_REACTORS
330
3553
102
}
330
3553
100
AcDbXrecord
280
     1
290
     1
  0
XRECORD
  5
3556
102
{ACAD_REACTORS
330
3555
102
}
330
3555
100
AcDbXrecord
280
     1
290
     1
  0
XRECORD
  5
3558
102
{ACAD_REACTORS
330
3557
102
}
330
3557
100
AcDbXrecord
280
     1
290
     1
  0
XRECORD
  5
355A
102
{ACAD_REACTORS
330
3559
102
}
330
3559
100
AcDbXrecord
280
     1
290
     1
  0
XRECORD
  5
355C
102
{ACAD_REACTORS
330
355B
102
}
330
355B
100
AcDbXrecord
280
     1
290
     1
  0
DICTIONARY
  5
355E
102
{ACAD_REACTORS
330
355D
102
}
330
355D
100
AcDbDictionary
281
     1
  3
*A1
350
355F
  0
XRECORD
  5
357A
102
{ACAD_REACTORS
330
3579
102
}
330
3579
100
AcDbXrecord
280
     1
 70
     1
  0
XRECORD
  5
357C
102
{ACAD_REACTORS
330
3579
102
}
330
3579
100
AcDbXrecord
280
     1
340
33C3
  0
XRECORD
  5
357D
102
{ACAD_REACTORS
330
3579
102
}
330
3579
100
AcDbXrecord
280
     1
340
33C3
  0
XRECORD
  5
357B
102
{ACAD_REACTORS
330
3579
102
}
330
3579
100
AcDbXrecord
280
     1
340
33C3
  0
LAYOUT
  5
33D8
102
{ACAD_XDICTIONARY
360
3584
102
}
102
{ACAD_REACTORS
330
33CA
102
}
330
33CA
100
AcDbPlotSettings
  1

  2
自動 EPSON LP-9600S (W2450527 上)
  4

  6

 40
0.0
 41
0.0
 42
0.0
 43
0.0
 44
0.0
 45
0.0
 46
0.0
 47
0.0
 48
0.0
 49
0.0
140
0.0
141
0.0
142
1.0
143
1.0
 70
  1712
 72
     0
 73
     0
 74
     0
  7

 75
     0
147
1.0
148
0.0
149
0.0
100
AcDbLayout
  1
Model
 70
     1
 71
     0
 10
0.0
 20
0.0
 11
12.0
 21
9.0
 12
0.0
 22
0.0
 32
0.0
 14
0.0
 24
0.0
 34
0.0
 15
0.0
 25
0.0
 35
0.0
146
0.0
 13
0.0
 23
0.0
 33
0.0
 16
1.0
 26
0.0
 36
0.0
 17
0.0
 27
1.0
 37
0.0
 76
     0
330
33D5
331
33D9
  0
LAYOUT
  5
33D4
102
{ACAD_XDICTIONARY
360
3582
102
}
102
{ACAD_REACTORS
330
33CA
102
}
330
33CA
100
AcDbPlotSettings
  1

  2
自動 EPSON LP-9600S (W2450527 上)
  4

  6

 40
0.0
 41
0.0
 42
0.0
 43
0.0
 44
0.0
 45
0.0
 46
0.0
 47
0.0
 48
0.0
 49
0.0
140
0.0
141
0.0
142
1.0
143
1.0
 70
   688
 72
     0
 73
     0
 74
     5
  7

 75
    16
147
1.0
148
0.0
149
0.0
100
AcDbLayout
  1
レイアウト1
 70
     1
 71
     1
 10
0.0
 20
0.0
 11
12.0
 21
9.0
 12
0.0
 22
0.0
 32
0.0
 14
1.000000000000000E+20
 24
1.000000000000000E+20
 34
1.000000000000000E+20
 15
-1.000000000000000E+20
 25
-1.000000000000000E+20
 35
-1.000000000000000E+20
146
0.0
 13
0.0
 23
0.0
 33
0.0
 16
1.0
 26
0.0
 36
0.0
 17
0.0
 27
1.0
 37
0.0
 76
     0
330
33D1
  0
MATERIAL
  5
337A
102
{ACAD_XDICTIONARY
360
337B
102
}
102
{ACAD_REACTORS
330
3371
102
}
330
3371
100
AcDbMaterial
  1
ByBlock
 72
     0
 43
0.0208333333333333
 43
0.0
 43
0.0
 43
0.0
 43
0.0
 43
0.0208333333333333
 43
0.0
 43
0.0
 43
0.0
 43
0.0
 43
1.0
 43
0.0
 43
0.0
 43
0.0
 43
0.0
 43
1.0
 77
     0
 47
0.0208333333333333
 47
0.0
 47
0.0
 47
0.0
 47
0.0
 47
0.0208333333333333
 47
0.0
 47
0.0
 47
0.0
 47
0.0
 47
1.0
 47
0.0
 47
0.0
 47
0.0
 47
0.0
 47
1.0
171
     0
 49
0.0208333333333333
 49
0.0
 49
0.0
 49
0.0
 49
0.0
 49
0.0208333333333333
 49
0.0
 49
0.0
 49
0.0
 49
0.0
 49
1.0
 49
0.0
 49
0.0
 49
0.0
 49
0.0
 49
1.0
175
     0
142
0.0208333333333333
142
0.0
142
0.0
142
0.0
142
0.0
142
0.0208333333333333
142
0.0
142
0.0
142
0.0
142
0.0
142
1.0
142
0.0
142
0.0
142
0.0
142
0.0
142
1.0
179
     0
144
0.0208333333333333
144
0.0
144
0.0
144
0.0
144
0.0
144
0.0208333333333333
144
0.0
144
0.0
144
0.0
144
0.0
144
1.0
144
0.0
144
0.0
144
0.0
144
0.0
144
1.0
147
0.0208333333333333
147
0.0
147
0.0
147
0.0
147
0.0
147
0.0208333333333333
147
0.0
147
0.0
147
0.0
147
0.0
147
1.0
147
0.0
147
0.0
147
0.0
147
0.0
147
1.0
  0
MATERIAL
  5
3372
102
{ACAD_XDICTIONARY
360
3373
102
}
102
{ACAD_REACTORS
330
3371
102
}
330
3371
100
AcDbMaterial
  1
ByLayer
 72
     0
 43
0.0208333333333333
 43
0.0
 43
0.0
 43
0.0
 43
0.0
 43
0.0208333333333333
 43
0.0
 43
0.0
 43
0.0
 43
0.0
 43
1.0
 43
0.0
 43
0.0
 43
0.0
 43
0.0
 43
1.0
 77
     0
 47
0.0208333333333333
 47
0.0
 47
0.0
 47
0.0
 47
0.0
 47
0.0208333333333333
 47
0.0
 47
0.0
 47
0.0
 47
0.0
 47
1.0
 47
0.0
 47
0.0
 47
0.0
 47
0.0
 47
1.0
171
     0
 49
0.0208333333333333
 49
0.0
 49
0.0
 49
0.0
 49
0.0
 49
0.0208333333333333
 49
0.0
 49
0.0
 49
0.0
 49
0.0
 49
1.0
 49
0.0
 49
0.0
 49
0.0
 49
0.0
 49
1.0
175
     0
142
0.0208333333333333
142
0.0
142
0.0
142
0.0
142
0.0
142
0.0208333333333333
142
0.0
142
0.0
142
0.0
142
0.0
142
1.0
142
0.0
142
0.0
142
0.0
142
0.0
142
1.0
179
     0
144
0.0208333333333333
144
0.0
144
0.0
144
0.0
144
0.0
144
0.0208333333333333
144
0.0
144
0.0
144
0.0
144
0.0
144
1.0
144
0.0
144
0.0
144
0.0
144
0.0
144
1.0
147
0.0208333333333333
147
0.0
147
0.0
147
0.0
147
0.0
147
0.0208333333333333
147
0.0
147
0.0
147
0.0
147
0.0
147
1.0
147
0.0
147
0.0
147
0.0
147
0.0
147
1.0
  0
MATERIAL
  5
3382
102
{ACAD_XDICTIONARY
360
3383
102
}
102
{ACAD_REACTORS
330
3371
102
}
330
3371
100
AcDbMaterial
  1
Global
 72
     0
 43
0.0208333333333333
 43
0.0
 43
0.0
 43
0.0
 43
0.0
 43
0.0208333333333333
 43
0.0
 43
0.0
 43
0.0
 43
0.0
 43
1.0
 43
0.0
 43
0.0
 43
0.0
 43
0.0
 43
1.0
 77
     0
 47
0.0208333333333333
 47
0.0
 47
0.0
 47
0.0
 47
0.0
 47
0.0208333333333333
 47
0.0
 47
0.0
 47
0.0
 47
0.0
 47
1.0
 47
0.0
 47
0.0
 47
0.0
 47
0.0
 47
1.0
171
     0
 49
0.0208333333333333
 49
0.0
 49
0.0
 49
0.0
 49
0.0
 49
0.0208333333333333
 49
0.0
 49
0.0
 49
0.0
 49
0.0
 49
1.0
 49
0.0
 49
0.0
 49
0.0
 49
0.0
 49
1.0
175
     0
142
0.0208333333333333
142
0.0
142
0.0
142
0.0
142
0.0
142
0.0208333333333333
142
0.0
142
0.0
142
0.0
142
0.0
142
1.0
142
0.0
142
0.0
142
0.0
142
0.0
142
1.0
179
     0
144
0.0208333333333333
144
0.0
144
0.0
144
0.0
144
0.0
144
0.0208333333333333
144
0.0
144
0.0
144
0.0
144
0.0
144
1.0
144
0.0
144
0.0
144
0.0
144
0.0
144
1.0
147
0.0208333333333333
147
0.0
147
0.0
147
0.0
147
0.0
147
0.0208333333333333
147
0.0
147
0.0
147
0.0
147
0.0
147
1.0
147
0.0
147
0.0
147
0.0
147
0.0
147
1.0
  0
MLEADERSTYLE
  5
33CF
102
{ACAD_REACTORS
330
33CE
102
}
330
33CE
100
AcDbMLeaderStyle
170
     2
171
     1
172
     0
 90
        2
 40
0.0
 41
0.0
173
     1
 91
-1056964608
340
33C3
 92
       -2
290
     1
 42
0.09
291
     1
 43
0.36
  3
Standard
 44
0.18
300

342
33BE
174
     1
178
     6
175
     1
176
     0
 93
-1056964608
 45
0.18
292
     0
297
     0
 46
0.18
 94
-1056964608
 47
1.0
 49
1.0
140
1.0
293
     1
141
0.0
294
     1
177
     0
142
1.0
295
     0
296
     0
143
0.125
1001
ACAD_MLEADERVER
1070
     2
  0
MLINESTYLE
  5
33C8
102
{ACAD_REACTORS
330
33C7
102
}
330
33C7
100
AcDbMlineStyle
  2
STANDARD
 70
     0
  3

 62
   256
 51
90.0
 52
90.0
 71
     2
 49
0.5
 62
   256
  6
BYLAYER
 49
-0.5
 62
   256
  6
BYLAYER
  0
ACDBPLACEHOLDER
  5
3370
102
{ACAD_REACTORS
330
336F
102
}
330
336F
  0
SCALE
  5
339C
102
{ACAD_REACTORS
330
339B
102
}
330
339B
100
AcDbScale
 70
     0
300
1:1
140
1.0
141
1.0
290
     1
  0
SCALE
  5
339D
102
{ACAD_REACTORS
330
339B
102
}
330
339B
100
AcDbScale
 70
     0
300
1:2
140
1.0
141
2.0
290
     0
  0
SCALE
  5
339E
102
{ACAD_REACTORS
330
339B
102
}
330
339B
100
AcDbScale
 70
     0
300
1:4
140
1.0
141
4.0
290
     0
  0
SCALE
  5
339F
102
{ACAD_REACTORS
330
339B
102
}
330
339B
100
AcDbScale
 70
     0
300
1:5
140
1.0
141
5.0
290
     0
  0
SCALE
  5
33A0
102
{ACAD_REACTORS
330
339B
102
}
330
339B
100
AcDbScale
 70
     0
300
1:8
140
1.0
141
8.0
290
     0
  0
SCALE
  5
33A1
102
{ACAD_REACTORS
330
339B
102
}
330
339B
100
AcDbScale
 70
     0
300
1:10
140
1.0
141
10.0
290
     0
  0
SCALE
  5
33A2
102
{ACAD_REACTORS
330
339B
102
}
330
339B
100
AcDbScale
 70
     0
300
1:16
140
1.0
141
16.0
290
     0
  0
SCALE
  5
33A3
102
{ACAD_REACTORS
330
339B
102
}
330
339B
100
AcDbScale
 70
     0
300
1:20
140
1.0
141
20.0
290
     0
  0
SCALE
  5
33A4
102
{ACAD_REACTORS
330
339B
102
}
330
339B
100
AcDbScale
 70
     0
300
1:30
140
1.0
141
30.0
290
     0
  0
SCALE
  5
33A5
102
{ACAD_REACTORS
330
339B
102
}
330
339B
100
AcDbScale
 70
     0
300
1:40
140
1.0
141
40.0
290
     0
  0
SCALE
  5
33A6
102
{ACAD_REACTORS
330
339B
102
}
330
339B
100
AcDbScale
 70
     0
300
1:50
140
1.0
141
50.0
290
     0
  0
SCALE
  5
33A7
102
{ACAD_REACTORS
330
339B
102
}
330
339B
100
AcDbScale
 70
     0
300
1:100
140
1.0
141
100.0
290
     0
  0
SCALE
  5
33A8
102
{ACAD_REACTORS
330
339B
102
}
330
339B
100
AcDbScale
 70
     0
300
2:1
140
2.0
141
1.0
290
     0
  0
SCALE
  5
33A9
102
{ACAD_REACTORS
330
339B
102
}
330
339B
100
AcDbScale
 70
     0
300
4:1
140
4.0
141
1.0
290
     0
  0
SCALE
  5
33AA
102
{ACAD_REACTORS
330
339B
102
}
330
339B
100
AcDbScale
 70
     0
300
8:1
140
8.0
141
1.0
290
     0
  0
SCALE
  5
33AB
102
{ACAD_REACTORS
330
339B
102
}
330
339B
100
AcDbScale
 70
     0
300
10:1
140
10.0
141
1.0
290
     0
  0
SCALE
  5
33AC
102
{ACAD_REACTORS
330
339B
102
}
330
339B
100
AcDbScale
 70
     0
300
100:1
140
100.0
141
1.0
290
     0
  0
SCALE
  5
33AD
102
{ACAD_REACTORS
330
339B
102
}
330
339B
100
AcDbScale
 70
     0
300
1/128" = 1'-0"
140
0.0078125
141
12.0
290
     0
  0
SCALE
  5
33AE
102
{ACAD_REACTORS
330
339B
102
}
330
339B
100
AcDbScale
 70
     0
300
1/64" = 1'-0"
140
0.015625
141
12.0
290
     0
  0
SCALE
  5
33AF
102
{ACAD_REACTORS
330
339B
102
}
330
339B
100
AcDbScale
 70
     0
300
1/32" = 1'-0"
140
0.03125
141
12.0
290
     0
  0
SCALE
  5
33B0
102
{ACAD_REACTORS
330
339B
102
}
330
339B
100
AcDbScale
 70
     0
300
1/16" = 1'-0"
140
0.0625
141
12.0
290
     0
  0
SCALE
  5
33B1
102
{ACAD_REACTORS
330
339B
102
}
330
339B
100
AcDbScale
 70
     0
300
3/32" = 1'-0"
140
0.09375
141
12.0
290
     0
  0
SCALE
  5
33B2
102
{ACAD_REACTORS
330
339B
102
}
330
339B
100
AcDbScale
 70
     0
300
1/8" = 1'-0"
140
0.125
141
12.0
290
     0
  0
SCALE
  5
33B3
102
{ACAD_REACTORS
330
339B
102
}
330
339B
100
AcDbScale
 70
     0
300
3/16" = 1'-0"
140
0.1875
141
12.0
290
     0
  0
SCALE
  5
33B4
102
{ACAD_REACTORS
330
339B
102
}
330
339B
100
AcDbScale
 70
     0
300
1/4" = 1'-0"
140
0.25
141
12.0
290
     0
  0
SCALE
  5
33B5
102
{ACAD_REACTORS
330
339B
102
}
330
339B
100
AcDbScale
 70
     0
300
3/8" = 1'-0"
140
0.375
141
12.0
290
     0
  0
SCALE
  5
33B6
102
{ACAD_REACTORS
330
339B
102
}
330
339B
100
AcDbScale
 70
     0
300
1/2" = 1'-0"
140
0.5
141
12.0
290
     0
  0
SCALE
  5
33B7
102
{ACAD_REACTORS
330
339B
102
}
330
339B
100
AcDbScale
 70
     0
300
3/4" = 1'-0"
140
0.75
141
12.0
290
     0
  0
SCALE
  5
33B8
102
{ACAD_REACTORS
330
339B
102
}
330
339B
100
AcDbScale
 70
     0
300
1" = 1'-0"
140
1.0
141
12.0
290
     0
  0
SCALE
  5
33B9
102
{ACAD_REACTORS
330
339B
102
}
330
339B
100
AcDbScale
 70
     0
300
1-1/2" = 1'-0"
140
1.5
141
12.0
290
     0
  0
SCALE
  5
33BA
102
{ACAD_REACTORS
330
339B
102
}
330
339B
100
AcDbScale
 70
     0
300
3" = 1'-0"
140
3.0
141
12.0
290
     0
  0
SCALE
  5
33BB
102
{ACAD_REACTORS
330
339B
102
}
330
339B
100
AcDbScale
 70
     0
300
6" = 1'-0"
140
6.0
141
12.0
290
     0
  0
SCALE
  5
33BC
102
{ACAD_REACTORS
330
339B
102
}
330
339B
100
AcDbScale
 70
     0
300
1'-0" = 1'-0"
140
12.0
141
12.0
290
     0
  0
TABLESTYLE
  5
33CD
102
{ACAD_XDICTIONARY
360
3575
102
}
102
{ACAD_REACTORS
330
33CC
102
}
330
33CC
100
AcDbTableStyle
  3
Standard
 70
     0
 71
     0
 40
0.06
 41
0.06
280
     0
281
     0
  7
STANDARD
140
0.18
170
     2
 62
     0
 63
     7
283
     0
274
    -2
284
     1
 64
     0
275
    -2
285
     1
 65
     0
276
    -2
286
     1
 66
     0
277
    -2
287
     1
 67
     0
278
    -2
288
     1
 68
     0
279
    -2
289
     1
 69
     0
  7
STANDARD
140
0.25
170
     5
 62
     0
 63
     7
283
     0
274
    -2
284
     1
 64
     0
275
    -2
285
     1
 65
     0
276
    -2
286
     1
 66
     0
277
    -2
287
     1
 67
     0
278
    -2
288
     1
 68
     0
279
    -2
289
     1
 69
     0
  7
STANDARD
140
0.18
170
     5
 62
     0
 63
     7
283
     0
274
    -2
284
     1
 64
     0
275
    -2
285
     1
 65
     0
276
    -2
286
     1
 66
     0
277
    -2
287
     1
 67
     0
278
    -2
288
     1
 68
     0
279
    -2
289
     1
 69
     0
  0
VISUALSTYLE
  5
3390
102
{ACAD_REACTORS
330
338A
102
}
330
338A
100
AcDbVisualStyle
  2
2dWireframe
 70
     4
 71
     0
 72
     2
 73
     0
 90
        0
 40
-0.6
 41
-30.0
 62
     5
 63
     7
 74
     1
 91
        4
 64
     7
 65
   257
 75
     1
175
     1
 42
1.0
 92
        0
 66
   257
 43
1.0
 76
     1
 77
     6
 78
     2
 67
     7
 79
     5
170
     0
171
     0
290
     0
174
     0
 93
        1
 44
0.0
173
     0
291
     0
 45
0.0
1001
ACAD
1000
AcDbSavedByObjectVersion
1070
     0
  0
VISUALSTYLE
  5
3392
102
{ACAD_REACTORS
330
338A
102
}
330
338A
100
AcDbVisualStyle
  2
3D Hidden
 70
     6
 71
     1
 72
     2
 73
     2
 90
        0
 40
-0.6
 41
-30.0
 62
     5
 63
     7
 74
     2
 91
        2
 64
     7
 65
   257
 75
     2
175
     1
 42
40.0
 92
        0
 66
   257
 43
1.0
 76
     1
 77
     6
 78
     2
 67
     7
 79
     3
170
     0
171
     0
290
     0
174
     0
 93
        1
 44
0.0
173
     0
291
     0
 45
0.0
1001
ACAD
1000
AcDbSavedByObjectVersion
1070
     0
  0
VISUALSTYLE
  5
3391
102
{ACAD_REACTORS
330
338A
102
}
330
338A
100
AcDbVisualStyle
  2
3dWireframe
 70
     5
 71
     0
 72
     2
 73
     0
 90
        0
 40
-0.6
 41
-30.0
 62
     5
 63
     7
 74
     1
 91
        4
 64
     7
 65
   257
 75
     1
175
     1
 42
1.0
 92
        0
 66
   257
 43
1.0
 76
     1
 77
     6
 78
     2
 67
     7
 79
     5
170
     0
171
     0
290
     0
174
     0
 93
        1
 44
0.0
173
     0
291
     0
 45
0.0
1001
ACAD
1000
AcDbSavedByObjectVersion
1070
     0
  0
VISUALSTYLE
  5
338F
102
{ACAD_REACTORS
330
338A
102
}
330
338A
100
AcDbVisualStyle
  2
Basic
 70
     7
 71
     1
 72
     0
 73
     1
 90
        0
 40
-0.6
 41
-30.0
 62
     5
 63
     7
 74
     0
 91
        4
 64
     7
 65
   257
 75
     1
175
     1
 42
1.0
 92
        8
 66
     7
 43
1.0
 76
     1
 77
     6
 78
     2
 67
     7
 79
     5
170
     0
171
     0
290
     0
174
     0
 93
        1
 44
0.0
173
     0
291
     1
 45
0.0
1001
ACAD
1000
AcDbSavedByObjectVersion
1070
     0
  0
VISUALSTYLE
  5
3396
102
{ACAD_REACTORS
330
338A
102
}
330
338A
100
AcDbVisualStyle
  2
Brighten
 70
    12
 71
     2
 72
     2
 73
     0
 90
        0
 40
-0.6
 41
-30.0
 62
     5
 63
     7
 74
     1
 91
        4
 64
     7
 65
   257
 75
     1
175
     1
 42
1.0
 92
        8
 66
     7
 43
1.0
 76
     1
 77
     6
 78
     2
 67
     7
 79
     5
170
     0
171
     0
290
     0
174
     0
 93
        1
 44
50.0
173
     0
291
     1
 45
0.0
1001
ACAD
1000
AcDbSavedByObjectVersion
1070
     0
  0
VISUALSTYLE
  5
339A
102
{ACAD_REACTORS
330
338A
102
}
330
338A
100
AcDbVisualStyle
  2
ColorChange
 70
    16
 71
     2
 72
     2
 73
     3
 90
        0
 40
-0.6
 41
-30.0
 62
     5
 63
     8
 74
     1
 91
        4
 64
     7
 65
   257
 75
     1
175
     1
 42
1.0
 92
        8
 66
     8
 43
1.0
 76
     1
 77
     6
 78
     2
 67
     7
 79
     5
170
     0
171
     0
290
     0
174
     0
 93
        1
 44
0.0
173
     0
291
     1
 45
0.0
1001
ACAD
1000
AcDbSavedByObjectVersion
1070
     0
  0
VISUALSTYLE
  5
3393
102
{ACAD_REACTORS
330
338A
102
}
330
338A
100
AcDbVisualStyle
  2
Conceptual
 70
     9
 71
     3
 72
     2
 73
     0
 90
        0
 40
-0.6
 41
-30.0
 62
     5
 63
     7
 74
     2
 91
        2
 64
     7
 65
   257
 75
     1
175
     1
 42
40.0
 92
        8
 66
     7
 43
1.0
 76
     1
 77
     6
 78
     2
 67
     7
 79
     3
170
     0
171
     0
290
     0
174
     0
 93
        1
 44
0.0
173
     0
291
     0
 45
0.0
1001
ACAD
1000
AcDbSavedByObjectVersion
1070
     0
  0
VISUALSTYLE
  5
3395
102
{ACAD_REACTORS
330
338A
102
}
330
338A
100
AcDbVisualStyle
  2
Dim
 70
    11
 71
     2
 72
     2
 73
     0
 90
        0
 40
-0.6
 41
-30.0
 62
     5
 63
     7
 74
     1
 91
        4
 64
     7
 65
   257
 75
     1
175
     1
 42
1.0
 92
        8
 66
     7
 43
1.0
 76
     1
 77
     6
 78
     2
 67
     7
 79
     5
170
     0
171
     0
290
     0
174
     0
 93
        1
 44
-50.0
173
     0
291
     1
 45
0.0
1001
ACAD
1000
AcDbSavedByObjectVersion
1070
     0
  0
VISUALSTYLE
  5
3399
102
{ACAD_REACTORS
330
338A
102
}
330
338A
100
AcDbVisualStyle
  2
Facepattern
 70
    15
 71
     2
 72
     2
 73
     0
 90
        0
 40
-0.6
 41
-30.0
 62
     5
 63
     7
 74
     1
 91
        4
 64
     7
 65
   257
 75
     1
175
     1
 42
1.0
 92
        8
 66
     7
 43
1.0
 76
     1
 77
     6
 78
     2
 67
     7
 79
     5
170
     0
171
     0
290
     0
174
     0
 93
        1
 44
0.0
173
     0
291
     1
 45
0.0
1001
ACAD
1000
AcDbSavedByObjectVersion
1070
     0
  0
VISUALSTYLE
  5
338B
102
{ACAD_REACTORS
330
338A
102
}
330
338A
100
AcDbVisualStyle
  2
Flat
 70
     0
 71
     2
 72
     1
 73
     1
 90
        2
 40
-0.6
 41
30.0
 62
     5
 63
     7
 74
     0
 91
        4
 64
     7
 65
   257
 75
     1
175
     1
 42
1.0
 92
        8
 66
     7
 43
1.0
 76
     1
 77
     6
 78
     2
 67
     7
 79
     5
170
     0
171
     0
290
     0
174
     0
 93
       13
 44
0.0
173
     0
291
     1
 45
0.0
1001
ACAD
1000
AcDbSavedByObjectVersion
1070
     0
  0
VISUALSTYLE
  5
338C
102
{ACAD_REACTORS
330
338A
102
}
330
338A
100
AcDbVisualStyle
  2
FlatWithEdges
 70
     1
 71
     2
 72
     1
 73
     1
 90
        2
 40
-0.6
 41
30.0
 62
     5
 63
     7
 74
     1
 91
        4
 64
     7
 65
   257
 75
     1
175
     1
 42
1.0
 92
        0
 66
   257
 43
1.0
 76
     1
 77
     6
 78
     2
 67
     7
 79
     5
170
     0
171
     0
290
     0
174
     0
 93
       13
 44
0.0
173
     0
291
     1
 45
0.0
1001
ACAD
1000
AcDbSavedByObjectVersion
1070
     0
  0
VISUALSTYLE
  5
338D
102
{ACAD_REACTORS
330
338A
102
}
330
338A
100
AcDbVisualStyle
  2
Gouraud
 70
     2
 71
     2
 72
     2
 73
     1
 90
        2
 40
-0.6
 41
30.0
 62
     5
 63
     7
 74
     0
 91
        4
 64
     7
 65
   257
 75
     1
175
     1
 42
1.0
 92
        0
 66
     7
 43
1.0
 76
     1
 77
     6
 78
     2
 67
     7
 79
     5
170
     0
171
     0
290
     0
174
     0
 93
       13
 44
0.0
173
     0
291
     1
 45
0.0
1001
ACAD
1000
AcDbSavedByObjectVersion
1070
     0
  0
VISUALSTYLE
  5
338E
102
{ACAD_REACTORS
330
338A
102
}
330
338A
100
AcDbVisualStyle
  2
GouraudWithEdges
 70
     3
 71
     2
 72
     2
 73
     1
 90
        2
 40
-0.6
 41
30.0
 62
     5
 63
     7
 74
     1
 91
        4
 64
     7
 65
   257
 75
     1
175
     1
 42
1.0
 92
        0
 66
   257
 43
1.0
 76
     1
 77
     6
 78
     2
 67
     7
 79
     5
170
     0
171
     0
290
     0
174
     0
 93
       13
 44
0.0
173
     0
291
     1
 45
0.0
1001
ACAD
1000
AcDbSavedByObjectVersion
1070
     0
  0
VISUALSTYLE
  5
3398
102
{ACAD_REACTORS
330
338A
102
}
330
338A
100
AcDbVisualStyle
  2
Linepattern
 70
    14
 71
     2
 72
     2
 73
     0
 90
        0
 40
-0.6
 41
-30.0
 62
     5
 63
     7
 74
     1
 91
        4
 64
     7
 65
   257
 75
     7
175
     7
 42
1.0
 92
        8
 66
     7
 43
1.0
 76
     1
 77
     6
 78
     2
 67
     7
 79
     5
170
     0
171
     0
290
     0
174
     0
 93
        1
 44
0.0
173
     0
291
     1
 45
0.0
1001
ACAD
1000
AcDbSavedByObjectVersion
1070
     0
  0
VISUALSTYLE
  5
3394
102
{ACAD_REACTORS
330
338A
102
}
330
338A
100
AcDbVisualStyle
  2
Realistic
 70
     8
 71
     2
 72
     2
 73
     0
 90
        0
 40
-0.6
 41
-30.0
 62
     5
 63
     7
 74
     1
 91
        0
 64
     7
 65
   257
 75
     1
175
     1
 42
1.0
 92
        8
 66
     8
 43
1.0
 76
     1
 77
     6
 78
     2
 67
     7
 79
     5
170
     0
171
     0
290
     0
174
     0
 93
       13
 44
0.0
173
     0
291
     0
 45
0.0
1001
ACAD
1000
AcDbSavedByObjectVersion
1070
     0
  0
VISUALSTYLE
  5
3397
102
{ACAD_REACTORS
330
338A
102
}
330
338A
100
AcDbVisualStyle
  2
Thicken
 70
    13
 71
     2
 72
     2
 73
     0
 90
        0
 40
-0.6
 41
-30.0
 62
     5
 63
     7
 74
     1
 91
        4
 64
     7
 65
   257
 75
     1
175
     1
 42
1.0
 92
       12
 66
     7
 43
1.0
 76
     1
 77
     6
 78
     2
 67
     7
 79
     5
170
     0
171
     0
290
     0
174
     0
 93
        1
 44
0.0
173
     0
291
     1
 45
0.0
1001
ACAD
1000
AcDbSavedByObjectVersion
1070
     0
  0
DICTIONARYVAR
  5
3571
102
{ACAD_REACTORS
330
356E
102
}
330
356E
100
DictionaryVariables
280
     0
  1
1:1
  0
DICTIONARYVAR
  5
3570
102
{ACAD_REACTORS
330
356E
102
}
330
356E
100
DictionaryVariables
280
     0
  1
STANDARD
  0
DICTIONARYVAR
  5
356F
102
{ACAD_REACTORS
330
356E
102
}
330
356E
100
DictionaryVariables
280
     0
  1
STANDARD
  0
DICTIONARYVAR
  5
3574
102
{ACAD_REACTORS
330
356E
102
}
330
356E
100
DictionaryVariables
280
     0
  1
1
  0
DICTIONARYVAR
  5
3573
102
{ACAD_REACTORS
330
356E
102
}
330
356E
100
DictionaryVariables
280
     0
  1
1
  0
DICTIONARYVAR
  5
3572
102
{ACAD_REACTORS
330
356E
102
}
330
356E
100
DictionaryVariables
280
     0
  1
127
  0
DICTIONARY
  5
3529
102
{ACAD_REACTORS
330
351B
102
}
330
351B
100
AcDbDictionary
281
     1
  0
DICTIONARY
  5
3469
102
{ACAD_REACTORS
330
3468
102
}
330
3468
100
AcDbDictionary
281
     1
  3
DWGSETTINGS
350
346A
  3
TRANSSETTINGS
350
346B
  0
LAYER_INDEX
  5
355F
102
{ACAD_REACTORS
330
355E
102
}
330
355E
100
AcDbIndex
 40
2456213.410898264
100
AcDbLayerIndex
  8
0
360
3560
 90
        1
  8
OUTLINE
360
3561
 90
       61
  8
SIZE
360
3562
 90
       40
  8
BASIS
360
3563
 90
        0
  8
DETAIL
360
3564
 90
       77
  8
ARRANGE
360
3565
 90
        3
  8
DEFPOINTS
360
3566
 90
        0
  8
ETC
360
3567
 90
        3
  8
FIX
360
3568
 90
        0
  8
NOTE
360
3569
 90
        5
  8
SERVICESPACE
360
356A
 90
        0
  8
SYMBOLLINE
360
356B
 90
        0
  8
DETAIL___1
360
356C
 90
        2
  8
BASIC
360
356D
 90
        2
  0
DICTIONARY
  5
3584
330
33D8
100
AcDbDictionary
280
     1
281
     1
  3
ACAD_XREC_ROUNDTRIP
360
3585
  0
DICTIONARY
  5
3582
330
33D4
100
AcDbDictionary
280
     1
281
     1
  3
ACAD_XREC_ROUNDTRIP
360
3583
  0
DICTIONARY
  5
337B
330
337A
100
AcDbDictionary
280
     1
281
     1
  3
ACAD_XREC_ROUNDTRIP
360
357F
  3
BUMPTILE
360
337D
  3
DIFFUSETILE
360
337C
  3
OPACITYTILE
360
3380
  3
REFLECTIONTILE
360
337F
  3
REFRACTIONTILE
360
3381
  3
SPECULARTILE
360
337E
  0
DICTIONARY
  5
3373
330
3372
100
AcDbDictionary
280
     1
281
     1
  3
ACAD_XREC_ROUNDTRIP
360
357E
  3
BUMPTILE
360
3375
  3
DIFFUSETILE
360
3374
  3
OPACITYTILE
360
3378
  3
REFLECTIONTILE
360
3377
  3
REFRACTIONTILE
360
3379
  3
SPECULARTILE
360
3376
  0
DICTIONARY
  5
3383
330
3382
100
AcDbDictionary
280
     1
281
     1
  3
ACAD_XREC_ROUNDTRIP
360
3580
  3
BUMPTILE
360
3385
  3
DIFFUSETILE
360
3384
  3
OPACITYTILE
360
3388
  3
REFLECTIONTILE
360
3387
  3
REFRACTIONTILE
360
3389
  3
SPECULARTILE
360
3386
  0
DICTIONARY
  5
3575
330
33CD
100
AcDbDictionary
280
     1
281
     1
  3
ACAD_ROUNDTRIP_2008_TABLESTYLE_CELLSTYLEMAP
360
3576
  3
ACAD_XREC_ROUNDTRIP
360
3581
  0
IDBUFFER
  5
3560
330
0
100
AcDbIdBuffer
330
32B1
  0
IDBUFFER
  5
3561
330
0
100
AcDbIdBuffer
330
32DF
330
32E0
330
32E1
330
32E2
330
32E3
330
32E4
330
32E5
330
32E6
330
32F3
330
32F4
330
32F5
330
32F6
330
32F7
330
953
330
954
330
955
330
956
330
957
330
958
330
32B4
330
32B5
330
32B6
330
32B7
330
32B8
330
32B9
330
32BA
330
32BB
330
32BC
330
32BD
330
32BE
330
32BF
330
32C0
330
32C1
330
32C2
330
32C3
330
32C4
330
32C5
330
32C6
330
32C7
330
32C8
330
32C9
330
32CA
330
32CB
330
32CC
330
32CD
330
32CE
330
32CF
330
32D0
330
32D1
330
32D2
330
32D3
330
32D4
330
32D5
330
32D6
330
32D7
330
32D8
330
32D9
330
32DA
330
32DB
330
32DC
330
32DD
  0
IDBUFFER
  5
3562
330
0
100
AcDbIdBuffer
330
3308
330
3309
330
330A
330
330B
330
330C
330
330D
330
330E
330
330F
330
3310
330
3311
330
3312
330
3313
330
3314
330
3315
330
3316
330
3317
330
3318
330
3319
330
331A
330
331B
330
331C
330
331D
330
331E
330
331F
330
32F8
330
32F9
330
32FA
330
32FB
330
32FC
330
32FD
330
32FE
330
32FF
330
3300
330
3301
330
3302
330
3303
330
3304
330
3305
330
3306
330
3307
  0
IDBUFFER
  5
3563
330
0
100
AcDbIdBuffer
  0
IDBUFFER
  5
3564
330
0
100
AcDbIdBuffer
330
3298
330
3299
330
329A
330
329B
330
329C
330
329D
330
329E
330
329F
330
32A0
330
32A1
330
32A2
330
32A3
330
32A4
330
32A5
330
32A6
330
32A7
330
32A8
330
32B0
330
32DE
330
32E9
330
32EA
330
32EB
330
32EC
330
32ED
330
32EE
330
32EF
330
32F0
330
32F1
330
32F2
330
3268
330
3269
330
326A
330
326B
330
326C
330
326D
330
326E
330
326F
330
3270
330
3271
330
3272
330
3273
330
3274
330
3275
330
3276
330
3277
330
3278
330
3279
330
327A
330
327B
330
327C
330
327D
330
327E
330
327F
330
3280
330
3281
330
3282
330
3283
330
3284
330
3285
330
3286
330
3287
330
3288
330
3289
330
328A
330
328B
330
328C
330
328D
330
328E
330
328F
330
3290
330
3291
330
3292
330
3293
330
3294
330
3295
330
3296
330
3297
  0
IDBUFFER
  5
3565
330
0
100
AcDbIdBuffer
330
32A9
330
32AA
330
32AB
  0
IDBUFFER
  5
3566
330
0
100
AcDbIdBuffer
  0
IDBUFFER
  5
3567
330
0
100
AcDbIdBuffer
330
3265
330
3266
330
3267
  0
IDBUFFER
  5
3568
330
0
100
AcDbIdBuffer
  0
IDBUFFER
  5
3569
330
0
100
AcDbIdBuffer
330
32AE
330
32AF
330
32B2
330
32B3
330
3320
  0
IDBUFFER
  5
356A
330
0
100
AcDbIdBuffer
  0
IDBUFFER
  5
356B
330
0
100
AcDbIdBuffer
  0
IDBUFFER
  5
356C
330
0
100
AcDbIdBuffer
330
32E7
330
32E8
  0
IDBUFFER
  5
356D
330
0
100
AcDbIdBuffer
330
32AC
330
32AD
  0
XRECORD
  5
3585
102
{ACAD_REACTORS
330
3584
102
}
330
3584
100
AcDbXrecord
280
     1
102
SHADEPLOT
 70
     0
102
SHADEPLOTRESLEVEL
 70
     2
102
SHADEPLOTCUSTOMDPI
 70
   300
  0
XRECORD
  5
3583
102
{ACAD_REACTORS
330
3582
102
}
330
3582
100
AcDbXrecord
280
     1
102
SHADEPLOT
 70
     0
102
SHADEPLOTRESLEVEL
 70
     2
102
SHADEPLOTCUSTOMDPI
 70
   300
  0
XRECORD
  5
357F
102
{ACAD_REACTORS
330
337B
102
}
330
337B
100
AcDbXrecord
280
     1
102
MATERIAL
148
0.0
149
0.0
149
0.0
 93
        0
 94
      127
282
     0
 72
     0
 77
     0
171
     0
175
     0
179
     0
273
     0
  0
XRECORD
  5
337D
102
{ACAD_REACTORS
330
337B
102
}
330
337B
100
AcDbXrecord
280
     1
270
     1
271
     1
  0
XRECORD
  5
337C
102
{ACAD_REACTORS
330
337B
102
}
330
337B
100
AcDbXrecord
280
     1
270
     1
271
     1
  0
XRECORD
  5
3380
102
{ACAD_REACTORS
330
337B
102
}
330
337B
100
AcDbXrecord
280
     1
270
     1
271
     1
  0
XRECORD
  5
337F
102
{ACAD_REACTORS
330
337B
102
}
330
337B
100
AcDbXrecord
280
     1
270
     1
271
     1
  0
XRECORD
  5
3381
102
{ACAD_REACTORS
330
337B
102
}
330
337B
100
AcDbXrecord
280
     1
270
     1
271
     1
  0
XRECORD
  5
337E
102
{ACAD_REACTORS
330
337B
102
}
330
337B
100
AcDbXrecord
280
     1
270
     1
271
     1
  0
XRECORD
  5
357E
102
{ACAD_REACTORS
330
3373
102
}
330
3373
100
AcDbXrecord
280
     1
102
MATERIAL
148
0.0
149
0.0
149
0.0
 93
        0
 94
      127
282
     0
 72
     0
 77
     0
171
     0
175
     0
179
     0
273
     0
  0
XRECORD
  5
3375
102
{ACAD_REACTORS
330
3373
102
}
330
3373
100
AcDbXrecord
280
     1
270
     1
271
     1
  0
XRECORD
  5
3374
102
{ACAD_REACTORS
330
3373
102
}
330
3373
100
AcDbXrecord
280
     1
270
     1
271
     1
  0
XRECORD
  5
3378
102
{ACAD_REACTORS
330
3373
102
}
330
3373
100
AcDbXrecord
280
     1
270
     1
271
     1
  0
XRECORD
  5
3377
102
{ACAD_REACTORS
330
3373
102
}
330
3373
100
AcDbXrecord
280
     1
270
     1
271
     1
  0
XRECORD
  5
3379
102
{ACAD_REACTORS
330
3373
102
}
330
3373
100
AcDbXrecord
280
     1
270
     1
271
     1
  0
XRECORD
  5
3376
102
{ACAD_REACTORS
330
3373
102
}
330
3373
100
AcDbXrecord
280
     1
270
     1
271
     1
  0
XRECORD
  5
3580
102
{ACAD_REACTORS
330
3383
102
}
330
3383
100
AcDbXrecord
280
     1
102
MATERIAL
148
0.0
149
0.0
149
0.0
 93
        0
 94
      127
282
     0
 72
     0
 77
     0
171
     0
175
     0
179
     0
273
     0
  0
XRECORD
  5
3385
102
{ACAD_REACTORS
330
3383
102
}
330
3383
100
AcDbXrecord
280
     1
270
     1
271
     1
  0
XRECORD
  5
3384
102
{ACAD_REACTORS
330
3383
102
}
330
3383
100
AcDbXrecord
280
     1
270
     1
271
     1
  0
XRECORD
  5
3388
102
{ACAD_REACTORS
330
3383
102
}
330
3383
100
AcDbXrecord
280
     1
270
     1
271
     1
  0
XRECORD
  5
3387
102
{ACAD_REACTORS
330
3383
102
}
330
3383
100
AcDbXrecord
280
     1
270
     1
271
     1
  0
XRECORD
  5
3389
102
{ACAD_REACTORS
330
3383
102
}
330
3383
100
AcDbXrecord
280
     1
270
     1
271
     1
  0
XRECORD
  5
3386
102
{ACAD_REACTORS
330
3383
102
}
330
3383
100
AcDbXrecord
280
     1
270
     1
271
     1
  0
CELLSTYLEMAP
  5
3576
102
{ACAD_REACTORS
330
3575
102
}
330
3575
100
AcDbCellStyleMap
 90
        3
300
CELLSTYLE
  1
TABLEFORMAT_BEGIN
 90
        5
170
     1
 91
        0
 92
    32768
 62
   257
 93
        1
300
CONTENTFORMAT
  1
CONTENTFORMAT_BEGIN
 90
        0
 91
        0
 92
      512
 93
        0
300

 40
0.0
140
1.0
 94
        5
 62
     0
340
33BE
144
0.25
309
CONTENTFORMAT_END
171
     0
 94
        0
309
TABLEFORMAT_END
  1
CELLSTYLE_BEGIN
 90
        1
 91
        1
300
_TITLE
309
CELLSTYLE_END
300
CELLSTYLE
  1
TABLEFORMAT_BEGIN
 90
        5
170
     1
 91
        0
 92
        0
 62
   257
 93
        1
300
CONTENTFORMAT
  1
CONTENTFORMAT_BEGIN
 90
        0
 91
        0
 92
      512
 93
        0
300

 40
0.0
140
1.0
 94
        5
 62
     0
340
33BE
144
0.18
309
CONTENTFORMAT_END
171
     0
 94
        0
309
TABLEFORMAT_END
  1
CELLSTYLE_BEGIN
 90
        2
 91
        1
300
_HEADER
309
CELLSTYLE_END
300
CELLSTYLE
  1
TABLEFORMAT_BEGIN
 90
        5
170
     1
 91
        0
 92
        0
 62
   257
 93
        1
300
CONTENTFORMAT
  1
CONTENTFORMAT_BEGIN
 90
        0
 91
        0
 92
      512
 93
        0
300

 40
0.0
140
1.0
 94
        2
 62
     0
340
33BE
144
0.18
309
CONTENTFORMAT_END
171
     0
 94
        0
309
TABLEFORMAT_END
  1
CELLSTYLE_BEGIN
 90
        3
 91
        2
300
_DATA
309
CELLSTYLE_END
  0
XRECORD
  5
3581
102
{ACAD_REACTORS
330
3575
102
}
330
3575
100
AcDbXrecord
280
     1
102
ACAD_ROUNDTRIP_PRE2007_TABLESTYLE
 90
      512
 91
        0
  1

 92
      512
 93
        0
  2

 94
      512
 95
        0
  3

  0
ENDSEC
  0
EOF
