  0
SECTION
  2
HEADER
  9
$ACADVER
  1
AC1015
  9
$ACADMAINTVER
 70
    20
  9
$DWGCODEPAGE
  3
ANSI_932
  9
$INSBASE
 10
0.0
 20
0.0
 30
0.0
  9
$EXTMIN
 10
-1133.204337391986
 20
-1400.941289342295
 30
0.0
  9
$EXTMAX
 10
1274.091203879502
 20
1085.530421394176
 30
50.0
  9
$LIMMIN
 10
-2970.0
 20
-2100.0
  9
$LIMMAX
 10
2970.0
 20
2100.0
  9
$ORTHOMODE
 70
     1
  9
$REGENMODE
 70
     0
  9
$FILLMODE
 70
     1
  9
$QTEXTMODE
 70
     0
  9
$MIRRTEXT
 70
     0
  9
$LTSCALE
 40
20.0
  9
$ATTMODE
 70
     1
  9
$TEXTSIZE
 40
64.0
  9
$TRACEWID
 40
0.05
  9
$TEXTSTYLE
  7
STANDARD
  9
$CLAYER
  8
0
  9
$CELTYPE
  6
ByLayer
  9
$CECOLOR
 62
   256
  9
$CELTSCALE
 40
1.0
  9
$DISPSILH
 70
     0
  9
$DIMSCALE
 40
1.0
  9
$DIMASZ
 40
0.12
  9
$DIMEXO
 40
0.05
  9
$DIMDLI
 40
0.5
  9
$DIMRND
 40
0.0
  9
$DIMDLE
 40
0.0
  9
$DIMEXE
 40
0.1
  9
$DIMTP
 40
0.1
  9
$DIMTM
 40
0.1
  9
$DIMTXT
 40
0.12
  9
$DIMCEN
 40
0.0
  9
$DIMTSZ
 40
0.0
  9
$DIMTOL
 70
     0
  9
$DIMLIM
 70
     0
  9
$DIMTIH
 70
     1
  9
$DIMTOH
 70
     1
  9
$DIMSE1
 70
     0
  9
$DIMSE2
 70
     0
  9
$DIMTAD
 70
     0
  9
$DIMZIN
 70
     7
  9
$DIMBLK
  1

  9
$DIMASO
 70
     1
  9
$DIMSHO
 70
     0
  9
$DIMPOST
  1

  9
$DIMAPOST
  1
mm
  9
$DIMALT
 70
     0
  9
$DIMALTD
 70
     2
  9
$DIMALTF
 40
25.4
  9
$DIMLFAC
 40
1.0
  9
$DIMTOFL
 70
     0
  9
$DIMTVP
 40
0.0
  9
$DIMTIX
 70
     0
  9
$DIMSOXD
 70
     0
  9
$DIMSAH
 70
     0
  9
$DIMBLK1
  1

  9
$DIMBLK2
  1

  9
$DIMSTYLE
  2
AM_ANSI
  9
$DIMCLRD
 70
   256
  9
$DIMCLRE
 70
   256
  9
$DIMCLRT
 70
     2
  9
$DIMTFAC
 40
0.71
  9
$DIMGAP
 40
0.06
  9
$DIMJUST
 70
     0
  9
$DIMSD1
 70
     0
  9
$DIMSD2
 70
     0
  9
$DIMTOLJ
 70
     1
  9
$DIMTZIN
 70
     7
  9
$DIMALTZ
 70
     0
  9
$DIMALTTZ
 70
     0
  9
$DIMUPT
 70
     0
  9
$DIMDEC
 70
     4
  9
$DIMTDEC
 70
     4
  9
$DIMALTU
 70
     2
  9
$DIMALTTD
 70
     4
  9
$DIMTXSTY
  7
STANDARD
  9
$DIMAUNIT
 70
     0
  9
$DIMADEC
 70
     0
  9
$DIMALTRND
 40
0.0
  9
$DIMAZIN
 70
     2
  9
$DIMDSEP
 70
    46
  9
$DIMATFIT
 70
     3
  9
$DIMFRAC
 70
     0
  9
$DIMLDRBLK
  1

  9
$DIMLUNIT
 70
     2
  9
$DIMLWD
 70
    -1
  9
$DIMLWE
 70
    -1
  9
$DIMTMOVE
 70
     0
  9
$LUNITS
 70
     2
  9
$LUPREC
 70
     4
  9
$SKETCHINC
 40
0.1
  9
$FILLETRAD
 40
4.0
  9
$AUNITS
 70
     1
  9
$AUPREC
 70
     3
  9
$MENU
  1
ACAD
  9
$ELEVATION
 40
0.0
  9
$PELEVATION
 40
0.0
  9
$THICKNESS
 40
50.0
  9
$LIMCHECK
 70
     0
  9
$CHAMFERA
 40
0.0
  9
$CHAMFERB
 40
0.0
  9
$CHAMFERC
 40
0.0
  9
$CHAMFERD
 40
0.0
  9
$SKPOLY
 70
     0
  9
$TDCREATE
 40
2452321.396199653
  9
$TDUCREATE
 40
2452321.021199653
  9
$TDUPDATE
 40
2456213.411353438
  9
$TDUUPDATE
 40
2456213.036353438
  9
$TDINDWG
 40
1.0433482639
  9
$TDUSRTIMER
 40
1.0433425000
  9
$USRTIMER
 70
     1
  9
$ANGBASE
 50
0.0
  9
$ANGDIR
 70
     0
  9
$PDMODE
 70
     3
  9
$PDSIZE
 40
-2.0
  9
$PLINEWID
 40
0.0
  9
$SPLFRAME
 70
     0
  9
$SPLINETYPE
 70
     6
  9
$SPLINESEGS
 70
     8
  9
$HANDSEED
  5
2EB2
  9
$SURFTAB1
 70
     6
  9
$SURFTAB2
 70
     6
  9
$SURFTYPE
 70
     6
  9
$SURFU
 70
     6
  9
$SURFV
 70
     6
  9
$UCSBASE
  2

  9
$UCSNAME
  2

  9
$UCSORG
 10
0.0
 20
0.0
 30
0.0
  9
$UCSXDIR
 10
1.0
 20
0.0
 30
0.0
  9
$UCSYDIR
 10
0.0
 20
1.0
 30
0.0
  9
$UCSORTHOREF
  2

  9
$UCSORTHOVIEW
 70
     0
  9
$UCSORGTOP
 10
0.0
 20
0.0
 30
0.0
  9
$UCSORGBOTTOM
 10
0.0
 20
0.0
 30
0.0
  9
$UCSORGLEFT
 10
0.0
 20
0.0
 30
0.0
  9
$UCSORGRIGHT
 10
0.0
 20
0.0
 30
0.0
  9
$UCSORGFRONT
 10
0.0
 20
0.0
 30
0.0
  9
$UCSORGBACK
 10
0.0
 20
0.0
 30
0.0
  9
$PUCSBASE
  2

  9
$PUCSNAME
  2

  9
$PUCSORG
 10
0.0
 20
0.0
 30
0.0
  9
$PUCSXDIR
 10
1.0
 20
0.0
 30
0.0
  9
$PUCSYDIR
 10
0.0
 20
1.0
 30
0.0
  9
$PUCSORTHOREF
  2

  9
$PUCSORTHOVIEW
 70
     0
  9
$PUCSORGTOP
 10
0.0
 20
0.0
 30
0.0
  9
$PUCSORGBOTTOM
 10
0.0
 20
0.0
 30
0.0
  9
$PUCSORGLEFT
 10
0.0
 20
0.0
 30
0.0
  9
$PUCSORGRIGHT
 10
0.0
 20
0.0
 30
0.0
  9
$PUCSORGFRONT
 10
0.0
 20
0.0
 30
0.0
  9
$PUCSORGBACK
 10
0.0
 20
0.0
 30
0.0
  9
$USERI1
 70
     0
  9
$USERI2
 70
     0
  9
$USERI3
 70
     0
  9
$USERI4
 70
     0
  9
$USERI5
 70
     0
  9
$USERR1
 40
20.0
  9
$USERR2
 40
0.0
  9
$USERR3
 40
0.0
  9
$USERR4
 40
0.0
  9
$USERR5
 40
0.0
  9
$WORLDVIEW
 70
     1
  9
$SHADEDGE
 70
     3
  9
$SHADEDIF
 70
    70
  9
$TILEMODE
 70
     1
  9
$MAXACTVP
 70
    64
  9
$PINSBASE
 10
0.0
 20
0.0
 30
0.0
  9
$PLIMCHECK
 70
     0
  9
$PEXTMIN
 10
1.000000000000000E+20
 20
1.000000000000000E+20
 30
1.000000000000000E+20
  9
$PEXTMAX
 10
-1.000000000000000E+20
 20
-1.000000000000000E+20
 30
-1.000000000000000E+20
  9
$PLIMMIN
 10
0.0
 20
0.0
  9
$PLIMMAX
 10
12.0
 20
9.0
  9
$UNITMODE
 70
     0
  9
$VISRETAIN
 70
     1
  9
$PLINEGEN
 70
     0
  9
$PSLTSCALE
 70
     1
  9
$TREEDEPTH
 70
  3020
  9
$CMLSTYLE
  2
Standard
  9
$CMLJUST
 70
     0
  9
$CMLSCALE
 40
1.0
  9
$PROXYGRAPHICS
 70
     1
  9
$MEASUREMENT
 70
     0
  9
$CELWEIGHT
370
    -1
  9
$ENDCAPS
280
     0
  9
$JOINSTYLE
280
     0
  9
$LWDISPLAY
290
     0
  9
$INSUNITS
 70
     0
  9
$HYPERLINKBASE
  1

  9
$STYLESHEET
  1

  9
$XEDIT
290
     1
  9
$CEPSNTYPE
380
     0
  9
$PSTYLEMODE
290
     1
  9
$FINGERPRINTGUID
  2
{19283F69-4EF3-4C94-9E3C-2660D1774BC5}
  9
$VERSIONGUID
  2
{D77EFAA1-97BA-4842-80B5-DF0D3987B256}
  9
$EXTNAMES
290
     1
  9
$PSVPSCALE
 40
0.0
  9
$OLESTARTUP
290
     0
  0
ENDSEC
  0
SECTION
  2
CLASSES
  0
CLASS
  1
ACDBDICTIONARYWDFLT
  2
AcDbDictionaryWithDefault
  3
ObjectDBX Classes
 90
        0
280
     0
281
     0
  0
CLASS
  1
MATERIAL
  2
AcDbMaterial
  3
ObjectDBX Classes
 90
     1153
280
     0
281
     0
  0
CLASS
  1
VISUALSTYLE
  2
AcDbVisualStyle
  3
ObjectDBX Classes
 90
     4095
280
     0
281
     0
  0
CLASS
  1
SCALE
  2
AcDbScale
  3
ObjectDBX Classes
 90
     1153
280
     0
281
     0
  0
CLASS
  1
TABLESTYLE
  2
AcDbTableStyle
  3
ObjectDBX Classes
 90
     4095
280
     0
281
     0
  0
CLASS
  1
MLEADERSTYLE
  2
AcDbMLeaderStyle
  3
ACDB_MLEADERSTYLE_CLASS
 90
     4095
280
     0
281
     0
  0
CLASS
  1
AMGSETTINGSOBJ
  2
AmgSettingsObj
  3
"AcadM|Product Description: AutoCAD Mechanical|Company: Autodesk, Inc."
 90
     1024
280
     0
281
     0
  0
CLASS
  1
ACME_DOCUMENT
  2
AcMeDbDoc
  3
AcMeServices
 90
     1024
280
     0
281
     0
  0
CLASS
  1
ACMESCOPE
  2
AcMeScope
  3
AcMeServices
 90
     1024
280
     0
281
     0
  0
CLASS
  1
ACMECOMMANDHISTORY
  2
AcMeCommandHistory
  3
AcMeServices
 90
     1024
280
     0
281
     0
  0
CLASS
  1
ACIMSYSVARMAN
  2
AcImSysVarManager
  3
AcMeServices
 90
     1024
280
     0
281
     0
  0
CLASS
  1
ACIMREALSYSVAR
  2
AcImRealSysVar
  3
AcMeServices
 90
     1024
280
     0
281
     0
  0
CLASS
  1
ACIMINTSYSVAR
  2
AcImIntSysVar
  3
AcMeServices
 90
     1024
280
     0
281
     0
  0
CLASS
  1
ACMEDRAWINGMAN
  2
AcMeDrawingMan
  3
AcMeServices
 90
     1024
280
     0
281
     0
  0
CLASS
  1
ACMEVIEW
  2
AcMeView
  3
AcMeServices
 90
     1024
280
     0
281
     0
  0
CLASS
  1
ACDBENTITYCACHE
  2
AcMeEntityCache
  3
AcMeServices
 90
     1024
280
     0
281
     0
  0
CLASS
  1
GSMANAGER
  2
AcMeGSManager
  3
AcMeServices
 90
     1024
280
     0
281
     0
  0
CLASS
  1
AMDTINTERNALREACTOR
  2
AmdtInternalReactor
  3
AcMeServices
 90
     1024
280
     0
281
     0
  0
CLASS
  1
ACMESTATEMGR
  2
AcMeStateMgr
  3
AcMeServices
 90
     1024
280
     0
281
     0
  0
CLASS
  1
ACGREFMASTER
  2
AcGrefMaster
  3
AcAttribServices
 90
     1024
280
     0
281
     0
  0
CLASS
  1
AM_DRAWING_MGR
  2
AcDmDwgMgr
  3
AcMechDwgViewMgmt
 90
     1024
280
     0
281
     0
  0
CLASS
  1
AM_DWG_DOCUMENT
  2
AcDmDwgDocument
  3
AcMechDwgViewMgmt
 90
     1024
280
     0
281
     0
  0
CLASS
  1
AM_DWG_SHEET
  2
AcDmSheet
  3
AcMechDwgViewMgmt
 90
     1024
280
     0
281
     0
  0
CLASS
  1
AM_VIEWDIMPARMAP
  2
AcDmViewDimParMap
  3
AcMechDwgViewMgmt
 90
     1024
280
     0
281
     0
  0
CLASS
  1
AM_DWGMGR_NAME
  2
AcDmDwgMgrName
  3
AcMechDwgViewMgmt
 90
     1024
280
     0
281
     0
  0
CLASS
  1
ACME_DATABASE
  2
AcMeDbDatabase
  3
AcMeServices
 90
     1024
280
     0
281
     0
  0
CLASS
  1
ACRFINSADJUSTERMGR
  2
AcRfInsAdjusterMgr
  3
AcMeServices
 90
     1024
280
     0
281
     0
  0
CLASS
  1
ACGREFACADMASTER
  2
AcGrefacadMaster
  3
AcGrefServices
 90
     1024
280
     0
281
     0
  0
CLASS
  1
AMDTMENUSTATEMGR
  2
AmdtMenuStateMgr
  3
McadcomServices
 90
     1024
280
     0
281
     0
  0
CLASS
  1
AMDTMCOMMENUSTATE
  2
AmdtMcomMenuState
  3
McadcomServices
 90
     1024
280
     0
281
     0
  0
CLASS
  1
AMIMASTER
  2
AmiMaster
  3
AmiServices
 90
     1024
280
     0
281
     0
  0
CLASS
  1
ASAPP
  2
AcAsAppObject
  3
AutoSurfServices
 90
     1024
280
     0
281
     0
  0
CLASS
  1
IM_STATIC_MAN
  2
AcImStaticVarManager
  3
AcMeServices
 90
     1024
280
     0
281
     0
  0
CLASS
  1
ACIMSTRSYSVAR
  2
AcImStrSysVar
  3
AcMeServices
 90
     1024
280
     0
281
     0
  0
CLASS
  1
ACIMDBLSTATICVAR
  2
AcImDblStaticVar
  3
AcMeServices
 90
     1024
280
     0
281
     0
  0
CLASS
  1
ACIMSTRSTATICVAR
  2
AcImStrStaticVar
  3
AcMeServices
 90
     1024
280
     0
281
     0
  0
CLASS
  1
ACIMINTSTATICVAR
  2
AcImIntStaticVar
  3
AcMeServices
 90
     1024
280
     0
281
     0
  0
CLASS
  1
ACASGREFMASTER
  2
AcAsGrefMaster
  3
AutoSurfResolverServices
 90
     1024
280
     0
281
     0
  0
CLASS
  1
ACADGREFMODULE
  2
AcAdGrefModule
  3
AdGrefServices
 90
     1024
280
     0
281
     0
  0
CLASS
  1
AMDTMAPISURFMOUDULE
  2
AmdtMApiSurfModule
  3
MApiSurfServices
 90
     1024
280
     0
281
     0
  0
CLASS
  1
MAPIAMMOUDLE
  2
MApiAmModule
  3
MApiAmServices
 90
     1024
280
     0
281
     0
  0
CLASS
  1
AMDTADMENUSTATE
  2
AmdtAdMenuState
  3
DesignerServices
 90
     1024
280
     0
281
     0
  0
CLASS
  1
ADAPPL
  2
AcAdAppl
  3
DesignerServices
 90
     1024
280
     0
281
     0
  0
CLASS
  1
DEPMGR
  2
AcAdDepMgr
  3
DesignerServices
 90
     1024
280
     0
281
     0
  0
CLASS
  1
PARAMMGR
  2
AcAdParamMgr
  3
DesignerServices
 90
     1024
280
     0
281
     0
  0
CLASS
  1
PARAMSCOPE
  2
AcAdParamScope
  3
DesignerServices
 90
     1024
280
     0
281
     0
  0
CLASS
  1
NAMEDAPPL
  2
AcAdNamedAppl
  3
DesignerServices
 90
     1024
280
     0
281
     0
  0
CLASS
  1
AMDTDMMENUSTATE
  2
AmdtDmMenuState
  3
AcMechDwgViewMgmt
 90
     1024
280
     0
281
     0
  0
CLASS
  1
MAPIADMODULE
  2
MApiAdModule
  3
MApiAdServices
 90
     1024
280
     0
281
     0
  0
CLASS
  1
AMDTAMMENUSTATE
  2
AmdtAmMenuState
  3
DesignerAssemblies
 90
     1024
280
     0
281
     0
  0
CLASS
  1
ACAMPROJECT
  2
AcAmProject
  3
DesignerAssemblies
 90
     1024
280
     0
281
     0
  0
CLASS
  1
ACAMGRCOMPDEF
  2
AcAmGrCompDef
  3
DesignerAssemblies
 90
     1024
280
     0
281
     0
  0
CLASS
  1
ACCMCONTEXT
  2
AcCmContext
  3
DesignerAssemblies
 90
     1024
280
     0
281
     0
  0
CLASS
  1
ACAMCOMPDEF
  2
AcAmCompDef
  3
DesignerAssemblies
 90
     1024
280
     0
281
     0
  0
CLASS
  1
ACAMCOMPDEFMGR
  2
AcAmCompDefMgr
  3
DesignerAssemblies
 90
     1024
280
     0
281
     0
  0
CLASS
  1
AMCONTEXTMGR
  2
AcAmContextMgr
  3
DesignerAssemblies
 90
     1024
280
     0
281
     0
  0
CLASS
  1
ACAMCONTEXTMODELER
  2
AcAmContextModeler
  3
DesignerAssemblies
 90
     1024
280
     0
281
     0
  0
CLASS
  1
ACMDATADICTIONARY
  2
AcmDataDictionary
  3
"AcmSymBB|Product Description: AutoCAD Mechanical|Company: Autodesk, Inc."
 90
     1024
280
     0
281
     0
  0
CLASS
  1
ACMDATAENTRYBLOCK
  2
AcmDataEntryBlock
  3
AcmSymBB|Product Description: AutoCAD Mechanical|Company: Autodesk, Inc.
 90
     1024
280
     0
281
     0
  0
CLASS
  1
ACRFATTGENMGR
  2
AcRfAttGeneralMgr
  3
AcAttribServices
 90
     1024
280
     0
281
     0
  0
CLASS
  1
ACRFOBJATTMGR
  2
AcRfObjAttGroupMgr
  3
AcAttribServices
 90
     1024
280
     0
281
     0
  0
CLASS
  1
ACRFMCADAPIATTHOLDER
  2
AcRfMCADAPIAttHolder
  3
AcAttribServices
 90
     1024
280
     0
281
     0
  0
CLASS
  1
AMDTSYSATTR
  2
AmdtSystemAttribute
  3
AcAttribServices
 90
     1024
280
     0
281
     0
  0
CLASS
  1
CATALOGSTATE
  2
AcAmCatalogState
  3
DesignerAssemblies
 90
     1024
280
     0
281
     0
  0
CLASS
  1
ACAMGRCOMPDEFSET
  2
AcAmGrCompDefSet
  3
DesignerAssemblies
 90
     1024
280
     0
281
     0
  0
CLASS
  1
AMDTBROWSERDBTAB
  2
AmdtBrowserDbTab
  3
McadcomServices
 90
     1024
280
     0
281
     0
  0
CLASS
  1
CBROWSERAPPOBJECT
  2
CBrowserAppObject
  3
McadcomServices
 90
     1024
280
     0
281
     0
  0
CLASS
  1
DM_PLACEHOLDER
  2
AcDmSelsetPlaceholder
  3
AcMechDwgViewMgmt
 90
     1024
280
     0
281
     0
  0
CLASS
  1
ACMSTANDARDANSI
  2
AcmStandardANSI
  3
"Amdt_StdImp|Product Description: AutoCAD Mechanical|Company: Autodesk, Inc."
 90
     1024
280
     0
281
     0
  0
CLASS
  1
ACMSURFSTANDARDANSI
  2
AcmSurfTextStdANSI
  3
"Amdt_StdImp|Product Description: AutoCAD Mechanical|Company: Autodesk, Inc."
 90
     1024
280
     0
281
     0
  0
CLASS
  1
ACMFCFSTANDARDANSI
  2
AcmFCFStdANSI
  3
"Amdt_StdImp|Product Description: AutoCAD Mechanical|Company: Autodesk, Inc."
 90
     1024
280
     0
281
     0
  0
CLASS
  1
ACMWELDSTANDARDANSI
  2
AcmWeldingStdANSI
  3
"Amdt_StdImp|Product Description: AutoCAD Mechanical|Company: Autodesk, Inc."
 90
     1024
280
     0
281
     0
  0
CLASS
  1
ACMIDSTANDARDANSI
  2
AcmIdStdANSI
  3
"Amdt_StdImp|Product Description: AutoCAD Mechanical|Company: Autodesk, Inc."
 90
     1024
280
     0
281
     0
  0
CLASS
  1
ACMDATUMSTANDARDANSI
  2
AcmDatumStdANSI
  3
"Amdt_StdImp|Product Description: AutoCAD Mechanical|Company: Autodesk, Inc."
 90
     1024
280
     0
281
     0
  0
CLASS
  1
ACMBOMSTANDARDANSI
  2
AcmBOMStdANSI
  3
"Amdt_StdImp|Product Description: AutoCAD Mechanical|Company: Autodesk, Inc."
 90
     1024
280
     0
281
     0
  0
CLASS
  1
ACMDETAILSTANDARDANSI
  2
AmdtDetailSymStdANSI
  3
"Amdt_StdImp|Product Description: AutoCAD Mechanical|Company: Autodesk, Inc."
 90
     1024
280
     0
281
     0
  0
CLASS
  1
ACMSECTIONSTANDARDANSI
  2
AmdtSectionSymStdANSI
  3
"Amdt_StdImp|Product Description: AutoCAD Mechanical|Company: Autodesk, Inc."
 90
     1024
280
     0
281
     0
  0
CLASS
  1
ACMCENTERLINESTANDARDANSI
  2
AmdtCenterLineStdANSI
  3
"Amdt_StdImp|Product Description: AutoCAD Mechanical|Company: Autodesk, Inc."
 90
     1024
280
     0
281
     0
  0
CLASS
  1
ACMTHREADLINESTANDARDANSI
  2
AmdtThreadLineStdANSI
  3
"Amdt_StdImp|Product Description: AutoCAD Mechanical|Company: Autodesk, Inc."
 90
     1024
280
     0
281
     0
  0
CLASS
  1
ACMNOTESTANDARDANSI
  2
AmdtNoteStdANSI
  3
"Amdt_StdImp|Product Description: AutoCAD Mechanical|Company: Autodesk, Inc."
 90
     1024
280
     0
281
     0
  0
CLASS
  1
ACMTAPERSTANDARDANSI
  2
AcmTaperStdANSI
  3
"Amdt_StdImp|Product Description: AutoCAD Mechanical|Company: Autodesk, Inc."
 90
     1024
280
     0
281
     0
  0
CLASS
  1
ACMANOOTATIONVIEWSTANDARDANSI
  2
AmdtAnViewStdANSI
  3
"Amdt_StdImp|Product Description: AutoCAD Mechanical|Company: Autodesk, Inc."
 90
     1024
280
     0
281
     0
  0
CLASS
  1
ACAMGLAYSTD
  2
AcAmgLayStd
  3
"AmgLay|Product Description: AutoCAD Mechanical|Company: Autodesk, Inc."
 90
     1024
280
     0
281
     0
  0
CLASS
  1
ACAMGDIMSTD
  2
AcAmgDimStd
  3
"AmgDim|Product Description: AutoCAD Mechanical|Company: Autodesk, Inc."
 90
     1024
280
     0
281
     0
  0
CLASS
  1
ACAMGHOLECHARTSTDANSI
  2
AcAmgHoleChartStdANSI
  3
AmgDim|Product Description: AutoCAD Mechanical|Company: Autodesk, Inc.
 90
     1024
280
     0
281
     0
  0
CLASS
  1
AMGOBJPROPCFG
  2
AmgObjPropCfg
  3
"AmgLay|Product Description: AutoCAD Mechanical|Company: Autodesk, Inc."
 90
     1025
280
     0
281
     0
  0
CLASS
  1
ACAMGTITLESTD
  2
AcAmgTitleStd
  3
"AmgTitle|Product Description: AutoCAD Mechanical|Company: Autodesk, Inc."
 90
     4095
280
     0
281
     0
  0
CLASS
  1
AMDTNOTETEMPLATEDB
  2
AmdtNoteTemplateDB
  3
AcmSymBB|Product Description: AutoCAD Mechanical|Company: Autodesk, Inc.
 90
     1024
280
     0
281
     0
  0
CLASS
  1
LAYER_INDEX
  2
AcDbLayerIndex
  3
ObjectDBX Classes
 90
        0
280
     0
281
     0
  0
CLASS
  1
IDBUFFER
  2
AcDbIdBuffer
  3
ObjectDBX Classes
 90
        0
280
     0
281
     0
  0
CLASS
  1
DICTIONARYVAR
  2
AcDbDictionaryVar
  3
ObjectDBX Classes
 90
        0
280
     0
281
     0
  0
CLASS
  1
CELLSTYLEMAP
  2
AcDbCellStyleMap
  3
ObjectDBX Classes
 90
     1152
280
     0
281
     0
  0
CLASS
  1
ACDBPLACEHOLDER
  2
AcDbPlaceHolder
  3
ObjectDBX Classes
 90
        0
280
     0
281
     0
  0
CLASS
  1
LAYOUT
  2
AcDbLayout
  3
ObjectDBX Classes
 90
        0
280
     0
281
     0
  0
ENDSEC
  0
SECTION
  2
TABLES
  0
TABLE
  2
VPORT
  5
2CAE
330
0
100
AcDbSymbolTable
 70
     1
  0
VPORT
  5
2D1E
330
2CAE
100
AcDbSymbolTableRecord
100
AcDbViewportTableRecord
  2
*ACTIVE
 70
     0
 10
0.0
 20
0.0
 11
1.0
 21
1.0
 12
0.0
 22
0.0
 13
0.0
 23
0.0
 14
1.0
 24
1.0
 15
0.0
 25
0.0
 16
0.0
 26
0.0
 36
1.0
 17
37.61445479189934
 27
-157.8140162837399
 37
0.0
 40
2503.307831522451
 41
1.712555066079294
 42
50.0
 43
0.0
 44
0.0
 50
0.0
 51
0.0
 71
     0
 72
   100
 73
     1
 74
     0
 75
     0
 76
     0
 77
     0
 78
     0
281
     0
 65
     0
110
0.0
120
0.0
130
0.0
111
1.0
121
0.0
131
0.0
112
0.0
122
1.0
132
0.0
 79
     0
146
0.0
  0
ENDTAB
  0
TABLE
  2
LTYPE
  5
2CAB
330
0
100
AcDbSymbolTable
 70
    20
  0
LTYPE
  5
2D08
330
2CAB
100
AcDbSymbolTableRecord
100
AcDbLinetypeTableRecord
  2
ByBlock
 70
     0
  3

 72
    65
 73
     0
 40
0.0
  0
LTYPE
  5
2D09
330
2CAB
100
AcDbSymbolTableRecord
100
AcDbLinetypeTableRecord
  2
ByLayer
 70
     0
  3

 72
    65
 73
     0
 40
0.0
  0
LTYPE
  5
2D0A
330
2CAB
100
AcDbSymbolTableRecord
100
AcDbLinetypeTableRecord
  2
CONTINUOUS
 70
     0
  3
実線
 72
    65
 73
     0
 40
0.0
  0
LTYPE
  5
2D1F
330
2CAB
100
AcDbSymbolTableRecord
100
AcDbLinetypeTableRecord
  2
DASHDOT
 70
     0
  3
____ _ ____ _ ____ _ ____ _ ____ _ ____ _ ____
 72
    65
 73
     4
 40
5.5
 49
4.0
 74
     0
 49
-0.6
 74
     0
 49
0.3
 74
     0
 49
-0.6
 74
     0
  0
LTYPE
  5
2D20
330
2CAB
100
AcDbSymbolTableRecord
100
AcDbLinetypeTableRecord
  2
HIDDEN
 70
     0
  3
Hidden __ __ __ __ __ __ __ __ __ __ __ __ __ _
 72
    65
 73
     2
 40
0.375
 49
0.25
 74
     0
 49
-0.125
 74
     0
  0
LTYPE
  5
2D21
330
2CAB
100
AcDbSymbolTableRecord
100
AcDbLinetypeTableRecord
  2
PHANTOM2
 70
     0
  3
Phantom (.5x) ___ _ _ ___ _ _ ___ _ _ ___ _ _
 72
    65
 73
     6
 40
1.25
 49
0.625
 74
     0
 49
-0.125
 74
     0
 49
0.125
 74
     0
 49
-0.125
 74
     0
 49
0.125
 74
     0
 49
-0.125
 74
     0
  0
LTYPE
  5
2D22
330
2CAB
100
AcDbSymbolTableRecord
100
AcDbLinetypeTableRecord
  2
CENTER
 70
     0
  3
Center ____ _ ____ _ ____ _ ____ _ ____ _ ____
 72
    65
 73
     4
 40
2.0
 49
1.25
 74
     0
 49
-0.25
 74
     0
 49
0.25
 74
     0
 49
-0.25
 74
     0
  0
LTYPE
  5
2D23
330
2CAB
100
AcDbSymbolTableRecord
100
AcDbLinetypeTableRecord
  2
ASULTYPE
 70
     0
  3
実線
 72
    65
 73
     2
 40
3.0
 49
2.5
 74
     0
 49
0.5
 74
     0
  0
LTYPE
  5
2D24
330
2CAB
100
AcDbSymbolTableRecord
100
AcDbLinetypeTableRecord
  2
ASVLTYPE
 70
     0
  3
__ __ __ __ __ __ __ __ __ __ __ __ __ __ __ __ __ __ __ __ __
 72
    65
 73
     2
 40
0.75
 49
0.5
 74
     0
 49
-0.25
 74
     0
  0
LTYPE
  5
2D25
330
2CAB
100
AcDbSymbolTableRecord
100
AcDbLinetypeTableRecord
  2
AM_ISO02W050
 70
     0
  3
__ __ __ __ __ __ __ __ __ __ __ __ __ __ __
 72
    65
 73
     2
 40
7.5
 49
6.0
 74
     0
 49
-1.5
 74
     0
  0
LTYPE
  5
2D26
330
2CAB
100
AcDbSymbolTableRecord
100
AcDbLinetypeTableRecord
  2
AM_ISO08W050
 70
     0
  3
____ . ____ . ____ . ____ . ____ . ____ . ____
 72
    65
 73
     4
 40
18.0
 49
12.0
 74
     0
 49
-1.5
 74
     0
 49
3.0
 74
     0
 49
-1.5
 74
     0
  0
LTYPE
  5
2D27
330
2CAB
100
AcDbSymbolTableRecord
100
AcDbLinetypeTableRecord
  2
AM_ISO09W050
 70
     0
  3
_____ . . _____ . . _____ . . ____ .. ____
 72
    65
 73
     6
 40
22.5
 49
12.0
 74
     0
 49
-1.5
 74
     0
 49
3.0
 74
     0
 49
-1.5
 74
     0
 49
3.0
 74
     0
 49
-1.5
 74
     0
  0
LTYPE
  5
2D28
330
2CAB
100
AcDbSymbolTableRecord
100
AcDbLinetypeTableRecord
  2
AMCONSTR
 70
     0
  3
_______________________
 72
    65
 73
     2
 40
9999.0
 49
9999.0
 74
     0
 49
0.0
 74
     0
  0
LTYPE
  5
2D29
330
2CAB
100
AcDbSymbolTableRecord
100
AcDbLinetypeTableRecord
  2
AM_ISO08W050X2
 70
     0
  3
__ . __ . __ . __ . __ . __
 72
    65
 73
     4
 40
9.0
 49
6.0
 74
     0
 49
-0.75
 74
     0
 49
1.5
 74
     0
 49
-0.75
 74
     0
  0
LTYPE
  5
2D2A
330
2CAB
100
AcDbSymbolTableRecord
100
AcDbLinetypeTableRecord
  2
AM_ISO02W050X2
 70
     0
  3
 _ _ _ _ _ _ _ _ _ _ _ _
 72
    65
 73
     2
 40
3.75
 49
3.0
 74
     0
 49
-0.75
 74
     0
  0
LTYPE
  5
2D2B
330
2CAB
100
AcDbSymbolTableRecord
100
AcDbLinetypeTableRecord
  2
AMZIGZAG
 70
     0
  3
/\/-/\/-/\/-/\/-/\/-/\/
 72
    65
 73
     2
 40
11.0001
 49
0.0001
 74
     0
 49
-11.0
 74
     0
  0
LTYPE
  5
2D2C
330
2CAB
100
AcDbSymbolTableRecord
100
AcDbLinetypeTableRecord
  2
CENTER2
 70
     0
  3
Center (.5x) ___ _ ___ _ ___ _ ___ _ ___ _ ___
 72
    65
 73
     4
 40
1.125
 49
0.75
 74
     0
 49
-0.125
 74
     0
 49
0.125
 74
     0
 49
-0.125
 74
     0
  0
LTYPE
  5
2D2D
330
2CAB
100
AcDbSymbolTableRecord
100
AcDbLinetypeTableRecord
  2
HIDDEN2
 70
     0
  3
Hidden (.5x) _ _ _ _ _ _ _ _ _ _ _ _ _ _ _ _ _
 72
    65
 73
     2
 40
0.1875
 49
0.125
 74
     0
 49
-0.0625
 74
     0
  0
LTYPE
  5
2D2E
330
2CAB
100
AcDbSymbolTableRecord
100
AcDbLinetypeTableRecord
  2
AMZIGZAG2
 70
     0
  3
/\/-/\/-/\/-/\/-/\/-/\/
 72
    65
 73
     2
 40
0.4401
 49
0.0001
 74
     0
 49
-0.4400000000000003
 74
     0
  0
LTYPE
  5
2D2F
330
2CAB
100
AcDbSymbolTableRecord
100
AcDbLinetypeTableRecord
  2
ACANSTGB
 70
     0
  3
__ . . __ . .
 72
    65
 73
     6
 40
0.35433070866
 49
0.15748031496
 74
     0
 49
-0.03937007874
 74
     0
 49
0.03937007874
 74
     0
 49
-0.03937007874
 74
     0
 49
0.03937007874
 74
     0
 49
-0.03937007874
 74
     0
  0
LTYPE
  5
2D30
330
2CAB
100
AcDbSymbolTableRecord
100
AcDbLinetypeTableRecord
  2
ACANSTGL
 70
     0
  3
_ _ _ _ _
 72
    65
 73
     2
 40
0.11811023622
 49
0.07874015748
 74
     0
 49
-0.03937007874
 74
     0
  0
LTYPE
  5
2D31
330
2CAB
100
AcDbSymbolTableRecord
100
AcDbLinetypeTableRecord
  2
CENTERX2
 70
     0
  3
________  __  ________  __  ________  __  _____
 72
    65
 73
     4
 40
4.0
 49
2.5
 74
     0
 49
-0.5
 74
     0
 49
0.5
 74
     0
 49
-0.5
 74
     0
  0
ENDTAB
  0
TABLE
  2
LAYER
  5
2CA8
330
0
100
AcDbSymbolTable
 70
    13
  0
LAYER
  5
2D02
102
{ACAD_XDICTIONARY
360
2E6E
102
}
330
2CA8
100
AcDbSymbolTableRecord
100
AcDbLayerTableRecord
  2
0
 70
     0
 62
     7
  6
CONTINUOUS
370
    -3
390
2CB5
  0
LAYER
  5
2D32
102
{ACAD_XDICTIONARY
360
2E70
102
}
330
2CA8
100
AcDbSymbolTableRecord
100
AcDbLayerTableRecord
  2
OUTLINE
 70
     0
 62
     3
  6
CONTINUOUS
370
    -3
390
2CB5
  0
LAYER
  5
2D33
102
{ACAD_XDICTIONARY
360
2E72
102
}
330
2CA8
100
AcDbSymbolTableRecord
100
AcDbLayerTableRecord
  2
SIZE
 70
     0
 62
    30
  6
CONTINUOUS
370
    -3
390
2CB5
  0
LAYER
  5
2D34
102
{ACAD_XDICTIONARY
360
2E74
102
}
330
2CA8
100
AcDbSymbolTableRecord
100
AcDbLayerTableRecord
  2
BASIS
 70
     0
 62
     6
  6
DASHDOT
370
    -3
390
2CB5
  0
LAYER
  5
2D35
102
{ACAD_XDICTIONARY
360
2E76
102
}
330
2CA8
100
AcDbSymbolTableRecord
100
AcDbLayerTableRecord
  2
DETAIL
 70
     0
 62
     5
  6
CONTINUOUS
370
    -3
390
2CB5
  0
LAYER
  5
2D36
102
{ACAD_XDICTIONARY
360
2E78
102
}
330
2CA8
100
AcDbSymbolTableRecord
100
AcDbLayerTableRecord
  2
ARRANGE
 70
     0
 62
     1
  6
CONTINUOUS
370
    -3
390
2CB5
  0
LAYER
  5
2D37
330
2CA8
100
AcDbSymbolTableRecord
100
AcDbLayerTableRecord
  2
DEFPOINTS
 70
     0
 62
     7
  6
CONTINUOUS
290
     0
370
    -3
390
2CB5
  0
LAYER
  5
2D38
102
{ACAD_XDICTIONARY
360
2E7A
102
}
330
2CA8
100
AcDbSymbolTableRecord
100
AcDbLayerTableRecord
  2
ETC
 70
     0
 62
    61
  6
CONTINUOUS
370
    -3
390
2CB5
  0
LAYER
  5
2D39
102
{ACAD_XDICTIONARY
360
2E7C
102
}
330
2CA8
100
AcDbSymbolTableRecord
100
AcDbLayerTableRecord
  2
FIX
 70
     0
 62
    11
  6
CONTINUOUS
370
    -3
390
2CB5
  0
LAYER
  5
2D3A
102
{ACAD_XDICTIONARY
360
2E7E
102
}
330
2CA8
100
AcDbSymbolTableRecord
100
AcDbLayerTableRecord
  2
NOTE
 70
     0
 62
     4
  6
CONTINUOUS
370
    -3
390
2CB5
  0
LAYER
  5
2D3B
102
{ACAD_XDICTIONARY
360
2E80
102
}
330
2CA8
100
AcDbSymbolTableRecord
100
AcDbLayerTableRecord
  2
SERVICESPACE
 70
     0
 62
     2
  6
DASHDOT
370
    -3
390
2CB5
  0
LAYER
  5
2D3C
102
{ACAD_XDICTIONARY
360
2E82
102
}
330
2CA8
100
AcDbSymbolTableRecord
100
AcDbLayerTableRecord
  2
SYMBOLLINE
 70
     0
 62
    15
  6
CONTINUOUS
370
    -3
390
2CB5
  0
LAYER
  5
2D3D
102
{ACAD_XDICTIONARY
360
2E84
102
}
330
2CA8
100
AcDbSymbolTableRecord
100
AcDbLayerTableRecord
  2
BASIC
 70
     0
 62
     6
  6
CENTERX2
370
    -3
390
2CB5
  0
ENDTAB
  0
TABLE
  2
STYLE
  5
2CA9
330
0
100
AcDbSymbolTable
 70
     5
  0
STYLE
  5
2D03
330
2CA9
100
AcDbSymbolTableRecord
100
AcDbTextStyleTableRecord
  2
STANDARD
 70
     0
 40
64.0
 41
0.9
 50
0.0
 71
     0
 42
64.0
  3
SIMPLEX.shx
  4
BIGFONT.shx
  0
STYLE
  5
2D07
330
2CA9
100
AcDbSymbolTableRecord
100
AcDbTextStyleTableRecord
  2
ANNOTATIVE
 70
     0
 40
0.0
 41
1.0
 50
0.0
 71
     0
 42
0.2
  3
txt
  4

1001
ACADANNOTATIVE
1000
AnnotativeData
1002
{
1070
     1
1070
     1
1002
}
  0
STYLE
  5
2D3E
330
2CA9
100
AcDbSymbolTableRecord
100
AcDbTextStyleTableRecord
  2

 70
     1
 40
0.0
 41
1.0
 50
0.0
 71
     0
 42
64.0
  3
genltshp.shx
  4

  0
STYLE
  5
2D3F
330
2CA9
100
AcDbSymbolTableRecord
100
AcDbTextStyleTableRecord
  2
ACANSTS
 70
     0
 40
1.0
 41
1.0
 50
0.0
 71
     0
 42
64.0
  3
romans.shx
  4
extfont.shx
  0
STYLE
  5
2D40
330
2CA9
100
AcDbSymbolTableRecord
100
AcDbTextStyleTableRecord
  2
ACANSGDT
 70
     0
 40
0.0
 41
1.0
 50
0.0
 71
     0
 42
64.0
  3
amgdt.shx
  4

  0
ENDTAB
  0
TABLE
  2
VIEW
  5
2CAC
330
0
100
AcDbSymbolTable
 70
     1
  0
VIEW
  5
2D41
330
2CAC
100
AcDbSymbolTableRecord
100
AcDbViewTableRecord
  2
ALL
 70
     0
 40
4282.619807999997
 10
0.0
 20
41.30990399999999
 41
5940.0
 11
0.0
 21
0.0
 31
1.0
 12
0.0
 22
0.0
 32
0.0
 42
50.0
 43
0.0
 44
0.0
 50
0.0
 71
     0
281
     0
 72
     1
110
0.0
120
0.0
130
0.0
111
1.0
121
0.0
131
0.0
112
0.0
122
1.0
132
0.0
 79
     0
146
0.0
  0
ENDTAB
  0
TABLE
  2
UCS
  5
2CAD
330
0
100
AcDbSymbolTable
 70
     0
  0
ENDTAB
  0
TABLE
  2
APPID
  5
2CAF
330
0
100
AcDbSymbolTable
 70
    30
  0
APPID
  5
2D04
330
2CAF
100
AcDbSymbolTableRecord
100
AcDbRegAppTableRecord
  2
ACAD
 70
     0
  0
APPID
  5
2D0B
330
2CAF
100
AcDbSymbolTableRecord
100
AcDbRegAppTableRecord
  2
ACADANNOTATIVE
 70
     0
  0
APPID
  5
2D15
330
2CAF
100
AcDbSymbolTableRecord
100
AcDbRegAppTableRecord
  2
ACAD_MLEADERVER
 70
     0
  0
APPID
  5
2D42
330
2CAF
100
AcDbSymbolTableRecord
100
AcDbRegAppTableRecord
  2
GENIUS_GENDIM_13
 70
     0
  0
APPID
  5
2D43
330
2CAF
100
AcDbSymbolTableRecord
100
AcDbRegAppTableRecord
  2
GENIUS_GENDTOL_13
 70
     0
  0
APPID
  5
2D44
330
2CAF
100
AcDbSymbolTableRecord
100
AcDbRegAppTableRecord
  2
GENIUS_GE3DTOL_13
 70
     0
  0
APPID
  5
2D45
330
2CAF
100
AcDbSymbolTableRecord
100
AcDbRegAppTableRecord
  2
MCAD_NO_VIS
 70
     0
  0
APPID
  5
2D46
330
2CAF
100
AcDbSymbolTableRecord
100
AcDbRegAppTableRecord
  2
ACAD_TEMP_GRAPHIC
 70
     0
  0
APPID
  5
2D47
330
2CAF
100
AcDbSymbolTableRecord
100
AcDbRegAppTableRecord
  2
AD_DRAW
 70
     0
  0
APPID
  5
2D48
330
2CAF
100
AcDbSymbolTableRecord
100
AcDbRegAppTableRecord
  2
ACATTRIBSERVICES
 70
     0
  0
APPID
  5
2D49
330
2CAF
100
AcDbSymbolTableRecord
100
AcDbRegAppTableRecord
  2
ASURF_PCURVE_APPNAME
 70
     0
  0
APPID
  5
2D4A
330
2CAF
100
AcDbSymbolTableRecord
100
AcDbRegAppTableRecord
  2
AMG_3D2D_5_0
 70
     0
  0
APPID
  5
2D4B
330
2CAF
100
AcDbSymbolTableRecord
100
AcDbRegAppTableRecord
  2
DESIGNERASSEMBLIES
 70
     0
  0
APPID
  5
2D4C
330
2CAF
100
AcDbSymbolTableRecord
100
AcDbRegAppTableRecord
  2
ACADM_DIM_EDIT
 70
     0
  0
APPID
  5
2D4D
330
2CAF
100
AcDbSymbolTableRecord
100
AcDbRegAppTableRecord
  2
AMDT_DM_ADJ
 70
     0
  0
APPID
  5
2D4E
330
2CAF
100
AcDbSymbolTableRecord
100
AcDbRegAppTableRecord
  2
ACAD_DSTYLE_DIMARC_LENGTH_
 70
     0
  0
APPID
  5
2D4F
330
2CAF
100
AcDbSymbolTableRecord
100
AcDbRegAppTableRecord
  2
ACAD_DSTYLE_DIMJOGGED_JOGA
 70
     0
  0
APPID
  5
2D50
330
2CAF
100
AcDbSymbolTableRecord
100
AcDbRegAppTableRecord
  2
ACAD_PSEXT
 70
     0
  0
APPID
  5
2D51
330
2CAF
100
AcDbSymbolTableRecord
100
AcDbRegAppTableRecord
  2
ACAD_EXEMPT_FROM_CAD_STANDARDS
 70
     0
  0
APPID
  5
2D52
330
2CAF
100
AcDbSymbolTableRecord
100
AcDbRegAppTableRecord
  2
ACAD_DSTYLE_DIMJAG
 70
     0
  0
APPID
  5
2D53
330
2CAF
100
AcDbSymbolTableRecord
100
AcDbRegAppTableRecord
  2
ACAD_DSTYLE_DIMTALN
 70
     0
  0
APPID
  5
2D54
330
2CAF
100
AcDbSymbolTableRecord
100
AcDbRegAppTableRecord
  2
AMG_3D2D_5_00
 70
     0
  0
APPID
  5
2D55
330
2CAF
100
AcDbSymbolTableRecord
100
AcDbRegAppTableRecord
  2
AMG_3D2D_5_01
 70
     0
  0
APPID
  5
2D56
330
2CAF
100
AcDbSymbolTableRecord
100
AcDbRegAppTableRecord
  2
AMG_3D2D_5_02
 70
     0
  0
APPID
  5
2D57
330
2CAF
100
AcDbSymbolTableRecord
100
AcDbRegAppTableRecord
  2
AMG_3D2D_5_03
 70
     0
  0
APPID
  5
2E15
330
2CAF
100
AcDbSymbolTableRecord
100
AcDbRegAppTableRecord
  2
AMG_3D2D_5.0
 70
     0
  0
APPID
  5
2EAE
330
2CAF
100
AcDbSymbolTableRecord
100
AcDbRegAppTableRecord
  2
ACAD_DSTYLE_DIMARC_LENGTH_SYMBOL
 70
     0
  0
APPID
  5
2EAF
330
2CAF
100
AcDbSymbolTableRecord
100
AcDbRegAppTableRecord
  2
ACAD_DSTYLE_DIM_LINETYPE
 70
     0
  0
APPID
  5
2EB0
330
2CAF
100
AcDbSymbolTableRecord
100
AcDbRegAppTableRecord
  2
ACAD_DSTYLE_DIM_EXT1_LINETYPE
 70
     0
  0
APPID
  5
2EB1
330
2CAF
100
AcDbSymbolTableRecord
100
AcDbRegAppTableRecord
  2
ACAD_DSTYLE_DIM_EXT2_LINETYPE
 70
     0
  0
ENDTAB
  0
TABLE
  2
DIMSTYLE
  5
2CB0
330
0
100
AcDbSymbolTable
 70
    10
100
AcDbDimStyleTable
 71
     1
340
2D58
  0
DIMSTYLE
105
2D05
330
2CB0
100
AcDbSymbolTableRecord
100
AcDbDimStyleTableRecord
  2
STANDARD
 70
     0
 41
12.0
 42
20.0
 44
20.0
 77
     1
 78
     8
140
64.0
141
0.0
147
10.0
172
     1
275
     1
279
     2
284
     7
285
     7
286
     7
340
2D03
  0
DIMSTYLE
105
2D06
330
2CB0
100
AcDbSymbolTableRecord
100
AcDbDimStyleTableRecord
  2
ANNOTATIVE
 70
     0
275
     1
279
     2
284
     7
285
     7
286
     7
340
2D03
1001
ACADANNOTATIVE
1000
AnnotativeData
1002
{
1070
     1
1070
     1
1002
}
  0
DIMSTYLE
105
2D58
330
2CB0
100
AcDbSymbolTableRecord
100
AcDbDimStyleTableRecord
  2
AM_ANSI
 70
     0
  4
mm
 41
0.12
 42
0.05
 43
0.5
 44
0.1
 47
0.1
 48
0.1
 78
     7
 79
     2
140
0.12
141
0.0
146
0.71
147
0.06
176
   256
177
   256
178
     2
274
     4
284
     7
340
2D03
371
    -1
372
    -1
1001
ACAD_DSTYLE_DIMARC_LENGTH_SYMBOL
1070
   379
1070
     1
1001
ACAD_DSTYLE_DIM_LINETYPE
1070
   380
1005
2D08
1001
ACAD_DSTYLE_DIM_EXT1_LINETYPE
1070
   381
1005
2D08
1001
ACAD_DSTYLE_DIM_EXT2_LINETYPE
1070
   382
1005
2D08
  0
DIMSTYLE
105
2D59
330
2CB0
100
AcDbSymbolTableRecord
100
AcDbDimStyleTableRecord
  2
AM_ANSI$3
 70
     0
  4
mm
 41
0.12
 42
0.05
 43
0.5
 44
0.1
 47
0.1
 48
0.1
 78
     7
 79
     2
140
0.12
141
0.0
146
0.71
147
0.06
176
   256
177
   256
178
     2
274
     4
284
     7
288
     1
289
     0
340
2D03
371
    -1
372
    -1
1001
ACAD_DSTYLE_DIMARC_LENGTH_SYMBOL
1070
   379
1070
     1
1001
ACAD_DSTYLE_DIM_LINETYPE
1070
   380
1005
2D08
1001
ACAD_DSTYLE_DIM_EXT1_LINETYPE
1070
   381
1005
2D08
1001
ACAD_DSTYLE_DIM_EXT2_LINETYPE
1070
   382
1005
2D08
  0
DIMSTYLE
105
2D5A
330
2CB0
100
AcDbSymbolTableRecord
100
AcDbDimStyleTableRecord
  2
AM_ANSI$4
 70
     0
  4
mm
 41
0.12
 42
0.05
 43
0.5
 44
0.1
 47
0.1
 48
0.1
 78
     7
 79
     2
140
0.12
141
0.0
146
0.71
147
0.06
176
   256
177
   256
178
     2
274
     4
284
     7
340
2D03
371
    -1
372
    -1
1001
ACAD_DSTYLE_DIMARC_LENGTH_SYMBOL
1070
   379
1070
     1
1001
ACAD_DSTYLE_DIM_LINETYPE
1070
   380
1005
2D08
1001
ACAD_DSTYLE_DIM_EXT1_LINETYPE
1070
   381
1005
2D08
1001
ACAD_DSTYLE_DIM_EXT2_LINETYPE
1070
   382
1005
2D08
  0
DIMSTYLE
105
2D5B
330
2CB0
100
AcDbSymbolTableRecord
100
AcDbDimStyleTableRecord
  2
AM_ANSI$7
 70
     0
  4
mm
 41
0.12
 42
0.05
 43
0.5
 44
0.1
 47
0.1
 48
0.1
 78
     7
 79
     2
140
0.12
141
0.0
146
0.71
147
0.06
176
   256
177
   256
178
     2
274
     4
284
     7
340
2D03
371
    -1
372
    -1
1001
ACAD_DSTYLE_DIMARC_LENGTH_SYMBOL
1070
   379
1070
     1
1001
ACAD_DSTYLE_DIM_LINETYPE
1070
   380
1005
2D08
1001
ACAD_DSTYLE_DIM_EXT1_LINETYPE
1070
   381
1005
2D08
1001
ACAD_DSTYLE_DIM_EXT2_LINETYPE
1070
   382
1005
2D08
  0
DIMSTYLE
105
2D5C
330
2CB0
100
AcDbSymbolTableRecord
100
AcDbDimStyleTableRecord
  2
AM_ANSI$SF
 70
     0
  4
mm
 41
0.12
 42
0.05
 43
0.5
 44
0.1
 47
0.1
 48
0.1
 75
     1
 76
     1
 78
     7
 79
     2
140
0.12
141
0.0
146
0.71
147
0.06
176
   256
177
   256
178
     2
274
     4
284
     7
340
2D03
371
    -1
372
    -1
1001
ACAD_DSTYLE_DIMARC_LENGTH_SYMBOL
1070
   379
1070
     1
1001
ACAD_DSTYLE_DIM_LINETYPE
1070
   380
1005
2D08
1001
ACAD_DSTYLE_DIM_EXT1_LINETYPE
1070
   381
1005
2D08
1001
ACAD_DSTYLE_DIM_EXT2_LINETYPE
1070
   382
1005
2D08
  0
DIMSTYLE
105
2D5D
330
2CB0
100
AcDbSymbolTableRecord
100
AcDbDimStyleTableRecord
  2
AM_ANSI$SH
 70
     0
  4
mm
 41
0.12
 42
0.05
 43
0.5
 44
0.1
 47
0.1
 48
0.1
 75
     1
 76
     1
 78
     7
 79
     2
140
0.12
141
0.0
146
0.71
147
0.06
173
     1
176
   256
177
   256
178
     2
274
     4
284
     7
340
2D03
343
2D71
371
    -1
372
    -1
1001
ACAD_DSTYLE_DIMARC_LENGTH_SYMBOL
1070
   379
1070
     1
1001
ACAD_DSTYLE_DIM_LINETYPE
1070
   380
1005
2D08
1001
ACAD_DSTYLE_DIM_EXT1_LINETYPE
1070
   381
1005
2D08
1001
ACAD_DSTYLE_DIM_EXT2_LINETYPE
1070
   382
1005
2D08
  0
DIMSTYLE
105
2D5E
330
2CB0
100
AcDbSymbolTableRecord
100
AcDbDimStyleTableRecord
  2
STANDARD1
 70
     0
 40
6.0
 41
2.5
 42
0.625
 43
6.0
 44
1.25
 47
1.0
 48
0.5
 77
     1
 78
     8
140
2.5
141
0.0
146
0.6
147
1.0
173
     1
275
     1
279
     2
284
     7
285
     7
286
     7
340
2D03
  0
DIMSTYLE
105
2D5F
330
2CB0
100
AcDbSymbolTableRecord
100
AcDbDimStyleTableRecord
  2
STANDARD$0
 70
     0
 41
12.0
 42
20.0
 44
20.0
 73
     0
 74
     0
 77
     1
 78
     8
140
64.0
141
0.0
147
10.0
172
     1
275
     1
279
     2
284
     7
285
     7
286
     7
340
2D03
  0
ENDTAB
  0
TABLE
  2
BLOCK_RECORD
  5
2CA7
330
0
100
AcDbSymbolTable
 70
    23
  0
BLOCK_RECORD
  5
2D1A
102
{ACAD_XDICTIONARY
360
2E86
102
}
330
2CA7
100
AcDbSymbolTableRecord
100
AcDbBlockTableRecord
  2
*Model_Space
340
2D1D
  0
BLOCK_RECORD
  5
2D16
330
2CA7
100
AcDbSymbolTableRecord
100
AcDbBlockTableRecord
  2
*Paper_Space
340
2D19
  0
BLOCK_RECORD
  5
2D67
330
2CA7
100
AcDbSymbolTableRecord
100
AcDbBlockTableRecord
  2
$MODEL_SPACE
340
0
  0
BLOCK_RECORD
  5
2D69
330
2CA7
100
AcDbSymbolTableRecord
100
AcDbBlockTableRecord
  2
$PAPER_SPACE
340
0
  0
BLOCK_RECORD
  5
2D6B
330
2CA7
100
AcDbSymbolTableRecord
100
AcDbBlockTableRecord
  2
_ORIGIN
340
0
  0
BLOCK_RECORD
  5
2D6D
330
2CA7
100
AcDbSymbolTableRecord
100
AcDbBlockTableRecord
  2
_DOTBLANK
340
0
102
{BLKREFS
331
202C
331
202D
331
2035
331
2036
331
203E
331
203F
331
2047
331
2048
331
2052
331
2053
331
205D
331
205E
331
2A1C
331
2A1D
331
2A21
331
2A22
331
2A26
331
2A27
331
2A2B
331
2A2C
331
2A30
331
2A31
331
2A35
331
2A36
331
2A3A
331
2A3B
331
2A3F
331
2A40
331
2A44
331
2A45
331
2A49
331
2A4A
102
}
  0
BLOCK_RECORD
  5
2D6F
330
2CA7
100
AcDbSymbolTableRecord
100
AcDbBlockTableRecord
  2
_OPEN30
340
0
102
{BLKREFS
331
2199
331
2586
331
2A56
102
}
  0
BLOCK_RECORD
  5
2D71
330
2CA7
100
AcDbSymbolTableRecord
100
AcDbBlockTableRecord
  2
GENAXEH
340
0
  0
BLOCK_RECORD
  5
2D73
330
2CA7
100
AcDbSymbolTableRecord
100
AcDbBlockTableRecord
  2
*U6
340
0
  0
BLOCK_RECORD
  5
2D75
330
2CA7
100
AcDbSymbolTableRecord
100
AcDbBlockTableRecord
  2
*D7
340
0
  0
BLOCK_RECORD
  5
2D77
330
2CA7
100
AcDbSymbolTableRecord
100
AcDbBlockTableRecord
  2
*U8
340
0
102
{BLKREFS
331
202E
102
}
  0
BLOCK_RECORD
  5
2D79
330
2CA7
100
AcDbSymbolTableRecord
100
AcDbBlockTableRecord
  2
*D9
340
0
  0
BLOCK_RECORD
  5
2D7B
330
2CA7
100
AcDbSymbolTableRecord
100
AcDbBlockTableRecord
  2
*U10
340
0
102
{BLKREFS
331
2037
102
}
  0
BLOCK_RECORD
  5
2D7D
330
2CA7
100
AcDbSymbolTableRecord
100
AcDbBlockTableRecord
  2
*D11
340
0
  0
BLOCK_RECORD
  5
2D7F
330
2CA7
100
AcDbSymbolTableRecord
100
AcDbBlockTableRecord
  2
*U12
340
0
102
{BLKREFS
331
2040
102
}
  0
BLOCK_RECORD
  5
2D81
330
2CA7
100
AcDbSymbolTableRecord
100
AcDbBlockTableRecord
  2
*D13
340
0
  0
BLOCK_RECORD
  5
2D83
330
2CA7
100
AcDbSymbolTableRecord
100
AcDbBlockTableRecord
  2
*U14
340
0
102
{BLKREFS
331
2049
102
}
  0
BLOCK_RECORD
  5
2D85
330
2CA7
100
AcDbSymbolTableRecord
100
AcDbBlockTableRecord
  2
*D15
340
0
  0
BLOCK_RECORD
  5
2D87
330
2CA7
100
AcDbSymbolTableRecord
100
AcDbBlockTableRecord
  2
*U16
340
0
102
{BLKREFS
331
2054
102
}
  0
BLOCK_RECORD
  5
2D89
330
2CA7
100
AcDbSymbolTableRecord
100
AcDbBlockTableRecord
  2
*D17
340
0
  0
BLOCK_RECORD
  5
2D8B
330
2CA7
100
AcDbSymbolTableRecord
100
AcDbBlockTableRecord
  2
*U18
340
0
102
{BLKREFS
331
205F
102
}
  0
BLOCK_RECORD
  5
2D8D
330
2CA7
100
AcDbSymbolTableRecord
100
AcDbBlockTableRecord
  2
*U19
340
0
  0
BLOCK_RECORD
  5
2D8F
330
2CA7
100
AcDbSymbolTableRecord
100
AcDbBlockTableRecord
  2
*U20
340
0
  0
BLOCK_RECORD
  5
2D91
330
2CA7
100
AcDbSymbolTableRecord
100
AcDbBlockTableRecord
  2
*U21
340
0
  0
ENDTAB
  0
ENDSEC
  0
SECTION
  2
BLOCKS
  0
BLOCK
  5
2D1B
330
2D1A
100
AcDbEntity
  8
0
100
AcDbBlockBegin
  2
*Model_Space
 70
     0
 10
0.0
 20
0.0
 30
0.0
  3
*Model_Space
  1

  0
ENDBLK
  5
2D1C
330
2D1A
100
AcDbEntity
  8
0
100
AcDbBlockEnd
  0
BLOCK
  5
2D17
330
2D16
100
AcDbEntity
 67
     1
  8
0
100
AcDbBlockBegin
  2
*Paper_Space
 70
     0
 10
0.0
 20
0.0
 30
0.0
  3
*Paper_Space
  1

  0
ENDBLK
  5
2D18
330
2D16
100
AcDbEntity
 67
     1
  8
0
100
AcDbBlockEnd
  0
BLOCK
  5
2D68
330
2D67
100
AcDbEntity
  8
0
100
AcDbBlockBegin
  2
$MODEL_SPACE
 70
     0
 10
0.0
 20
0.0
 30
0.0
  3
$MODEL_SPACE
  1

  0
ENDBLK
  5
2B10
330
2D67
100
AcDbEntity
  8
0
100
AcDbBlockEnd
  0
BLOCK
  5
2D6A
330
2D69
100
AcDbEntity
  8
0
100
AcDbBlockBegin
  2
$PAPER_SPACE
 70
     0
 10
0.0
 20
0.0
 30
0.0
  3
$PAPER_SPACE
  1

  0
ENDBLK
  5
2B0C
330
2D69
100
AcDbEntity
  8
0
100
AcDbBlockEnd
  0
BLOCK
  5
2D6C
330
2D6B
100
AcDbEntity
  8
0
100
AcDbBlockBegin
  2
_ORIGIN
 70
     0
 10
0.0
 20
0.0
 30
0.0
  3
_ORIGIN
  1

  0
CIRCLE
  5
880
330
2D6B
100
AcDbEntity
  8
0
  6
Continuous
 62
     7
100
AcDbCircle
 10
0.0
 20
0.0
 30
0.0
 40
0.5
  0
LINE
  5
881
330
2D6B
100
AcDbEntity
  8
0
  6
Continuous
 62
     7
100
AcDbLine
 10
0.0
 20
0.0
 30
0.0
 11
-1.0
 21
0.0
 31
0.0
  0
ENDBLK
  5
882
330
2D6B
100
AcDbEntity
  8
0
100
AcDbBlockEnd
  0
BLOCK
  5
2D6E
330
2D6D
100
AcDbEntity
  8
0
 62
     1
100
AcDbBlockBegin
  2
_DOTBLANK
 70
     0
 10
0.0
 20
0.0
 30
0.0
  3
_DOTBLANK
  1

  0
CIRCLE
  5
AB3
330
2D6D
100
AcDbEntity
  8
0
  6
ByBlock
 62
     0
100
AcDbCircle
 10
0.0
 20
0.0
 30
0.0
 40
0.5
  0
LINE
  5
AB4
330
2D6D
100
AcDbEntity
  8
0
  6
ByBlock
 62
     0
100
AcDbLine
 10
-0.5
 20
0.0
 30
0.0
 11
-1.0
 21
0.0
 31
0.0
  0
ENDBLK
  5
AB6
330
2D6D
100
AcDbEntity
  8
0
 62
     1
100
AcDbBlockEnd
  0
BLOCK
  5
2D70
330
2D6F
100
AcDbEntity
  8
0
 62
     1
100
AcDbBlockBegin
  2
_OPEN30
 70
     0
 10
0.0
 20
0.0
 30
0.0
  3
_OPEN30
  1

  0
LINE
  5
AB8
330
2D6F
100
AcDbEntity
  8
0
  6
ByBlock
 62
     0
100
AcDbLine
 10
-1.0
 20
0.26794919
 30
0.0
 11
0.0
 21
0.0
 31
0.0
  0
LINE
  5
AB9
330
2D6F
100
AcDbEntity
  8
0
  6
ByBlock
 62
     0
100
AcDbLine
 10
0.0
 20
0.0
 30
0.0
 11
-1.0
 21
-0.26794919
 31
0.0
  0
LINE
  5
ABA
330
2D6F
100
AcDbEntity
  8
0
  6
ByBlock
 62
     0
100
AcDbLine
 10
0.0
 20
0.0
 30
0.0
 11
-1.0
 21
0.0
 31
0.0
  0
ENDBLK
  5
ABC
330
2D6F
100
AcDbEntity
  8
0
 62
     1
100
AcDbBlockEnd
  0
BLOCK
  5
2D72
330
2D71
100
AcDbEntity
  8
0
100
AcDbBlockBegin
  2
GENAXEH
 70
     0
 10
0.0
 20
0.0
 30
0.0
  3
GENAXEH
  1

  0
LINE
  5
FDB
330
2D71
100
AcDbEntity
  8
0
100
AcDbLine
 10
-1.0
 20
0.0
 30
0.0
 11
1.0
 21
0.0
 31
0.0
  0
ENDBLK
  5
FDD
330
2D71
100
AcDbEntity
  8
0
100
AcDbBlockEnd
  0
BLOCK
  5
2D74
330
2D73
100
AcDbEntity
  8
0
100
AcDbBlockBegin
  2
*U6
 70
     1
 10
0.0
 20
0.0
 30
0.0
  3
*U6
  1

  0
ENDBLK
  5
1ED4
330
2D73
100
AcDbEntity
  8
0
100
AcDbBlockEnd
  0
BLOCK
  5
2D76
330
2D75
100
AcDbEntity
  8
0
100
AcDbBlockBegin
  2
*D7
 70
     1
 10
0.0
 20
0.0
 30
0.0
  3
*D7
  1

  0
LINE
  5
2029
330
2D75
100
AcDbEntity
  8
SIZE
 62
     0
100
AcDbLine
 10
-135.5
 20
-449.4732256776551
 30
0.0
 11
-135.5
 21
-638.0173952306003
 31
0.0
  0
LINE
  5
202A
330
2D75
100
AcDbEntity
  8
SIZE
 62
     0
100
AcDbLine
 10
135.5
 20
-449.4732256776551
 30
0.0
 11
135.5
 21
-638.0173952306003
 31
0.0
  0
LINE
  5
202B
330
2D75
100
AcDbEntity
  8
SIZE
 62
     0
100
AcDbLine
 10
-123.5
 20
-618.0173952306001
 30
0.0
 11
123.5
 21
-618.0173952306001
 31
0.0
  0
INSERT
  5
202C
330
2D75
100
AcDbEntity
  8
SIZE
 62
     0
100
AcDbBlockReference
  2
_DOTBLANK
 10
-135.5
 20
-618.0173952306001
 30
0.0
 41
12.0
 42
12.0
 43
12.0
 50
180.0
  0
INSERT
  5
202D
330
2D75
100
AcDbEntity
  8
SIZE
 62
     0
100
AcDbBlockReference
  2
_DOTBLANK
 10
135.5
 20
-618.0173952306001
 30
0.0
 41
12.0
 42
12.0
 43
12.0
  0
INSERT
  5
202E
330
2D75
100
AcDbEntity
  8
0
100
AcDbBlockReference
  2
*U8
 10
0.0
 20
0.0
 30
0.0
  0
POINT
  5
202F
330
2D75
100
AcDbEntity
  8
DEFPOINTS
 62
     0
100
AcDbPoint
 10
-135.5
 20
-429.473225677655
 30
0.0
  0
POINT
  5
2030
330
2D75
100
AcDbEntity
  8
DEFPOINTS
 62
     0
100
AcDbPoint
 10
135.5
 20
-429.473225677655
 30
0.0
  0
POINT
  5
2031
330
2D75
100
AcDbEntity
  8
DEFPOINTS
 62
     0
100
AcDbPoint
 10
135.5
 20
-618.0173952306001
 30
0.0
  0
ENDBLK
  5
1FDF
330
2D75
100
AcDbEntity
  8
0
100
AcDbBlockEnd
  0
BLOCK
  5
2D78
330
2D77
100
AcDbEntity
  8
0
100
AcDbBlockBegin
  2
*U8
 70
     1
 10
0.0
 20
0.0
 30
0.0
  3
*U8
  1

  0
TEXT
  5
21A6
330
2D77
100
AcDbEntity
  8
SIZE
 62
     0
100
AcDbText
 10
-61.7142857142857
 20
-608.0173952306003
 30
0.0
 40
64.0
  1
271
 41
0.9
100
AcDbText
  0
ENDBLK
  5
21A8
330
2D77
100
AcDbEntity
  8
0
100
AcDbBlockEnd
  0
BLOCK
  5
2D7A
330
2D79
100
AcDbEntity
  8
0
100
AcDbBlockBegin
  2
*D9
 70
     1
 10
0.0
 20
0.0
 30
0.0
  3
*D9
  1

  0
LINE
  5
2032
330
2D79
100
AcDbEntity
  8
SIZE
 62
     0
100
AcDbLine
 10
143.7000000000007
 20
-430.0
 30
0.0
 11
304.6432844803784
 21
-430.0
 31
0.0
  0
LINE
  5
2033
330
2D79
100
AcDbEntity
  8
SIZE
 62
     0
100
AcDbLine
 10
177.5
 20
-0.0000000000000057
 30
0.0
 11
304.6432844803785
 21
-0.0000000000000417
 31
0.0
  0
LINE
  5
2034
330
2D79
100
AcDbEntity
  8
SIZE
 62
     0
100
AcDbLine
 10
284.6432844803784
 20
-418.0
 30
0.0
 11
284.6432844803785
 21
-12.00000000000003
 31
0.0
  0
INSERT
  5
2035
330
2D79
100
AcDbEntity
  8
SIZE
 62
     0
100
AcDbBlockReference
  2
_DOTBLANK
 10
284.6432844803784
 20
-430.0
 30
0.0
 41
12.0
 42
12.0
 43
12.0
 50
270.0
  0
INSERT
  5
2036
330
2D79
100
AcDbEntity
  8
SIZE
 62
     0
100
AcDbBlockReference
  2
_DOTBLANK
 10
284.6432844803785
 20
-0.000000000000036
 30
0.0
 41
12.0
 42
12.0
 43
12.0
 50
90.0
  0
INSERT
  5
2037
330
2D79
100
AcDbEntity
  8
0
100
AcDbBlockReference
  2
*U10
 10
0.0
 20
0.0
 30
0.0
  0
POINT
  5
2038
330
2D79
100
AcDbEntity
  8
DEFPOINTS
 62
     0
100
AcDbPoint
 10
123.7000000000007
 20
-430.0
 30
0.0
  0
POINT
  5
2039
330
2D79
100
AcDbEntity
  8
DEFPOINTS
 62
     0
100
AcDbPoint
 10
157.5
 20
0.0
 30
0.0
  0
POINT
  5
203A
330
2D79
100
AcDbEntity
  8
DEFPOINTS
 62
     0
100
AcDbPoint
 10
284.6432844803785
 20
-0.000000000000036
 30
0.0
  0
ENDBLK
  5
1FEB
330
2D79
100
AcDbEntity
  8
0
100
AcDbBlockEnd
  0
BLOCK
  5
2D7C
330
2D7B
100
AcDbEntity
  8
0
100
AcDbBlockBegin
  2
*U10
 70
     1
 10
0.0
 20
0.0
 30
0.0
  3
*U10
  1

  0
TEXT
  5
21AA
330
2D7B
100
AcDbEntity
  8
SIZE
 62
     0
100
AcDbText
 10
274.6432844803785
 20
-289.0571428571429
 30
0.0
 40
64.0
  1
430
 50
90.0
 41
0.9
100
AcDbText
  0
ENDBLK
  5
21AC
330
2D7B
100
AcDbEntity
  8
0
100
AcDbBlockEnd
  0
BLOCK
  5
2D7E
330
2D7D
100
AcDbEntity
  8
0
100
AcDbBlockBegin
  2
*D11
 70
     1
 10
0.0
 20
0.0
 30
0.0
  3
*D11
  1

  0
LINE
  5
203B
330
2D7D
100
AcDbEntity
  8
SIZE
 62
     0
100
AcDbLine
 10
-140.0
 20
32.5
 30
0.0
 11
-140.0
 21
136.4516878685499
 31
0.0
  0
LINE
  5
203C
330
2D7D
100
AcDbEntity
  8
SIZE
 62
     0
100
AcDbLine
 10
140.0
 20
32.5
 30
0.0
 11
140.0
 21
136.4516878685499
 31
0.0
  0
LINE
  5
203D
330
2D7D
100
AcDbEntity
  8
SIZE
 62
     0
100
AcDbLine
 10
-128.0
 20
116.4516878685499
 30
0.0
 11
128.0
 21
116.4516878685499
 31
0.0
  0
INSERT
  5
203E
330
2D7D
100
AcDbEntity
  8
SIZE
 62
     0
100
AcDbBlockReference
  2
_DOTBLANK
 10
-140.0
 20
116.4516878685499
 30
0.0
 41
12.0
 42
12.0
 43
12.0
 50
180.0
  0
INSERT
  5
203F
330
2D7D
100
AcDbEntity
  8
SIZE
 62
     0
100
AcDbBlockReference
  2
_DOTBLANK
 10
140.0
 20
116.4516878685499
 30
0.0
 41
12.0
 42
12.0
 43
12.0
  0
INSERT
  5
2040
330
2D7D
100
AcDbEntity
  8
0
100
AcDbBlockReference
  2
*U12
 10
0.0
 20
0.0
 30
0.0
  0
POINT
  5
2041
330
2D7D
100
AcDbEntity
  8
DEFPOINTS
 62
     0
100
AcDbPoint
 10
-140.0
 20
12.5
 30
0.0
  0
POINT
  5
2042
330
2D7D
100
AcDbEntity
  8
DEFPOINTS
 62
     0
100
AcDbPoint
 10
140.0
 20
12.5
 30
0.0
  0
POINT
  5
2043
330
2D7D
100
AcDbEntity
  8
DEFPOINTS
 62
     0
100
AcDbPoint
 10
140.0
 20
116.4516878685499
 30
0.0
  0
ENDBLK
  5
1FF7
330
2D7D
100
AcDbEntity
  8
0
100
AcDbBlockEnd
  0
BLOCK
  5
2D80
330
2D7F
100
AcDbEntity
  8
0
100
AcDbBlockBegin
  2
*U12
 70
     1
 10
0.0
 20
0.0
 30
0.0
  3
*U12
  1

  0
TEXT
  5
21AE
330
2D7F
100
AcDbEntity
  8
SIZE
 62
     0
100
AcDbText
 10
-74.05714285714283
 20
126.4516878685499
 30
0.0
 40
64.0
  1
280
 41
0.9
100
AcDbText
  0
ENDBLK
  5
21B0
330
2D7F
100
AcDbEntity
  8
0
100
AcDbBlockEnd
  0
BLOCK
  5
2D82
330
2D81
100
AcDbEntity
  8
0
100
AcDbBlockBegin
  2
*D13
 70
     1
 10
0.0
 20
0.0
 30
0.0
  3
*D13
  1

  0
LINE
  5
2044
330
2D81
100
AcDbEntity
  8
SIZE
 62
     0
100
AcDbLine
 10
-157.5
 20
20.0
 30
0.0
 11
-157.5
 21
245.5794621189598
 31
0.0
  0
LINE
  5
2045
330
2D81
100
AcDbEntity
  8
SIZE
 62
     0
100
AcDbLine
 10
157.5
 20
20.0
 30
0.0
 11
157.5
 21
245.5794621189598
 31
0.0
  0
LINE
  5
2046
330
2D81
100
AcDbEntity
  8
SIZE
 62
     0
100
AcDbLine
 10
-145.5
 20
225.5794621189598
 30
0.0
 11
145.5
 21
225.5794621189598
 31
0.0
  0
INSERT
  5
2047
330
2D81
100
AcDbEntity
  8
SIZE
 62
     0
100
AcDbBlockReference
  2
_DOTBLANK
 10
-157.5
 20
225.5794621189598
 30
0.0
 41
12.0
 42
12.0
 43
12.0
 50
180.0
  0
INSERT
  5
2048
330
2D81
100
AcDbEntity
  8
SIZE
 62
     0
100
AcDbBlockReference
  2
_DOTBLANK
 10
157.5
 20
225.5794621189598
 30
0.0
 41
12.0
 42
12.0
 43
12.0
  0
INSERT
  5
2049
330
2D81
100
AcDbEntity
  8
0
100
AcDbBlockReference
  2
*U14
 10
0.0
 20
0.0
 30
0.0
  0
POINT
  5
204A
330
2D81
100
AcDbEntity
  8
DEFPOINTS
 62
     0
100
AcDbPoint
 10
-157.5
 20
0.0
 30
0.0
  0
POINT
  5
204B
330
2D81
100
AcDbEntity
  8
DEFPOINTS
 62
     0
100
AcDbPoint
 10
157.5
 20
0.0
 30
0.0
  0
POINT
  5
204C
330
2D81
100
AcDbEntity
  8
DEFPOINTS
 62
     0
100
AcDbPoint
 10
157.5
 20
225.5794621189598
 30
0.0
  0
ENDBLK
  5
2003
330
2D81
100
AcDbEntity
  8
0
100
AcDbBlockEnd
  0
BLOCK
  5
2D84
330
2D83
100
AcDbEntity
  8
0
100
AcDbBlockBegin
  2
*U14
 70
     1
 10
0.0
 20
0.0
 30
0.0
  3
*U14
  1

  0
TEXT
  5
21B2
330
2D83
100
AcDbEntity
  8
SIZE
 62
     0
100
AcDbText
 10
-68.57142857142857
 20
235.5794621189598
 30
0.0
 40
64.0
  1
315
 41
0.9
100
AcDbText
  0
ENDBLK
  5
21B4
330
2D83
100
AcDbEntity
  8
0
100
AcDbBlockEnd
  0
BLOCK
  5
2D86
330
2D85
100
AcDbEntity
  8
0
100
AcDbBlockBegin
  2
*D15
 70
     1
 10
0.0
 20
0.0
 30
0.0
  3
*D15
  1

  0
LINE
  5
204D
330
2D85
100
AcDbEntity
  8
SIZE
 62
     0
100
AcDbLine
 10
-177.5
 20
0.0000000000000057
 30
0.0
 11
-219.7694545525301
 21
0.0000000000000176
 31
0.0
  0
LINE
  5
204E
330
2D85
100
AcDbEntity
  8
SIZE
 62
     0
100
AcDbLine
 10
-177.5
 20
-7.999999999999993
 30
0.0
 11
-219.7694545525301
 21
-7.999999999999982
 31
0.0
  0
LINE
  5
204F
330
2D85
100
AcDbEntity
  8
SIZE
 62
     0
100
AcDbLine
 10
-199.76945455253
 20
12.00000000000001
 30
0.0
 11
-199.76945455253
 21
24.00000000000001
 31
0.0
  0
LINE
  5
2050
330
2D85
100
AcDbEntity
  8
SIZE
 62
     0
100
AcDbLine
 10
-199.76945455253
 20
-19.99999999999999
 30
0.0
 11
-199.7694545525301
 21
-90.4
 31
0.0
  0
LINE
  5
2051
330
2D85
100
AcDbEntity
  8
SIZE
 62
     0
100
AcDbLine
 10
-199.76945455253
 20
0.000000000000012
 30
0.0
 11
-199.76945455253
 21
-7.999999999999985
 31
0.0
  0
INSERT
  5
2052
330
2D85
100
AcDbEntity
  8
SIZE
 62
     0
100
AcDbBlockReference
  2
_DOTBLANK
 10
-199.76945455253
 20
0.000000000000012
 30
0.0
 41
12.0
 42
12.0
 43
12.0
 50
270.0
  0
INSERT
  5
2053
330
2D85
100
AcDbEntity
  8
SIZE
 62
     0
100
AcDbBlockReference
  2
_DOTBLANK
 10
-199.76945455253
 20
-7.999999999999985
 30
0.0
 41
12.0
 42
12.0
 43
12.0
 50
90.0
  0
INSERT
  5
2054
330
2D85
100
AcDbEntity
  8
0
100
AcDbBlockReference
  2
*U16
 10
0.0
 20
0.0
 30
0.0
  0
POINT
  5
2055
330
2D85
100
AcDbEntity
  8
DEFPOINTS
 62
     0
100
AcDbPoint
 10
-157.5
 20
0.0
 30
0.0
  0
POINT
  5
2056
330
2D85
100
AcDbEntity
  8
DEFPOINTS
 62
     0
100
AcDbPoint
 10
-157.5
 20
-8.0
 30
0.0
  0
POINT
  5
2057
330
2D85
100
AcDbEntity
  8
DEFPOINTS
 62
     0
100
AcDbPoint
 10
-199.76945455253
 20
-7.999999999999985
 30
0.0
  0
ENDBLK
  5
200F
330
2D85
100
AcDbEntity
  8
0
100
AcDbBlockEnd
  0
BLOCK
  5
2D88
330
2D87
100
AcDbEntity
  8
0
100
AcDbBlockBegin
  2
*U16
 70
     1
 10
0.0
 20
0.0
 30
0.0
  3
*U16
  1

  0
TEXT
  5
21B6
330
2D87
100
AcDbEntity
  8
SIZE
 62
     0
100
AcDbText
 10
-209.7694545525301
 20
-80.4
 30
0.0
 40
64.0
  1
8
 50
90.0
 41
0.9
100
AcDbText
  0
ENDBLK
  5
21B8
330
2D87
100
AcDbEntity
  8
0
100
AcDbBlockEnd
  0
BLOCK
  5
2D8A
330
2D89
100
AcDbEntity
  8
0
100
AcDbBlockBegin
  2
*D17
 70
     1
 10
0.0
 20
0.0
 30
0.0
  3
*D17
  1

  0
LINE
  5
2058
330
2D89
100
AcDbEntity
  8
SIZE
 62
     0
100
AcDbLine
 10
143.7000000000007
 20
-430.0
 30
0.0
 11
304.626441221626
 21
-430.0
 31
0.0
  0
LINE
  5
2059
330
2D89
100
AcDbEntity
  8
SIZE
 62
     0
100
AcDbLine
 10
143.1000000000022
 20
-441.0000000000001
 30
0.0
 11
304.626441221626
 21
-441.0000000000001
 31
0.0
  0
LINE
  5
205A
330
2D89
100
AcDbEntity
  8
SIZE
 62
     0
100
AcDbLine
 10
284.626441221626
 20
-418.0
 30
0.0
 11
284.626441221626
 21
-406.0
 31
0.0
  0
LINE
  5
205B
330
2D89
100
AcDbEntity
  8
SIZE
 62
     0
100
AcDbLine
 10
284.626441221626
 20
-453.0
 30
0.0
 11
284.626441221626
 21
-542.6000000000001
 31
0.0
  0
LINE
  5
205C
330
2D89
100
AcDbEntity
  8
SIZE
 62
     0
100
AcDbLine
 10
284.626441221626
 20
-430.0
 30
0.0
 11
284.626441221626
 21
-441.0000000000001
 31
0.0
  0
INSERT
  5
205D
330
2D89
100
AcDbEntity
  8
SIZE
 62
     0
100
AcDbBlockReference
  2
_DOTBLANK
 10
284.626441221626
 20
-430.0
 30
0.0
 41
12.0
 42
12.0
 43
12.0
 50
270.0
  0
INSERT
  5
205E
330
2D89
100
AcDbEntity
  8
SIZE
 62
     0
100
AcDbBlockReference
  2
_DOTBLANK
 10
284.626441221626
 20
-441.0000000000001
 30
0.0
 41
12.0
 42
12.0
 43
12.0
 50
90.0
  0
INSERT
  5
205F
330
2D89
100
AcDbEntity
  8
0
100
AcDbBlockReference
  2
*U18
 10
0.0
 20
0.0
 30
0.0
  0
POINT
  5
2060
330
2D89
100
AcDbEntity
  8
DEFPOINTS
 62
     0
100
AcDbPoint
 10
123.7000000000007
 20
-430.0
 30
0.0
  0
POINT
  5
2061
330
2D89
100
AcDbEntity
  8
DEFPOINTS
 62
     0
100
AcDbPoint
 10
123.1000000000022
 20
-441.0
 30
0.0
  0
POINT
  5
2062
330
2D89
100
AcDbEntity
  8
DEFPOINTS
 62
     0
100
AcDbPoint
 10
284.626441221626
 20
-441.0000000000001
 30
0.0
  0
ENDBLK
  5
201D
330
2D89
100
AcDbEntity
  8
0
100
AcDbBlockEnd
  0
BLOCK
  5
2D8C
330
2D8B
100
AcDbEntity
  8
0
100
AcDbBlockBegin
  2
*U18
 70
     1
 10
0.0
 20
0.0
 30
0.0
  3
*U18
  1

  0
TEXT
  5
21BA
330
2D8B
100
AcDbEntity
  8
SIZE
 62
     0
100
AcDbText
 10
274.6264412216261
 20
-532.6
 30
0.0
 40
64.0
  1
11
 50
90.0
 41
0.9
100
AcDbText
  0
ENDBLK
  5
21BC
330
2D8B
100
AcDbEntity
  8
0
100
AcDbBlockEnd
  0
BLOCK
  5
2D8E
330
2D8D
100
AcDbEntity
  8
0
100
AcDbBlockBegin
  2
*U19
 70
     1
 10
0.0
 20
0.0
 30
0.0
  3
*U19
  1

  0
INSERT
  5
2199
330
2D8D
100
AcDbEntity
  8
NOTE
100
AcDbBlockReference
  2
_OPEN30
 10
-140.0
 20
0.0
 30
0.0
 41
12.0
 42
12.0
 43
12.0
 50
312.6090116116894
  0
POLYLINE
  5
219A
330
2D8D
100
AcDbEntity
  8
NOTE
100
AcDb2dPolyline
 66
     1
 10
0.0
 20
0.0
 30
0.0
  0
VERTEX
  5
219B
330
219A
100
AcDbEntity
  8
NOTE
100
AcDbVertex
100
AcDb2dVertex
 10
-148.1239008361894
 20
8.831887408915472
 30
0.0
  0
VERTEX
  5
219C
330
219A
100
AcDbEntity
  8
NOTE
100
AcDbVertex
100
AcDb2dVertex
 10
-227.8693999922543
 20
95.5270950580134
 30
0.0
  0
VERTEX
  5
219D
330
219A
100
AcDbEntity
  8
NOTE
100
AcDbVertex
100
AcDb2dVertex
 10
-776.4522571351115
 20
95.5270950580134
 30
0.0
  0
SEQEND
  5
219E
330
219A
100
AcDbEntity
  8
NOTE
  0
ENDBLK
  5
21A0
330
2D8D
100
AcDbEntity
  8
0
100
AcDbBlockEnd
  0
BLOCK
  5
2D90
330
2D8F
100
AcDbEntity
  8
0
100
AcDbBlockBegin
  2
*U20
 70
     1
 10
0.0
 20
0.0
 30
0.0
  3
*U20
  1

  0
TEXT
  5
21A2
330
2D8F
100
AcDbEntity
  8
NOTE
100
AcDbText
 10
-773.7093999922541
 20
113.5270950580134
 30
0.0
 40
64.0
  1
4×φ10取付穴
 41
0.9
100
AcDbText
  0
ENDBLK
  5
21A4
330
2D8F
100
AcDbEntity
  8
0
100
AcDbBlockEnd
  0
BLOCK
  5
2D92
330
2D91
100
AcDbEntity
  8
0
100
AcDbBlockBegin
  2
*U21
 70
     1
 10
0.0
 20
0.0
 30
0.0
  3
*U21
  1

  0
INSERT
  5
2586
330
2D91
100
AcDbEntity
  8
NOTE
100
AcDbBlockReference
  2
_OPEN30
 10
140.0
 20
140.0
 30
0.0
 41
12.0
 42
12.0
 43
12.0
 50
230.7091310502217
  0
POLYLINE
  5
2587
330
2D91
100
AcDbEntity
  8
NOTE
100
AcDb2dPolyline
 66
     1
 10
0.0
 20
0.0
 30
0.0
  0
VERTEX
  5
2588
330
2587
100
AcDbEntity
  8
NOTE
100
AcDbVertex
100
AcDb2dVertex
 10
147.599090480922
 20
149.2872936780722
 30
0.0
  0
VERTEX
  5
2589
330
2587
100
AcDbEntity
  8
NOTE
100
AcDbVertex
100
AcDb2dVertex
 10
203.4345623698609
 20
217.5270950580134
 30
0.0
  0
VERTEX
  5
258A
330
2587
100
AcDbEntity
  8
NOTE
100
AcDbVertex
100
AcDb2dVertex
 10
752.0174195127182
 20
217.5270950580134
 30
0.0
  0
SEQEND
  5
258B
330
2587
100
AcDbEntity
  8
NOTE
  0
ENDBLK
  5
258C
330
2D91
100
AcDbEntity
  8
0
100
AcDbBlockEnd
  0
ENDSEC
  0
SECTION
  2
ENTITIES
  0
TEXT
  5
953
330
2D1A
100
AcDbEntity
  8
OUTLINE
  6
Continuous
 62
     3
100
AcDbText
 10
-418.231467
 20
13.715189
 30
0.0
 40
64.0
  1
 
 41
0.9
100
AcDbText
  0
TEXT
  5
954
330
2D1A
100
AcDbEntity
  8
OUTLINE
  6
Continuous
 62
     3
100
AcDbText
 10
-418.231467
 20
13.715189
 30
0.0
 40
64.0
  1
 
 41
0.9
100
AcDbText
  0
TEXT
  5
955
330
2D1A
100
AcDbEntity
  8
OUTLINE
  6
Continuous
 62
     3
100
AcDbText
 10
1341.41903
 20
-706.0588199999997
 30
0.0
 40
64.0
  1
 
 41
0.9
100
AcDbText
  0
TEXT
  5
956
330
2D1A
100
AcDbEntity
  8
OUTLINE
  6
Continuous
 62
     3
100
AcDbText
 10
1341.41903
 20
-706.0588199999997
 30
0.0
 40
64.0
  1
 
 41
0.9
100
AcDbText
  0
TEXT
  5
957
330
2D1A
100
AcDbEntity
  8
OUTLINE
  6
Continuous
 62
     3
100
AcDbText
 10
1341.41903
 20
-706.0588199999997
 30
0.0
 40
64.0
  1
 
 41
0.9
100
AcDbText
  0
TEXT
  5
958
330
2D1A
100
AcDbEntity
  8
OUTLINE
  6
Continuous
 62
     3
100
AcDbText
 10
1341.41903
 20
-706.0588199999997
 30
0.0
 40
64.0
  1
 
 41
0.9
100
AcDbText
  0
CIRCLE
  5
2975
330
2D1A
100
AcDbEntity
  8
ARRANGE
100
AcDbCircle
 10
-0.000000000001819
 20
-0.000000000001819
 30
0.0
 40
40.0
  0
LINE
  5
2976
330
2D1A
100
AcDbEntity
  8
ARRANGE
100
AcDbLine
 10
-14.31498655004725
 20
-14.31498655005043
 30
0.0
 11
14.31498655004361
 21
14.31498655004725
 31
0.0
  0
LINE
  5
2977
330
2D1A
100
AcDbEntity
  8
ARRANGE
100
AcDbLine
 10
14.31498655004361
 20
-14.31498655005043
 30
0.0
 11
-14.31498655005452
 21
14.31498655004952
 31
0.0
  0
LINE
  5
2978
330
2D1A
100
AcDbEntity
  8
BASIC
100
AcDbLine
 10
-500.0000000000055
 20
0.000000000001819
 30
0.0
 11
499.9999999999982
 21
-0.000000000001819
 31
0.0
  0
LINE
  5
2979
330
2D1A
100
AcDbEntity
  8
BASIC
100
AcDbLine
 10
-0.000000000001819
 20
500.0000000000012
 30
0.0
 11
-0.000000000001819
 21
-1181.456168916864
 31
0.0
  0
CIRCLE
  5
297A
330
2D1A
100
AcDbEntity
  8
OUTLINE
100
AcDbCircle
 10
-450.0000000000016
 20
450.0000000000004
 30
0.0
 40
7.5
  0
CIRCLE
  5
297B
330
2D1A
100
AcDbEntity
  8
OUTLINE
100
AcDbCircle
 10
449.9999999999908
 20
450.0000000000004
 30
0.0
 40
7.5
  0
LINE
  5
297C
330
2D1A
100
AcDbEntity
  8
DETAIL
100
AcDbLine
 10
474.9999999999982
 20
-474.9999999999984
 30
0.0
 11
436.9999999999982
 21
-474.9999999999984
 31
0.0
  0
CIRCLE
  5
297D
330
2D1A
100
AcDbEntity
  8
OUTLINE
100
AcDbCircle
 10
449.9999999999982
 20
-449.9999999999984
 30
0.0
 40
7.5
  0
LINE
  5
297E
330
2D1A
100
AcDbEntity
  8
DETAIL
100
AcDbLine
 10
-437.0000000000016
 20
-474.9999999999984
 30
0.0
 11
-475.0000000000088
 21
-474.9999999999984
 31
0.0
  0
CIRCLE
  5
297F
330
2D1A
100
AcDbEntity
  8
OUTLINE
100
AcDbCircle
 10
-450.0000000000016
 20
-449.9999999999984
 30
0.0
 40
7.5
  0
LINE
  5
2980
330
2D1A
100
AcDbEntity
  8
DETAIL
100
AcDbLine
 10
436.9999999999982
 20
436.0000000000022
 30
0.0
 11
-437.0000000000016
 21
436.0000000000009
 31
0.0
  0
LINE
  5
2981
330
2D1A
100
AcDbEntity
  8
DETAIL
100
AcDbLine
 10
-437.0000000000016
 20
-363.9999999999985
 30
0.0
 11
-437.0000000000016
 21
-614.9999999999985
 31
0.0
  0
LINE
  5
2982
330
2D1A
100
AcDbEntity
  8
DETAIL
100
AcDbLine
 10
436.9999999999982
 20
-614.9999999999985
 30
0.0
 11
436.9999999999982
 21
-363.9999999999985
 31
0.0
  0
LINE
  5
2983
330
2D1A
100
AcDbEntity
  8
DETAIL
100
AcDbLine
 10
-475.0000000000016
 20
475.0000000000023
 30
0.0
 11
474.9999999999982
 21
475.0000000000004
 31
0.0
  0
LINE
  5
2984
330
2D1A
100
AcDbEntity
  8
DETAIL
100
AcDbLine
 10
-437.0000000000016
 20
-363.9999999999985
 30
0.0
 11
-437.0000000000016
 21
436.0000000000009
 31
0.0
  0
LINE
  5
2985
330
2D1A
100
AcDbEntity
  8
DETAIL
100
AcDbLine
 10
436.9999999999982
 20
436.0000000000022
 30
0.0
 11
436.9999999999982
 21
-363.9999999999985
 31
0.0
  0
CIRCLE
  5
2986
330
2D1A
100
AcDbEntity
  8
OUTLINE
100
AcDbCircle
 10
-200.0000000000018
 20
450.0000000000012
 30
0.0
 40
7.5
  0
CIRCLE
  5
2987
330
2D1A
100
AcDbEntity
  8
OUTLINE
100
AcDbCircle
 10
-250.0000000000018
 20
450.0000000000012
 30
0.0
 40
7.5
  0
CIRCLE
  5
2988
330
2D1A
100
AcDbEntity
  8
OUTLINE
100
AcDbCircle
 10
199.9999999999982
 20
450.0000000000023
 30
0.0
 40
7.5
  0
CIRCLE
  5
2989
330
2D1A
100
AcDbEntity
  8
OUTLINE
100
AcDbCircle
 10
249.9999999999982
 20
450.0000000000023
 30
0.0
 40
7.5
  0
LINE
  5
298A
330
2D1A
100
AcDbEntity
  8
DETAIL
100
AcDbLine
 10
-475.0000000000088
 20
-474.9999999999984
 30
0.0
 11
-475.0000000000016
 21
475.0000000000023
 31
0.0
  0
CIRCLE
  5
298B
330
2D1A
100
AcDbEntity
  8
OUTLINE
100
AcDbCircle
 10
-450.0000000000016
 20
250.0000000000014
 30
0.0
 40
7.5
  0
CIRCLE
  5
298C
330
2D1A
100
AcDbEntity
  8
OUTLINE
100
AcDbCircle
 10
-450.0000000000016
 20
200.0000000000014
 30
0.0
 40
7.5
  0
CIRCLE
  5
298D
330
2D1A
100
AcDbEntity
  8
OUTLINE
100
AcDbCircle
 10
-450.0000000000016
 20
-199.9999999999984
 30
0.0
 40
7.5
  0
CIRCLE
  5
298E
330
2D1A
100
AcDbEntity
  8
OUTLINE
100
AcDbCircle
 10
-450.0000000000016
 20
-249.9999999999986
 30
0.0
 40
7.5
  0
LINE
  5
298F
330
2D1A
100
AcDbEntity
  8
DETAIL
100
AcDbLine
 10
474.9999999999982
 20
475.0000000000004
 30
0.0
 11
474.9999999999982
 21
-474.9999999999984
 31
0.0
  0
CIRCLE
  5
2990
330
2D1A
100
AcDbEntity
  8
OUTLINE
100
AcDbCircle
 10
449.9999999999982
 20
250.0000000000014
 30
0.0
 40
7.5
  0
CIRCLE
  5
2991
330
2D1A
100
AcDbEntity
  8
OUTLINE
100
AcDbCircle
 10
449.9999999999982
 20
200.0000000000014
 30
0.0
 40
7.5
  0
CIRCLE
  5
2992
330
2D1A
100
AcDbEntity
  8
OUTLINE
100
AcDbCircle
 10
449.9999999999982
 20
-199.9999999999984
 30
0.0
 40
7.5
  0
CIRCLE
  5
2993
330
2D1A
100
AcDbEntity
  8
OUTLINE
100
AcDbCircle
 10
449.9999999999982
 20
-249.9999999999986
 30
0.0
 40
7.5
  0
LINE
  5
2994
330
2D1A
100
AcDbEntity
  8
DETAIL
100
AcDbLine
 10
436.9999999999982
 20
-614.9999999999985
 30
0.0
 11
436.9999999999982
 21
-1139.639594154068
 31
0.0
  0
LINE
  5
2995
330
2D1A
100
AcDbEntity
  8
DETAIL
100
AcDbLine
 10
436.9999999999982
 20
-1140.012141279106
 30
0.0
 11
436.9999999999982
 21
-1156.456168916863
 31
0.0
  0
LINE
  5
2996
330
2D1A
100
AcDbEntity
  8
DETAIL
100
AcDbLine
 10
-437.0000000000016
 20
-1140.012141279106
 30
0.0
 11
-437.0000000000016
 21
-1156.456168916864
 31
0.0
  0
LINE
  5
2997
330
2D1A
100
AcDbEntity
  8
DETAIL
100
AcDbLine
 10
-437.0000000000016
 20
-614.9999999999985
 30
0.0
 11
-437.0000000000016
 21
-1139.639594154068
 31
0.0
  0
LINE
  5
2998
330
2D1A
100
AcDbEntity
  8
DETAIL
100
AcDbLine
 10
-437.0000000000016
 20
-1139.639594154068
 30
0.0
 11
-437.0000000000016
 21
-1140.012141279106
 31
0.0
  0
LINE
  5
2999
330
2D1A
100
AcDbEntity
  8
DETAIL
100
AcDbLine
 10
-432.0000000000018
 20
-1135.101297134227
 30
0.0
 11
-437.0000000000016
 21
-1139.639594154069
 31
0.0
  0
LINE
  5
299A
330
2D1A
100
AcDbEntity
  8
DETAIL
100
AcDbLine
 10
429.4999999999982
 20
-1135.101297134227
 30
0.0
 11
-429.5000000000015
 21
-1135.101297134227
 31
0.0
  0
LINE
  5
299B
330
2D1A
100
AcDbEntity
  8
DETAIL
100
AcDbLine
 10
436.9999999999982
 20
-1139.639594154069
 30
0.0
 11
431.9999999999979
 21
-1135.101297134227
 31
0.0
  0
LINE
  5
299C
330
2D1A
100
AcDbEntity
  8
DETAIL
100
AcDbLine
 10
436.9999999999982
 20
-1140.012141279106
 30
0.0
 11
436.9999999999982
 21
-1139.639594154068
 31
0.0
  0
LINE
  5
299D
330
2D1A
100
AcDbEntity
  8
DETAIL
100
AcDbLine
 10
447.499999999998
 20
-1019.258994552423
 30
0.0
 11
437.0000000000016
 21
-1019.258994552423
 31
0.0
  0
LINE
  5
299E
330
2D1A
100
AcDbEntity
  8
DETAIL
100
AcDbLine
 10
-437.0000000000016
 20
-1019.258994552424
 30
0.0
 11
-447.5000000000017
 21
-1019.258994552424
 31
0.0
  0
LINE
  5
299F
330
2D1A
100
AcDbEntity
  8
DETAIL
100
AcDbLine
 10
448.5000000000052
 20
-1154.592933442282
 30
0.0
 11
448.5000000000052
 21
-1144.667459589654
 31
0.0
  0
LINE
  5
29A0
330
2D1A
100
AcDbEntity
  8
DETAIL
100
AcDbLine
 10
448.5000000000052
 20
-1019.258994552423
 30
0.0
 11
447.5000000000052
 21
-1019.258994552423
 31
0.0
  0
LINE
  5
29A1
330
2D1A
100
AcDbEntity
  8
DETAIL
100
AcDbLine
 10
448.5000000000052
 20
-1139.095426183621
 30
0.0
 11
448.5000000000052
 21
-1019.258994552423
 31
0.0
  0
LINE
  5
29A2
330
2D1A
100
AcDbEntity
  8
DETAIL
100
AcDbLine
 10
448.5000000000052
 20
-1144.667459589654
 30
0.0
 11
448.5000000000052
 21
-1139.095426183621
 31
0.0
  0
LINE
  5
29A3
330
2D1A
100
AcDbEntity
  8
DETAIL
100
AcDbLine
 10
-448.5000000000018
 20
-1019.258994552424
 30
0.0
 11
-447.5000000000017
 21
-1019.258994552424
 31
0.0
  0
LINE
  5
29A4
330
2D1A
100
AcDbEntity
  8
DETAIL
100
AcDbLine
 10
-448.5000000000018
 20
-1019.258994552424
 30
0.0
 11
-448.5000000000018
 21
-1139.095426183621
 31
0.0
  0
LINE
  5
29A5
330
2D1A
100
AcDbEntity
  8
DETAIL
100
AcDbLine
 10
-448.5000000000018
 20
-1154.592933442283
 30
0.0
 11
-448.5000000000018
 21
-1144.667459589655
 31
0.0
  0
LINE
  5
29A6
330
2D1A
100
AcDbEntity
  8
DETAIL
100
AcDbLine
 10
-448.5000000000018
 20
-1139.095426183621
 30
0.0
 11
-448.5000000000018
 21
-1144.667459589654
 31
0.0
  0
LINE
  5
29A7
330
2D1A
100
AcDbEntity
  8
DETAIL
100
AcDbLine
 10
437.3000000000009
 20
-1161.000017753859
 30
0.0
 11
422.3000000000011
 21
-1161.000017753859
 31
0.0
  0
LINE
  5
29A8
330
2D1A
100
AcDbEntity
  8
DETAIL
100
AcDbLine
 10
437.3000000000009
 20
-1155.585480827544
 30
0.0
 11
437.3000000000009
 21
-1161.000017753859
 31
0.0
  0
LINE
  5
29A9
330
2D1A
100
AcDbEntity
  8
DETAIL
100
AcDbLine
 10
448.4999999999979
 20
-1155.585480827544
 30
0.0
 11
436.9999999999982
 21
-1155.585480827544
 31
0.0
  0
LINE
  5
29AA
330
2D1A
100
AcDbEntity
  8
DETAIL
100
AcDbLine
 10
448.4999999999979
 20
-1154.592933442282
 30
0.0
 11
448.4999999999979
 21
-1155.585480827544
 31
0.0
  0
LINE
  5
29AB
330
2D1A
100
AcDbEntity
  8
DETAIL
100
AcDbLine
 10
422.3000000000011
 20
-1161.000017753859
 30
0.0
 11
422.3000000000011
 21
-1159.555670368597
 31
0.0
  0
LINE
  5
29AC
330
2D1A
100
AcDbEntity
  8
DETAIL
100
AcDbLine
 10
422.3000000000011
 20
-1156.456168916864
 30
0.0
 11
422.3000000000011
 21
-1159.555670368597
 31
0.0
  0
LINE
  5
29AD
330
2D1A
100
AcDbEntity
  8
DETAIL
100
AcDbLine
 10
434.4999999999981
 20
-1156.456168916864
 30
0.0
 11
-434.5000000000015
 21
-1156.456168916865
 31
0.0
  0
LINE
  5
29AE
330
2D1A
100
AcDbEntity
  8
DETAIL
100
AcDbLine
 10
-437.2999999999974
 20
-1161.000017753859
 30
0.0
 11
-422.2999999999974
 21
-1161.000017753859
 31
0.0
  0
LINE
  5
29AF
330
2D1A
100
AcDbEntity
  8
DETAIL
100
AcDbLine
 10
-437.2999999999974
 20
-1155.585480827544
 30
0.0
 11
-437.2999999999974
 21
-1161.000017753859
 31
0.0
  0
LINE
  5
29B0
330
2D1A
100
AcDbEntity
  8
DETAIL
100
AcDbLine
 10
-448.4999999999945
 20
-1155.585480827544
 30
0.0
 11
-437.0000000000016
 21
-1155.585480827544
 31
0.0
  0
LINE
  5
29B1
330
2D1A
100
AcDbEntity
  8
DETAIL
100
AcDbLine
 10
-448.4999999999945
 20
-1154.592933442282
 30
0.0
 11
-448.4999999999945
 21
-1155.585480827544
 31
0.0
  0
LINE
  5
29B2
330
2D1A
100
AcDbEntity
  8
DETAIL
100
AcDbLine
 10
-422.2999999999974
 20
-1161.000017753859
 30
0.0
 11
-422.2999999999974
 21
-1159.555670368597
 31
0.0
  0
LINE
  5
29B3
330
2D1A
100
AcDbEntity
  8
DETAIL
100
AcDbLine
 10
-422.2999999999974
 20
-1159.555670368597
 30
0.0
 11
-422.2999999999974
 21
-1156.456168916864
 31
0.0
  0
TEXT
  5
29B4
330
2D1A
100
AcDbEntity
  8
ETC
100
AcDbText
 10
624.1577696051481
 20
919.6996616386572
 30
0.0
 40
64.0
  1
システム部材
 41
0.9
100
AcDbText
  0
TEXT
  5
29B5
330
2D1A
100
AcDbEntity
  8
ETC
100
AcDbText
 10
621.291203879502
 20
1021.530421394176
 30
0.0
 40
64.0
  1
QWH-80SAM_2
 41
0.9
100
AcDbText
  0
CIRCLE
  5
29B6
330
2D1A
100
AcDbEntity
  8
FIX
100
AcDbCircle
 10
-450.0000000000055
 20
-450.0000000000023
 30
0.0
 40
7.5
  0
CIRCLE
  5
29B7
330
2D1A
100
AcDbEntity
  8
FIX
100
AcDbCircle
 10
449.9999999999982
 20
-449.9999999999982
 30
0.0
 40
7.5
  0
CIRCLE
  5
29B8
330
2D1A
100
AcDbEntity
  8
FIX
100
AcDbCircle
 10
-450.0000000000055
 20
450.0000000000012
 30
0.0
 40
7.5
  0
CIRCLE
  5
29B9
330
2D1A
100
AcDbEntity
  8
FIX
100
AcDbCircle
 10
449.9999999999982
 20
450.0000000000012
 30
0.0
 40
7.5
  0
CIRCLE
  5
29BA
330
2D1A
100
AcDbEntity
  8
FIX
100
AcDbCircle
 10
-450.0000000000055
 20
250.0000000000014
 30
0.0
 40
7.5
  0
CIRCLE
  5
29BB
330
2D1A
100
AcDbEntity
  8
FIX
100
AcDbCircle
 10
449.9999999999982
 20
250.0000000000014
 30
0.0
 40
7.5
  0
CIRCLE
  5
29BC
330
2D1A
100
AcDbEntity
  8
FIX
100
AcDbCircle
 10
-450.0000000000055
 20
-249.9999999999986
 30
0.0
 40
7.5
  0
CIRCLE
  5
29BD
330
2D1A
100
AcDbEntity
  8
FIX
100
AcDbCircle
 10
449.9999999999982
 20
-249.9999999999986
 30
0.0
 40
7.5
  0
CIRCLE
  5
29BE
330
2D1A
100
AcDbEntity
  8
FIX
100
AcDbCircle
 10
-250.0000000000055
 20
450.0000000000012
 30
0.0
 40
7.5
  0
CIRCLE
  5
29BF
330
2D1A
100
AcDbEntity
  8
FIX
100
AcDbCircle
 10
249.9999999999944
 20
450.0000000000012
 30
0.0
 40
7.5
  0
CIRCLE
  5
29C0
330
2D1A
100
AcDbEntity
  8
FIX
100
AcDbCircle
 10
-200.0000000000055
 20
450.0000000000012
 30
0.0
 40
7.5
  0
CIRCLE
  5
29C1
330
2D1A
100
AcDbEntity
  8
FIX
100
AcDbCircle
 10
199.9999999999944
 20
450.0000000000012
 30
0.0
 40
7.5
  0
CIRCLE
  5
29C2
330
2D1A
100
AcDbEntity
  8
FIX
100
AcDbCircle
 10
-450.0000000000055
 20
200.0000000000014
 30
0.0
 40
7.5
  0
CIRCLE
  5
29C3
330
2D1A
100
AcDbEntity
  8
FIX
100
AcDbCircle
 10
449.9999999999982
 20
200.0000000000014
 30
0.0
 40
7.5
  0
CIRCLE
  5
29C4
330
2D1A
100
AcDbEntity
  8
FIX
100
AcDbCircle
 10
-450.0000000000055
 20
-199.9999999999984
 30
0.0
 40
7.5
  0
CIRCLE
  5
29C5
330
2D1A
100
AcDbEntity
  8
FIX
100
AcDbCircle
 10
449.9999999999982
 20
-199.9999999999984
 30
0.0
 40
7.5
  0
TEXT
  5
29C6
330
2D1A
100
AcDbEntity
  8
ETC
100
AcDbText
 10
621.291203879502
 20
821.5304213941767
 30
0.0
 40
64.0
  1
QWH-80SAM
 41
0.9
100
AcDbText
  0
LINE
  5
29C7
330
2D1A
100
AcDbEntity
  8
NOTE
100
AcDbLine
 10
-437.5000000000055
 20
450.0000000000012
 30
0.0
 11
-462.5000000000055
 21
450.0000000000012
 31
0.0
  0
LINE
  5
29C8
330
2D1A
100
AcDbEntity
  8
NOTE
100
AcDbLine
 10
-450.0000000000055
 20
462.5000000000012
 30
0.0
 11
-450.0000000000055
 21
437.5000000000012
 31
0.0
  0
LINE
  5
29C9
330
2D1A
100
AcDbEntity
  8
NOTE
100
AcDbLine
 10
-437.5000000000055
 20
250.0000000000014
 30
0.0
 11
-462.5000000000055
 21
250.0000000000014
 31
0.0
  0
LINE
  5
29CA
330
2D1A
100
AcDbEntity
  8
NOTE
100
AcDbLine
 10
-450.0000000000055
 20
262.5000000000015
 30
0.0
 11
-450.0000000000055
 21
237.5000000000014
 31
0.0
  0
LINE
  5
29CB
330
2D1A
100
AcDbEntity
  8
NOTE
100
AcDbLine
 10
-437.5000000000016
 20
200.0000000000014
 30
0.0
 11
-462.5000000000016
 21
200.0000000000014
 31
0.0
  0
LINE
  5
29CC
330
2D1A
100
AcDbEntity
  8
NOTE
100
AcDbLine
 10
-450.0000000000016
 20
212.5000000000014
 30
0.0
 11
-450.0000000000016
 21
187.5000000000014
 31
0.0
  0
LINE
  5
29CD
330
2D1A
100
AcDbEntity
  8
NOTE
100
AcDbLine
 10
-437.5000000000016
 20
-199.9999999999984
 30
0.0
 11
-462.5000000000016
 21
-199.9999999999984
 31
0.0
  0
LINE
  5
29CE
330
2D1A
100
AcDbEntity
  8
NOTE
100
AcDbLine
 10
-450.0000000000016
 20
-187.4999999999984
 30
0.0
 11
-450.0000000000016
 21
-212.4999999999986
 31
0.0
  0
LINE
  5
29CF
330
2D1A
100
AcDbEntity
  8
NOTE
100
AcDbLine
 10
-437.5000000000055
 20
-249.9999999999986
 30
0.0
 11
-462.5000000000055
 21
-249.9999999999986
 31
0.0
  0
LINE
  5
29D0
330
2D1A
100
AcDbEntity
  8
NOTE
100
AcDbLine
 10
-450.0000000000055
 20
-237.4999999999986
 30
0.0
 11
-450.0000000000055
 21
-262.4999999999985
 31
0.0
  0
LINE
  5
29D1
330
2D1A
100
AcDbEntity
  8
NOTE
100
AcDbLine
 10
-437.5000000000055
 20
-450.0000000000023
 30
0.0
 11
-462.5000000000055
 21
-450.0000000000023
 31
0.0
  0
LINE
  5
29D2
330
2D1A
100
AcDbEntity
  8
NOTE
100
AcDbLine
 10
-450.0000000000055
 20
-437.5000000000023
 30
0.0
 11
-450.0000000000055
 21
-462.5000000000023
 31
0.0
  0
LINE
  5
29D3
330
2D1A
100
AcDbEntity
  8
NOTE
100
AcDbLine
 10
462.4999999999982
 20
-449.9999999999984
 30
0.0
 11
437.4999999999982
 21
-449.9999999999984
 31
0.0
  0
LINE
  5
29D4
330
2D1A
100
AcDbEntity
  8
NOTE
100
AcDbLine
 10
449.9999999999982
 20
-437.4999999999984
 30
0.0
 11
449.9999999999982
 21
-462.4999999999984
 31
0.0
  0
LINE
  5
29D5
330
2D1A
100
AcDbEntity
  8
NOTE
100
AcDbLine
 10
462.4999999999982
 20
-249.9999999999986
 30
0.0
 11
437.4999999999982
 21
-249.9999999999986
 31
0.0
  0
LINE
  5
29D6
330
2D1A
100
AcDbEntity
  8
NOTE
100
AcDbLine
 10
449.9999999999982
 20
-237.4999999999986
 30
0.0
 11
449.9999999999982
 21
-262.4999999999985
 31
0.0
  0
LINE
  5
29D7
330
2D1A
100
AcDbEntity
  8
NOTE
100
AcDbLine
 10
462.4999999999982
 20
-199.9999999999984
 30
0.0
 11
437.4999999999982
 21
-199.9999999999984
 31
0.0
  0
LINE
  5
29D8
330
2D1A
100
AcDbEntity
  8
NOTE
100
AcDbLine
 10
449.9999999999982
 20
-187.4999999999984
 30
0.0
 11
449.9999999999982
 21
-212.4999999999986
 31
0.0
  0
LINE
  5
29D9
330
2D1A
100
AcDbEntity
  8
NOTE
100
AcDbLine
 10
462.4999999999982
 20
200.0000000000014
 30
0.0
 11
437.4999999999982
 21
200.0000000000014
 31
0.0
  0
LINE
  5
29DA
330
2D1A
100
AcDbEntity
  8
NOTE
100
AcDbLine
 10
449.9999999999982
 20
212.5000000000014
 30
0.0
 11
449.9999999999982
 21
187.5000000000014
 31
0.0
  0
LINE
  5
29DB
330
2D1A
100
AcDbEntity
  8
NOTE
100
AcDbLine
 10
462.4999999999982
 20
250.0000000000014
 30
0.0
 11
437.4999999999982
 21
250.0000000000014
 31
0.0
  0
LINE
  5
29DC
330
2D1A
100
AcDbEntity
  8
NOTE
100
AcDbLine
 10
449.9999999999982
 20
262.5000000000015
 30
0.0
 11
449.9999999999982
 21
237.5000000000014
 31
0.0
  0
LINE
  5
29DD
330
2D1A
100
AcDbEntity
  8
NOTE
100
AcDbLine
 10
462.4999999999982
 20
450.0000000000012
 30
0.0
 11
437.4999999999982
 21
450.0000000000012
 31
0.0
  0
LINE
  5
29DE
330
2D1A
100
AcDbEntity
  8
NOTE
100
AcDbLine
 10
449.9999999999982
 20
462.5000000000012
 30
0.0
 11
449.9999999999982
 21
437.5000000000012
 31
0.0
  0
LINE
  5
29DF
330
2D1A
100
AcDbEntity
  8
NOTE
100
AcDbLine
 10
262.4999999999982
 20
450.0000000000023
 30
0.0
 11
237.4999999999982
 21
450.0000000000023
 31
0.0
  0
LINE
  5
29E0
330
2D1A
100
AcDbEntity
  8
NOTE
100
AcDbLine
 10
249.9999999999982
 20
462.5000000000023
 30
0.0
 11
249.9999999999982
 21
437.5000000000023
 31
0.0
  0
LINE
  5
29E1
330
2D1A
100
AcDbEntity
  8
NOTE
100
AcDbLine
 10
212.4999999999944
 20
450.0000000000012
 30
0.0
 11
187.4999999999944
 21
450.0000000000012
 31
0.0
  0
LINE
  5
29E2
330
2D1A
100
AcDbEntity
  8
NOTE
100
AcDbLine
 10
199.9999999999944
 20
462.5000000000012
 30
0.0
 11
199.9999999999944
 21
437.5000000000012
 31
0.0
  0
LINE
  5
29E3
330
2D1A
100
AcDbEntity
  8
NOTE
100
AcDbLine
 10
-187.5000000000017
 20
450.0000000000012
 30
0.0
 11
-212.5000000000018
 21
450.0000000000012
 31
0.0
  0
LINE
  5
29E4
330
2D1A
100
AcDbEntity
  8
NOTE
100
AcDbLine
 10
-200.0000000000018
 20
462.5000000000012
 30
0.0
 11
-200.0000000000018
 21
437.5000000000012
 31
0.0
  0
LINE
  5
29E5
330
2D1A
100
AcDbEntity
  8
NOTE
100
AcDbLine
 10
-237.5000000000055
 20
450.0000000000012
 30
0.0
 11
-262.5000000000055
 21
450.0000000000012
 31
0.0
  0
LINE
  5
29E6
330
2D1A
100
AcDbEntity
  8
NOTE
100
AcDbLine
 10
-250.0000000000055
 20
462.5000000000012
 30
0.0
 11
-250.0000000000055
 21
437.5000000000012
 31
0.0
  0
LINE
  5
29E7
330
2D1A
100
AcDbEntity
  8
OUTLINE
100
AcDbLine
 10
474.9999999999982
 20
-474.9999999999984
 30
0.0
 11
436.9999999999982
 21
-474.9999999999984
 31
0.0
  0
LINE
  5
29E8
330
2D1A
100
AcDbEntity
  8
OUTLINE
100
AcDbLine
 10
-437.0000000000016
 20
-474.9999999999984
 30
0.0
 11
-475.0000000000088
 21
-474.9999999999984
 31
0.0
  0
LINE
  5
29E9
330
2D1A
100
AcDbEntity
  8
OUTLINE
100
AcDbLine
 10
436.9999999999982
 20
436.0000000000022
 30
0.0
 11
-437.0000000000016
 21
436.0000000000009
 31
0.0
  0
LINE
  5
29EA
330
2D1A
100
AcDbEntity
  8
OUTLINE
100
AcDbLine
 10
-437.0000000000016
 20
-363.9999999999985
 30
0.0
 11
-437.0000000000016
 21
-614.9999999999985
 31
0.0
  0
LINE
  5
29EB
330
2D1A
100
AcDbEntity
  8
OUTLINE
100
AcDbLine
 10
436.9999999999982
 20
-614.9999999999985
 30
0.0
 11
436.9999999999982
 21
-363.9999999999985
 31
0.0
  0
LINE
  5
29EC
330
2D1A
100
AcDbEntity
  8
OUTLINE
100
AcDbLine
 10
-475.0000000000016
 20
475.0000000000023
 30
0.0
 11
474.9999999999982
 21
475.0000000000004
 31
0.0
  0
LINE
  5
29ED
330
2D1A
100
AcDbEntity
  8
OUTLINE
100
AcDbLine
 10
-437.0000000000016
 20
-363.9999999999985
 30
0.0
 11
-437.0000000000016
 21
436.0000000000009
 31
0.0
  0
LINE
  5
29EE
330
2D1A
100
AcDbEntity
  8
OUTLINE
100
AcDbLine
 10
436.9999999999982
 20
436.0000000000022
 30
0.0
 11
436.9999999999982
 21
-363.9999999999985
 31
0.0
  0
LINE
  5
29EF
330
2D1A
100
AcDbEntity
  8
OUTLINE
100
AcDbLine
 10
-475.0000000000088
 20
-474.9999999999984
 30
0.0
 11
-475.0000000000016
 21
475.0000000000023
 31
0.0
  0
LINE
  5
29F0
330
2D1A
100
AcDbEntity
  8
OUTLINE
100
AcDbLine
 10
474.9999999999982
 20
475.0000000000004
 30
0.0
 11
474.9999999999982
 21
-474.9999999999984
 31
0.0
  0
LINE
  5
29F1
330
2D1A
100
AcDbEntity
  8
OUTLINE
100
AcDbLine
 10
436.9999999999982
 20
-614.9999999999985
 30
0.0
 11
436.9999999999982
 21
-1139.639594154068
 31
0.0
  0
LINE
  5
29F2
330
2D1A
100
AcDbEntity
  8
OUTLINE
100
AcDbLine
 10
436.9999999999982
 20
-1140.012141279106
 30
0.0
 11
436.9999999999982
 21
-1156.456168916863
 31
0.0
  0
LINE
  5
29F3
330
2D1A
100
AcDbEntity
  8
OUTLINE
100
AcDbLine
 10
-437.0000000000016
 20
-1140.012141279106
 30
0.0
 11
-437.0000000000016
 21
-1156.456168916864
 31
0.0
  0
LINE
  5
29F4
330
2D1A
100
AcDbEntity
  8
OUTLINE
100
AcDbLine
 10
-437.0000000000016
 20
-614.9999999999985
 30
0.0
 11
-437.0000000000016
 21
-1139.639594154068
 31
0.0
  0
LINE
  5
29F5
330
2D1A
100
AcDbEntity
  8
OUTLINE
100
AcDbLine
 10
-437.0000000000016
 20
-1139.639594154068
 30
0.0
 11
-437.0000000000016
 21
-1140.012141279106
 31
0.0
  0
LINE
  5
29F6
330
2D1A
100
AcDbEntity
  8
OUTLINE
100
AcDbLine
 10
-432.0000000000018
 20
-1135.101297134227
 30
0.0
 11
-437.0000000000016
 21
-1139.639594154069
 31
0.0
  0
LINE
  5
29F7
330
2D1A
100
AcDbEntity
  8
OUTLINE
100
AcDbLine
 10
429.4999999999982
 20
-1135.101297134227
 30
0.0
 11
-429.5000000000015
 21
-1135.101297134227
 31
0.0
  0
LINE
  5
29F8
330
2D1A
100
AcDbEntity
  8
OUTLINE
100
AcDbLine
 10
436.9999999999982
 20
-1139.639594154069
 30
0.0
 11
431.9999999999979
 21
-1135.101297134227
 31
0.0
  0
LINE
  5
29F9
330
2D1A
100
AcDbEntity
  8
OUTLINE
100
AcDbLine
 10
436.9999999999982
 20
-1140.012141279106
 30
0.0
 11
436.9999999999982
 21
-1139.639594154068
 31
0.0
  0
LINE
  5
29FA
330
2D1A
100
AcDbEntity
  8
OUTLINE
100
AcDbLine
 10
447.499999999998
 20
-1019.258994552423
 30
0.0
 11
437.0000000000016
 21
-1019.258994552423
 31
0.0
  0
LINE
  5
29FB
330
2D1A
100
AcDbEntity
  8
OUTLINE
100
AcDbLine
 10
-437.0000000000016
 20
-1019.258994552424
 30
0.0
 11
-447.5000000000017
 21
-1019.258994552424
 31
0.0
  0
LINE
  5
29FC
330
2D1A
100
AcDbEntity
  8
OUTLINE
100
AcDbLine
 10
448.5000000000052
 20
-1154.592933442282
 30
0.0
 11
448.5000000000052
 21
-1144.667459589654
 31
0.0
  0
LINE
  5
29FD
330
2D1A
100
AcDbEntity
  8
OUTLINE
100
AcDbLine
 10
448.5000000000052
 20
-1019.258994552423
 30
0.0
 11
447.5000000000052
 21
-1019.258994552423
 31
0.0
  0
LINE
  5
29FE
330
2D1A
100
AcDbEntity
  8
OUTLINE
100
AcDbLine
 10
448.5000000000052
 20
-1139.095426183621
 30
0.0
 11
448.5000000000052
 21
-1019.258994552423
 31
0.0
  0
LINE
  5
29FF
330
2D1A
100
AcDbEntity
  8
OUTLINE
100
AcDbLine
 10
448.5000000000052
 20
-1144.667459589654
 30
0.0
 11
448.5000000000052
 21
-1139.095426183621
 31
0.0
  0
LINE
  5
2A00
330
2D1A
100
AcDbEntity
  8
OUTLINE
100
AcDbLine
 10
-448.5000000000018
 20
-1019.258994552424
 30
0.0
 11
-447.5000000000017
 21
-1019.258994552424
 31
0.0
  0
LINE
  5
2A01
330
2D1A
100
AcDbEntity
  8
OUTLINE
100
AcDbLine
 10
-448.5000000000018
 20
-1019.258994552424
 30
0.0
 11
-448.5000000000018
 21
-1139.095426183621
 31
0.0
  0
LINE
  5
2A02
330
2D1A
100
AcDbEntity
  8
OUTLINE
100
AcDbLine
 10
-448.5000000000018
 20
-1154.592933442283
 30
0.0
 11
-448.5000000000018
 21
-1144.667459589655
 31
0.0
  0
LINE
  5
2A03
330
2D1A
100
AcDbEntity
  8
OUTLINE
100
AcDbLine
 10
-448.5000000000018
 20
-1139.095426183621
 30
0.0
 11
-448.5000000000018
 21
-1144.667459589654
 31
0.0
  0
LINE
  5
2A04
330
2D1A
100
AcDbEntity
  8
OUTLINE
100
AcDbLine
 10
437.3000000000009
 20
-1161.000017753859
 30
0.0
 11
422.3000000000011
 21
-1161.000017753859
 31
0.0
  0
LINE
  5
2A05
330
2D1A
100
AcDbEntity
  8
OUTLINE
100
AcDbLine
 10
448.4999999999979
 20
-1155.585480827544
 30
0.0
 11
436.9999999999982
 21
-1155.585480827544
 31
0.0
  0
LINE
  5
2A06
330
2D1A
100
AcDbEntity
  8
OUTLINE
100
AcDbLine
 10
448.4999999999979
 20
-1154.592933442282
 30
0.0
 11
448.4999999999979
 21
-1155.585480827544
 31
0.0
  0
LINE
  5
2A07
330
2D1A
100
AcDbEntity
  8
OUTLINE
100
AcDbLine
 10
422.3000000000011
 20
-1156.456168916864
 30
0.0
 11
422.3000000000011
 21
-1159.555670368597
 31
0.0
  0
LINE
  5
2A08
330
2D1A
100
AcDbEntity
  8
OUTLINE
100
AcDbLine
 10
434.4999999999981
 20
-1156.456168916864
 30
0.0
 11
-434.5000000000015
 21
-1156.456168916865
 31
0.0
  0
LINE
  5
2A09
330
2D1A
100
AcDbEntity
  8
OUTLINE
100
AcDbLine
 10
-437.2999999999974
 20
-1161.000017753859
 30
0.0
 11
-422.2999999999974
 21
-1161.000017753859
 31
0.0
  0
LINE
  5
2A0A
330
2D1A
100
AcDbEntity
  8
OUTLINE
100
AcDbLine
 10
-448.4999999999945
 20
-1155.585480827544
 30
0.0
 11
-437.0000000000016
 21
-1155.585480827544
 31
0.0
  0
LINE
  5
2A0B
330
2D1A
100
AcDbEntity
  8
OUTLINE
100
AcDbLine
 10
-448.4999999999945
 20
-1154.592933442282
 30
0.0
 11
-448.4999999999945
 21
-1155.585480827544
 31
0.0
  0
LINE
  5
2A0C
330
2D1A
100
AcDbEntity
  8
OUTLINE
100
AcDbLine
 10
-437.2999999999974
 20
-1155.585480827544
 30
0.0
 11
-437.2999999999974
 21
-1161.000017753859
 31
0.0
  0
LINE
  5
2A0D
330
2D1A
100
AcDbEntity
  8
OUTLINE
100
AcDbLine
 10
-422.2999999999974
 20
-1161.000017753859
 30
0.0
 11
-422.2999999999974
 21
-1159.555670368597
 31
0.0
  0
LINE
  5
2A0E
330
2D1A
100
AcDbEntity
  8
OUTLINE
100
AcDbLine
 10
-422.2999999999974
 20
-1159.555670368597
 30
0.0
 11
-422.2999999999974
 21
-1156.456168916864
 31
0.0
  0
LINE
  5
2A0F
330
2D1A
100
AcDbEntity
  8
OUTLINE
100
AcDbLine
 10
437.3000000000009
 20
-1155.585480827544
 30
0.0
 11
437.3000000000009
 21
-1161.000017753859
 31
0.0
  0
LINE
  5
2A10
330
2D1A
100
AcDbEntity
  8
OUTLINE
100
AcDbLine
 10
422.3000000000011
 20
-1161.000017753859
 30
0.0
 11
422.3000000000011
 21
-1159.555670368597
 31
0.0
  0
LINE
  5
2A11
330
2D1A
100
AcDbEntity
  8
DETAIL
100
AcDbLine
 39
50.0
 10
-432.0000000000018
 20
-1135.101297134227
 30
0.0
 11
-429.5000000000015
 21
-1135.101297134227
 31
0.0
  0
LINE
  5
2A12
330
2D1A
100
AcDbEntity
  8
OUTLINE
100
AcDbLine
 39
50.0
 10
-432.0000000000018
 20
-1135.101297134227
 30
0.0
 11
-429.5000000000015
 21
-1135.101297134227
 31
0.0
  0
LINE
  5
2A13
330
2D1A
100
AcDbEntity
  8
DETAIL
100
AcDbLine
 39
50.0
 10
-437.2999999999974
 20
-1156.456168916864
 30
0.0
 11
-434.5000000000015
 21
-1156.456168916865
 31
0.0
  0
LINE
  5
2A14
330
2D1A
100
AcDbEntity
  8
OUTLINE
100
AcDbLine
 39
50.0
 10
-437.2999999999974
 20
-1156.456168916864
 30
0.0
 11
-434.5000000000015
 21
-1156.456168916865
 31
0.0
  0
LINE
  5
2A15
330
2D1A
100
AcDbEntity
  8
DETAIL
100
AcDbLine
 39
50.0
 10
429.4999999999982
 20
-1135.101297134227
 30
0.0
 11
431.9999999999979
 21
-1135.101297134227
 31
0.0
  0
LINE
  5
2A16
330
2D1A
100
AcDbEntity
  8
OUTLINE
100
AcDbLine
 39
50.0
 10
429.4999999999982
 20
-1135.101297134227
 30
0.0
 11
431.9999999999979
 21
-1135.101297134227
 31
0.0
  0
LINE
  5
2A17
330
2D1A
100
AcDbEntity
  8
DETAIL
100
AcDbLine
 39
50.0
 10
434.4999999999981
 20
-1156.456168916864
 30
0.0
 11
437.3000000000009
 21
-1156.456168916864
 31
0.0
  0
LINE
  5
2A18
330
2D1A
100
AcDbEntity
  8
OUTLINE
100
AcDbLine
 39
50.0
 10
434.4999999999981
 20
-1156.456168916864
 30
0.0
 11
437.3000000000009
 21
-1156.456168916864
 31
0.0
  0
LINE
  5
2A19
330
2D1A
100
AcDbEntity
  8
SIZE
100
AcDbLine
 10
-475.0000000000055
 20
494.9999999999985
 30
0.0
 11
-475.0000000000055
 21
938.8487719305645
 31
0.0
  0
LINE
  5
2A1A
330
2D1A
100
AcDbEntity
  8
SIZE
100
AcDbLine
 10
474.9999999999982
 20
495.0000000000001
 30
0.0
 11
474.9999999999982
 21
938.8487719305645
 31
0.0
  0
LINE
  5
2A1B
330
2D1A
100
AcDbEntity
  8
SIZE
100
AcDbLine
 10
-463.0000000000053
 20
918.8487719305646
 30
0.0
 11
462.9999999999982
 21
918.8487719305646
 31
0.0
  0
INSERT
  5
2A1C
330
2D1A
100
AcDbEntity
  8
SIZE
100
AcDbBlockReference
  2
_DOTBLANK
 10
-475.0000000000055
 20
918.8487719305646
 30
0.0
 41
12.0
 42
12.0
 43
12.0
 50
180.0
  0
INSERT
  5
2A1D
330
2D1A
100
AcDbEntity
  8
SIZE
100
AcDbBlockReference
  2
_DOTBLANK
 10
474.9999999999982
 20
918.8487719305646
 30
0.0
 41
12.0
 42
12.0
 43
12.0
  0
LINE
  5
2A1E
330
2D1A
100
AcDbEntity
  8
SIZE
100
AcDbLine
 10
-450.0000000000055
 20
482.5000000000009
 30
0.0
 11
-450.0000000000055
 21
819.7567444329147
 31
0.0
  0
LINE
  5
2A1F
330
2D1A
100
AcDbEntity
  8
SIZE
100
AcDbLine
 10
449.9999999999982
 20
482.5000000000009
 30
0.0
 11
449.9999999999982
 21
819.7567444329147
 31
0.0
  0
LINE
  5
2A20
330
2D1A
100
AcDbEntity
  8
SIZE
100
AcDbLine
 10
-438.0000000000053
 20
799.7567444329147
 30
0.0
 11
437.9999999999982
 21
799.7567444329147
 31
0.0
  0
INSERT
  5
2A21
330
2D1A
100
AcDbEntity
  8
SIZE
100
AcDbBlockReference
  2
_DOTBLANK
 10
-450.0000000000055
 20
799.7567444329147
 30
0.0
 41
12.0
 42
12.0
 43
12.0
 50
180.0
  0
INSERT
  5
2A22
330
2D1A
100
AcDbEntity
  8
SIZE
100
AcDbBlockReference
  2
_DOTBLANK
 10
449.9999999999982
 20
799.7567444329147
 30
0.0
 41
12.0
 42
12.0
 43
12.0
  0
LINE
  5
2A23
330
2D1A
100
AcDbEntity
  8
SIZE
100
AcDbLine
 10
-250.0000000000055
 20
482.5000000000009
 30
0.0
 11
-250.0000000000055
 21
699.6112684086461
 31
0.0
  0
LINE
  5
2A24
330
2D1A
100
AcDbEntity
  8
SIZE
100
AcDbLine
 10
249.9999999999982
 20
482.5000000000023
 30
0.0
 11
249.9999999999982
 21
699.6112684086461
 31
0.0
  0
LINE
  5
2A25
330
2D1A
100
AcDbEntity
  8
SIZE
100
AcDbLine
 10
-238.0000000000054
 20
679.6112684086461
 30
0.0
 11
237.9999999999982
 21
679.6112684086461
 31
0.0
  0
INSERT
  5
2A26
330
2D1A
100
AcDbEntity
  8
SIZE
100
AcDbBlockReference
  2
_DOTBLANK
 10
-250.0000000000055
 20
679.6112684086461
 30
0.0
 41
12.0
 42
12.0
 43
12.0
 50
180.0
  0
INSERT
  5
2A27
330
2D1A
100
AcDbEntity
  8
SIZE
100
AcDbBlockReference
  2
_DOTBLANK
 10
249.9999999999982
 20
679.6112684086461
 30
0.0
 41
12.0
 42
12.0
 43
12.0
  0
LINE
  5
2A28
330
2D1A
100
AcDbEntity
  8
SIZE
100
AcDbLine
 10
-200.0000000000018
 20
482.5000000000009
 30
0.0
 11
-200.0000000000018
 21
580.990060172064
 31
0.0
  0
LINE
  5
2A29
330
2D1A
100
AcDbEntity
  8
SIZE
100
AcDbLine
 10
199.9999999999944
 20
482.5000000000009
 30
0.0
 11
199.9999999999944
 21
580.990060172064
 31
0.0
  0
LINE
  5
2A2A
330
2D1A
100
AcDbEntity
  8
SIZE
100
AcDbLine
 10
-188.0000000000016
 20
560.990060172064
 30
0.0
 11
187.9999999999944
 21
560.990060172064
 31
0.0
  0
INSERT
  5
2A2B
330
2D1A
100
AcDbEntity
  8
SIZE
100
AcDbBlockReference
  2
_DOTBLANK
 10
-200.0000000000018
 20
560.990060172064
 30
0.0
 41
12.0
 42
12.0
 43
12.0
 50
180.0
  0
INSERT
  5
2A2C
330
2D1A
100
AcDbEntity
  8
SIZE
100
AcDbBlockReference
  2
_DOTBLANK
 10
199.9999999999944
 20
560.990060172064
 30
0.0
 41
12.0
 42
12.0
 43
12.0
  0
LINE
  5
2A2D
330
2D1A
100
AcDbEntity
  8
SIZE
100
AcDbLine
 10
-495.0000000000017
 20
474.9999999999838
 30
0.0
 11
-1079.204337391986
 21
474.999999999984
 31
0.0
  0
LINE
  5
2A2E
330
2D1A
100
AcDbEntity
  8
SIZE
100
AcDbLine
 10
-457.2999999999971
 20
-1161.000017753859
 30
0.0
 11
-1079.204337391986
 21
-1161.000017753859
 31
0.0
  0
LINE
  5
2A2F
330
2D1A
100
AcDbEntity
  8
SIZE
100
AcDbLine
 10
-1059.204337391985
 20
462.999999999984
 30
0.0
 11
-1059.204337391985
 21
-1149.000017753859
 31
0.0
  0
INSERT
  5
2A30
330
2D1A
100
AcDbEntity
  8
SIZE
100
AcDbBlockReference
  2
_DOTBLANK
 10
-1059.204337391985
 20
474.999999999984
 30
0.0
 41
12.0
 42
12.0
 43
12.0
 50
90.0
  0
INSERT
  5
2A31
330
2D1A
100
AcDbEntity
  8
SIZE
100
AcDbBlockReference
  2
_DOTBLANK
 10
-1059.204337391985
 20
-1161.000017753859
 30
0.0
 41
12.0
 42
12.0
 43
12.0
 50
270.0
  0
LINE
  5
2A32
330
2D1A
100
AcDbEntity
  8
SIZE
100
AcDbLine
 10
-495.0000000000017
 20
-475.000000000015
 30
0.0
 11
-955.0761455246883
 21
-475.0000000000142
 31
0.0
  0
LINE
  5
2A33
330
2D1A
100
AcDbEntity
  8
SIZE
100
AcDbLine
 10
-495.0000000000017
 20
474.9999999999838
 30
0.0
 11
-955.0761455246883
 21
474.999999999984
 31
0.0
  0
LINE
  5
2A34
330
2D1A
100
AcDbEntity
  8
SIZE
100
AcDbLine
 10
-935.0761455246884
 20
-463.0000000000149
 30
0.0
 11
-935.0761455246884
 21
462.999999999984
 31
0.0
  0
INSERT
  5
2A35
330
2D1A
100
AcDbEntity
  8
SIZE
100
AcDbBlockReference
  2
_DOTBLANK
 10
-935.0761455246884
 20
-475.000000000015
 30
0.0
 41
12.0
 42
12.0
 43
12.0
 50
270.0
  0
INSERT
  5
2A36
330
2D1A
100
AcDbEntity
  8
SIZE
100
AcDbBlockReference
  2
_DOTBLANK
 10
-935.0761455246884
 20
474.999999999984
 30
0.0
 41
12.0
 42
12.0
 43
12.0
 50
90.0
  0
LINE
  5
2A37
330
2D1A
100
AcDbEntity
  8
SIZE
100
AcDbLine
 10
-482.5000000000052
 20
-450.0000000000023
 30
0.0
 11
-835.1214354851018
 21
-450.000000000002
 31
0.0
  0
LINE
  5
2A38
330
2D1A
100
AcDbEntity
  8
SIZE
100
AcDbLine
 10
-482.5000000000052
 20
450.0000000000012
 30
0.0
 11
-835.1214354851018
 21
450.0000000000012
 31
0.0
  0
LINE
  5
2A39
330
2D1A
100
AcDbEntity
  8
SIZE
100
AcDbLine
 10
-815.1214354851017
 20
-438.000000000002
 30
0.0
 11
-815.1214354851013
 21
438.0000000000008
 31
0.0
  0
INSERT
  5
2A3A
330
2D1A
100
AcDbEntity
  8
SIZE
100
AcDbBlockReference
  2
_DOTBLANK
 10
-815.1214354851017
 20
-450.000000000002
 30
0.0
 41
12.0
 42
12.0
 43
12.0
 50
270.0
  0
INSERT
  5
2A3B
330
2D1A
100
AcDbEntity
  8
SIZE
100
AcDbBlockReference
  2
_DOTBLANK
 10
-815.1214354851013
 20
450.0000000000012
 30
0.0
 41
12.0
 42
12.0
 43
12.0
 50
90.0
  0
LINE
  5
2A3C
330
2D1A
100
AcDbEntity
  8
SIZE
100
AcDbLine
 10
-482.5000000000017
 20
200.0000000000014
 30
0.0
 11
-586.0154891313776
 21
200.0000000000014
 31
0.0
  0
LINE
  5
2A3D
330
2D1A
100
AcDbEntity
  8
SIZE
100
AcDbLine
 10
-482.5000000000017
 20
-199.9999999999984
 30
0.0
 11
-586.0154891313776
 21
-199.9999999999984
 31
0.0
  0
LINE
  5
2A3E
330
2D1A
100
AcDbEntity
  8
SIZE
100
AcDbLine
 10
-566.0154891313776
 20
188.0000000000013
 30
0.0
 11
-566.0154891313776
 21
-187.9999999999986
 31
0.0
  0
INSERT
  5
2A3F
330
2D1A
100
AcDbEntity
  8
SIZE
100
AcDbBlockReference
  2
_DOTBLANK
 10
-566.0154891313776
 20
200.0000000000014
 30
0.0
 41
12.0
 42
12.0
 43
12.0
 50
90.0
  0
INSERT
  5
2A40
330
2D1A
100
AcDbEntity
  8
SIZE
100
AcDbBlockReference
  2
_DOTBLANK
 10
-566.0154891313776
 20
-199.9999999999984
 30
0.0
 41
12.0
 42
12.0
 43
12.0
 50
270.0
  0
LINE
  5
2A41
330
2D1A
100
AcDbEntity
  8
SIZE
100
AcDbLine
 10
-482.5000000000052
 20
-249.9999999999986
 30
0.0
 11
-705.2525555390072
 21
-249.9999999999984
 31
0.0
  0
LINE
  5
2A42
330
2D1A
100
AcDbEntity
  8
SIZE
100
AcDbLine
 10
-482.5000000000052
 20
250.0000000000014
 30
0.0
 11
-705.2525555390072
 21
250.0000000000014
 31
0.0
  0
LINE
  5
2A43
330
2D1A
100
AcDbEntity
  8
SIZE
100
AcDbLine
 10
-685.2525555390075
 20
-237.9999999999987
 30
0.0
 11
-685.2525555390075
 21
238.0000000000014
 31
0.0
  0
INSERT
  5
2A44
330
2D1A
100
AcDbEntity
  8
SIZE
100
AcDbBlockReference
  2
_DOTBLANK
 10
-685.2525555390075
 20
-249.9999999999986
 30
0.0
 41
12.0
 42
12.0
 43
12.0
 50
270.0
  0
INSERT
  5
2A45
330
2D1A
100
AcDbEntity
  8
SIZE
100
AcDbBlockReference
  2
_DOTBLANK
 10
-685.2525555390075
 20
250.0000000000014
 30
0.0
 41
12.0
 42
12.0
 43
12.0
 50
90.0
  0
LINE
  5
2A46
330
2D1A
100
AcDbEntity
  8
SIZE
100
AcDbLine
 10
-448.4999999999945
 20
-1175.585480827545
 30
0.0
 11
-448.4999999999945
 21
-1400.941289342295
 31
0.0
  0
LINE
  5
2A47
330
2D1A
100
AcDbEntity
  8
SIZE
100
AcDbLine
 10
448.4999999999979
 20
-1175.585480827545
 30
0.0
 11
448.4999999999979
 21
-1400.941289342295
 31
0.0
  0
LINE
  5
2A48
330
2D1A
100
AcDbEntity
  8
SIZE
100
AcDbLine
 10
-436.4999999999945
 20
-1380.941289342295
 30
0.0
 11
436.4999999999979
 21
-1380.941289342295
 31
0.0
  0
INSERT
  5
2A49
330
2D1A
100
AcDbEntity
  8
SIZE
100
AcDbBlockReference
  2
_DOTBLANK
 10
-448.4999999999945
 20
-1380.941289342295
 30
0.0
 41
12.0
 42
12.0
 43
12.0
 50
180.0
  0
INSERT
  5
2A4A
330
2D1A
100
AcDbEntity
  8
SIZE
100
AcDbBlockReference
  2
_DOTBLANK
 10
448.4999999999979
 20
-1380.941289342295
 30
0.0
 41
12.0
 42
12.0
 43
12.0
  0
TEXT
  5
2A4B
330
2D1A
100
AcDbEntity
  8
SIZE
100
AcDbText
 10
-65.35488967715264
 20
-1370.941289342295
 30
0.0
 40
64.0
  1
897
 41
0.9
100
AcDbText
  0
TEXT
  5
2A4C
330
2D1A
100
AcDbEntity
  8
SIZE
100
AcDbText
 10
-1069.204337391985
 20
-437.6285803055089
 30
0.0
 40
64.0
  1
1636
 50
90.0
 41
0.9
100
AcDbText
  0
TEXT
  5
2A4D
330
2D1A
100
AcDbEntity
  8
SIZE
100
AcDbText
 10
-945.0761455246883
 20
-91.54240177295241
 30
0.0
 40
64.0
  1
950
 50
90.0
 41
0.9
100
AcDbText
  0
TEXT
  5
2A4E
330
2D1A
100
AcDbEntity
  8
SIZE
100
AcDbText
 10
-825.1214354851017
 20
-91.54240177295241
 30
0.0
 40
64.0
  1
900
 50
90.0
 41
0.9
100
AcDbText
  0
TEXT
  5
2A4F
330
2D1A
100
AcDbEntity
  8
SIZE
100
AcDbText
 10
-695.2525555390073
 20
-91.54240177295241
 30
0.0
 40
64.0
  1
500
 50
90.0
 41
0.9
100
AcDbText
  0
TEXT
  5
2A50
330
2D1A
100
AcDbEntity
  8
SIZE
100
AcDbText
 10
-576.0154891313776
 20
-92.68234178194735
 30
0.0
 40
64.0
  1
400
 50
90.0
 41
0.9
100
AcDbText
  0
TEXT
  5
2A51
330
2D1A
100
AcDbEntity
  8
SIZE
100
AcDbText
 10
-65.89073846381778
 20
570.9900601720643
 30
0.0
 40
64.0
  1
400
 41
0.9
100
AcDbText
  0
TEXT
  5
2A52
330
2D1A
100
AcDbEntity
  8
SIZE
100
AcDbText
 10
-65.89073846381778
 20
689.6112684086459
 30
0.0
 40
64.0
  1
500
 41
0.9
100
AcDbText
  0
TEXT
  5
2A53
330
2D1A
100
AcDbEntity
  8
SIZE
100
AcDbText
 10
-65.89073846381778
 20
809.7567444329147
 30
0.0
 40
64.0
  1
900
 41
0.9
100
AcDbText
  0
TEXT
  5
2A54
330
2D1A
100
AcDbEntity
  8
SIZE
100
AcDbText
 10
-65.89073846381778
 20
928.8487719305646
 30
0.0
 40
64.0
  1
950
 41
0.9
100
AcDbText
  0
TEXT
  5
2A55
330
2D1A
100
AcDbEntity
  8
NOTE
100
AcDbText
 10
575.4345623698591
 20
545.5270950580146
 30
0.0
 40
64.0
  1
16×φ15取付穴
 41
0.9
100
AcDbText
  0
INSERT
  5
2A56
330
2D1A
100
AcDbEntity
  8
NOTE
100
AcDbBlockReference
  2
_OPEN30
 10
449.9999999999982
 20
450.0000000000012
 30
0.0
 41
12.00000000000022
 42
12.0
 43
12.0
 50
230.7091310502208
1001
ACAD
1000
DSTYLE
1002
{
1070
    41
1040
12.0
1070
    42
1040
20.0
1070
    43
1040
200.0
1070
    44
1040
20.0
1070
    73
1070
     0
1070
    74
1070
     0
1070
    77
1070
     1
1070
    78
1070
     8
1070
   140
1040
64.0
1070
   147
1040
50.0
1070
   172
1070
     1
1070
   174
1070
     1
1070
   275
1070
     0
1070
   284
1070
     0
1070
   285
1070
     0
1070
   286
1070
     0
1070
   341
1005
0
1070
   342
1005
0
1002
}
  0
POLYLINE
  5
2A57
330
2D1A
100
AcDbEntity
  8
NOTE
100
AcDb2dPolyline
 66
     1
 10
0.0
 20
0.0
 30
0.0
1001
ACAD
1000
DSTYLE
1002
{
1070
    41
1040
12.0
1070
    42
1040
20.0
1070
    43
1040
200.0
1070
    44
1040
20.0
1070
    73
1070
     0
1070
    74
1070
     0
1070
    77
1070
     1
1070
    78
1070
     8
1070
   140
1040
64.0
1070
   147
1040
50.0
1070
   172
1070
     1
1070
   174
1070
     1
1070
   275
1070
     0
1070
   284
1070
     0
1070
   285
1070
     0
1070
   286
1070
     0
1070
   341
1005
0
1070
   342
1005
0
1002
}
  0
VERTEX
  5
2A58
330
2A57
100
AcDbEntity
  8
NOTE
100
AcDbVertex
100
AcDb2dVertex
 10
457.5990904809205
 20
459.2872936780736
 30
0.0
  0
VERTEX
  5
2A59
330
2A57
100
AcDbEntity
  8
NOTE
100
AcDbVertex
100
AcDb2dVertex
 10
513.4345623698591
 20
527.5270950580146
 30
0.0
  0
VERTEX
  5
2A5A
330
2A57
100
AcDbEntity
  8
NOTE
100
AcDbVertex
100
AcDb2dVertex
 10
1103.160276655573
 20
527.5270950580146
 30
0.0
  0
SEQEND
  5
2A5B
330
2A57
100
AcDbEntity
  8
NOTE
  0
ENDSEC
  0
SECTION
  2
OBJECTS
  0
DICTIONARY
  5
2CB2
330
0
100
AcDbDictionary
281
     1
  3
ACAD_2007HEADERVARS_RT
350
2EA1
  3
ACAD_COLOR
350
2D10
  3
ACAD_GROUP
350
2CB3
  3
ACAD_LAYOUT
350
2D0F
  3
ACAD_MATERIAL
350
2CB6
  3
ACAD_MLEADERSTYLE
350
2D13
  3
ACAD_MLINESTYLE
350
2D0C
  3
ACAD_PLOTSETTINGS
350
2D0E
  3
ACAD_PLOTSTYLENAME
350
2CB4
  3
ACAD_SCALELIST
350
2CE0
  3
ACAD_TABLESTYLE
350
2D11
  3
ACAD_VISUALSTYLE
350
2CCF
  3
ACDB_RECOMPOSE_DATA
350
2E9F
  3
AcDbVariableDictionary
350
2E96
  3
AcmDictionary
350
2E46
  3
AMG
350
2D93
  3
DWGPROPS
350
2EA0
  3
MAPISURF_MODULE
350
2E13
  0
DICTIONARY
  5
2E6E
330
2D02
100
AcDbDictionary
280
     1
281
     1
  3
ADSK_XREC_LAYER_RECONCILED
360
2E6F
  0
DICTIONARY
  5
2E70
330
2D32
100
AcDbDictionary
280
     1
281
     1
  3
ADSK_XREC_LAYER_RECONCILED
360
2E71
  0
DICTIONARY
  5
2E72
330
2D33
100
AcDbDictionary
280
     1
281
     1
  3
ADSK_XREC_LAYER_RECONCILED
360
2E73
  0
DICTIONARY
  5
2E74
330
2D34
100
AcDbDictionary
280
     1
281
     1
  3
ADSK_XREC_LAYER_RECONCILED
360
2E75
  0
DICTIONARY
  5
2E76
330
2D35
100
AcDbDictionary
280
     1
281
     1
  3
ADSK_XREC_LAYER_RECONCILED
360
2E77
  0
DICTIONARY
  5
2E78
330
2D36
100
AcDbDictionary
280
     1
281
     1
  3
ADSK_XREC_LAYER_RECONCILED
360
2E79
  0
DICTIONARY
  5
2E7A
330
2D38
100
AcDbDictionary
280
     1
281
     1
  3
ADSK_XREC_LAYER_RECONCILED
360
2E7B
  0
DICTIONARY
  5
2E7C
330
2D39
100
AcDbDictionary
280
     1
281
     1
  3
ADSK_XREC_LAYER_RECONCILED
360
2E7D
  0
DICTIONARY
  5
2E7E
330
2D3A
100
AcDbDictionary
280
     1
281
     1
  3
ADSK_XREC_LAYER_RECONCILED
360
2E7F
  0
DICTIONARY
  5
2E80
330
2D3B
100
AcDbDictionary
280
     1
281
     1
  3
ADSK_XREC_LAYER_RECONCILED
360
2E81
  0
DICTIONARY
  5
2E82
330
2D3C
100
AcDbDictionary
280
     1
281
     1
  3
ADSK_XREC_LAYER_RECONCILED
360
2E83
  0
DICTIONARY
  5
2E84
330
2D3D
100
AcDbDictionary
280
     1
281
     1
  3
ADSK_XREC_LAYER_RECONCILED
360
2E85
  0
DICTIONARY
  5
2E86
330
2D1A
100
AcDbDictionary
280
     1
281
     1
  3
ACAD_INDEX
360
2E87
  0
DICTIONARY
  5
2EA1
102
{ACAD_REACTORS
330
2CB2
102
}
330
2CB2
100
AcDbDictionary
281
     1
  3
DIMARCSYM
350
2EA2
  3
DIMLTEX1
350
2EA4
  3
DIMLTEX2
350
2EA5
  3
DIMLTYPE
350
2EA3
  0
DICTIONARY
  5
2D10
102
{ACAD_REACTORS
330
2CB2
102
}
330
2CB2
100
AcDbDictionary
281
     1
  0
DICTIONARY
  5
2CB3
102
{ACAD_REACTORS
330
2CB2
102
}
330
2CB2
100
AcDbDictionary
281
     1
  0
DICTIONARY
  5
2D0F
102
{ACAD_REACTORS
330
2CB2
102
}
330
2CB2
100
AcDbDictionary
281
     1
  3
Model
350
2D1D
  3
レイアウト1
350
2D19
  0
DICTIONARY
  5
2CB6
102
{ACAD_REACTORS
330
2CB2
102
}
330
2CB2
100
AcDbDictionary
281
     1
  3
ByBlock
350
2CBF
  3
ByLayer
350
2CB7
  3
Global
350
2CC7
  0
DICTIONARY
  5
2D13
102
{ACAD_REACTORS
330
2CB2
102
}
330
2CB2
100
AcDbDictionary
281
     1
  3
Standard
350
2D14
  0
DICTIONARY
  5
2D0C
102
{ACAD_REACTORS
330
2CB2
102
}
330
2CB2
100
AcDbDictionary
281
     1
  3
Standard
350
2D0D
  0
DICTIONARY
  5
2D0E
102
{ACAD_REACTORS
330
2CB2
102
}
330
2CB2
100
AcDbDictionary
281
     1
  0
ACDBDICTIONARYWDFLT
  5
2CB4
102
{ACAD_REACTORS
330
2CB2
102
}
330
2CB2
100
AcDbDictionary
281
     1
  3
Normal
350
2CB5
100
AcDbDictionaryWithDefault
340
2CB5
  0
DICTIONARY
  5
2CE0
102
{ACAD_REACTORS
330
2CB2
102
}
330
2CB2
100
AcDbDictionary
281
     1
  3
A0
350
2CE1
  3
A1
350
2CE2
  3
A2
350
2CE3
  3
A3
350
2CE4
  3
A4
350
2CE5
  3
A5
350
2CE6
  3
A6
350
2CE7
  3
A7
350
2CE8
  3
A8
350
2CE9
  3
A9
350
2CEA
  3
B0
350
2CEB
  3
B1
350
2CEC
  3
B2
350
2CED
  3
B3
350
2CEE
  3
B4
350
2CEF
  3
B5
350
2CF0
  3
B6
350
2CF1
  3
B7
350
2CF2
  3
B8
350
2CF3
  3
B9
350
2CF4
  3
C0
350
2CF5
  3
C1
350
2CF6
  3
C2
350
2CF7
  3
C3
350
2CF8
  3
C4
350
2CF9
  3
C5
350
2CFA
  3
C6
350
2CFB
  3
C7
350
2CFC
  3
C8
350
2CFD
  3
C9
350
2CFE
  3
D0
350
2CFF
  3
D1
350
2D00
  3
D2
350
2D01
  0
DICTIONARY
  5
2D11
102
{ACAD_REACTORS
330
2CB2
102
}
330
2CB2
100
AcDbDictionary
281
     1
  3
Standard
350
2D12
  0
DICTIONARY
  5
2CCF
102
{ACAD_REACTORS
330
2CB2
102
}
330
2CB2
100
AcDbDictionary
281
     1
  3
2dWireframe
350
2CD5
  3
3D Hidden
350
2CD7
  3
3dWireframe
350
2CD6
  3
Basic
350
2CD4
  3
Brighten
350
2CDB
  3
ColorChange
350
2CDF
  3
Conceptual
350
2CD8
  3
Dim
350
2CDA
  3
Facepattern
350
2CDE
  3
Flat
350
2CD0
  3
FlatWithEdges
350
2CD1
  3
Gouraud
350
2CD2
  3
GouraudWithEdges
350
2CD3
  3
Linepattern
350
2CDD
  3
Realistic
350
2CD9
  3
Thicken
350
2CDC
  0
XRECORD
  5
2E9F
102
{ACAD_REACTORS
330
2CB2
102
}
330
2CB2
100
AcDbXrecord
280
     1
 90
        1
330
2D12
  0
DICTIONARY
  5
2E96
102
{ACAD_REACTORS
330
2CB2
102
}
330
2CB2
100
AcDbDictionary
281
     1
  3
CANNOSCALE
350
2E99
  3
CMLEADERSTYLE
350
2E98
  3
CTABLESTYLE
350
2E97
  3
DIMASSOC
350
2E9C
  3
INDEXCTL
350
2E9B
  3
SORTENTS
350
2E9A
  0
DICTIONARY
  5
2E46
102
{ACAD_REACTORS
330
2CB2
102
}
330
2CB2
100
AcDbDictionary
281
     1
  3
AcmStdDictionary
350
2E54
  0
DICTIONARY
  5
2D93
102
{ACAD_REACTORS
330
2CB2
102
}
330
2CB2
100
AcDbDictionary
281
     1
  3
AcMgSettings
350
2D94
  0
XRECORD
  5
2EA0
102
{ACAD_REACTORS
330
2CB2
102
}
330
2CB2
100
AcDbXrecord
280
     1
  1
DWGPROPS COOKIE
  2

  3

  4

  6

  7

  8
A090053
  9

300
AmdtFileType=84
301
=
302
=
303
=
304
=
305
=
306
=
307
=
308
=
309
=
 40
1.043348263888888
 41
2452321.396199653
 42
2456213.411353438
  1

 90
        1
  0
XRECORD
  5
2E6F
102
{ACAD_REACTORS
330
2E6E
102
}
330
2E6E
100
AcDbXrecord
280
     1
290
     1
  0
XRECORD
  5
2E71
102
{ACAD_REACTORS
330
2E70
102
}
330
2E70
100
AcDbXrecord
280
     1
290
     1
  0
XRECORD
  5
2E73
102
{ACAD_REACTORS
330
2E72
102
}
330
2E72
100
AcDbXrecord
280
     1
290
     1
  0
XRECORD
  5
2E75
102
{ACAD_REACTORS
330
2E74
102
}
330
2E74
100
AcDbXrecord
280
     1
290
     1
  0
XRECORD
  5
2E77
102
{ACAD_REACTORS
330
2E76
102
}
330
2E76
100
AcDbXrecord
280
     1
290
     1
  0
XRECORD
  5
2E79
102
{ACAD_REACTORS
330
2E78
102
}
330
2E78
100
AcDbXrecord
280
     1
290
     1
  0
XRECORD
  5
2E7B
102
{ACAD_REACTORS
330
2E7A
102
}
330
2E7A
100
AcDbXrecord
280
     1
290
     1
  0
XRECORD
  5
2E7D
102
{ACAD_REACTORS
330
2E7C
102
}
330
2E7C
100
AcDbXrecord
280
     1
290
     1
  0
XRECORD
  5
2E7F
102
{ACAD_REACTORS
330
2E7E
102
}
330
2E7E
100
AcDbXrecord
280
     1
290
     1
  0
XRECORD
  5
2E81
102
{ACAD_REACTORS
330
2E80
102
}
330
2E80
100
AcDbXrecord
280
     1
290
     1
  0
XRECORD
  5
2E83
102
{ACAD_REACTORS
330
2E82
102
}
330
2E82
100
AcDbXrecord
280
     1
290
     1
  0
XRECORD
  5
2E85
102
{ACAD_REACTORS
330
2E84
102
}
330
2E84
100
AcDbXrecord
280
     1
290
     1
  0
DICTIONARY
  5
2E87
102
{ACAD_REACTORS
330
2E86
102
}
330
2E86
100
AcDbDictionary
281
     1
  3
*A1
350
2E88
  0
XRECORD
  5
2EA2
102
{ACAD_REACTORS
330
2EA1
102
}
330
2EA1
100
AcDbXrecord
280
     1
 70
     1
  0
XRECORD
  5
2EA4
102
{ACAD_REACTORS
330
2EA1
102
}
330
2EA1
100
AcDbXrecord
280
     1
340
2D08
  0
XRECORD
  5
2EA5
102
{ACAD_REACTORS
330
2EA1
102
}
330
2EA1
100
AcDbXrecord
280
     1
340
2D08
  0
XRECORD
  5
2EA3
102
{ACAD_REACTORS
330
2EA1
102
}
330
2EA1
100
AcDbXrecord
280
     1
340
2D08
  0
LAYOUT
  5
2D1D
102
{ACAD_XDICTIONARY
360
2EAC
102
}
102
{ACAD_REACTORS
330
2D0F
102
}
330
2D0F
100
AcDbPlotSettings
  1

  2
自動 EPSON LP-9600S (W2450527 上)
  4

  6

 40
0.0
 41
0.0
 42
0.0
 43
0.0
 44
0.0
 45
0.0
 46
0.0
 47
0.0
 48
0.0
 49
0.0
140
0.0
141
0.0
142
1.0
143
1.0
 70
  1712
 72
     0
 73
     0
 74
     0
  7

 75
     0
147
1.0
148
0.0
149
0.0
100
AcDbLayout
  1
Model
 70
     1
 71
     0
 10
0.0
 20
0.0
 11
12.0
 21
9.0
 12
0.0
 22
0.0
 32
0.0
 14
0.0
 24
0.0
 34
0.0
 15
0.0
 25
0.0
 35
0.0
146
0.0
 13
0.0
 23
0.0
 33
0.0
 16
1.0
 26
0.0
 36
0.0
 17
0.0
 27
1.0
 37
0.0
 76
     0
330
2D1A
331
2D1E
  0
LAYOUT
  5
2D19
102
{ACAD_XDICTIONARY
360
2EAA
102
}
102
{ACAD_REACTORS
330
2D0F
102
}
330
2D0F
100
AcDbPlotSettings
  1

  2
自動 EPSON LP-9600S (W2450527 上)
  4

  6

 40
0.0
 41
0.0
 42
0.0
 43
0.0
 44
0.0
 45
0.0
 46
0.0
 47
0.0
 48
0.0
 49
0.0
140
0.0
141
0.0
142
1.0
143
1.0
 70
   688
 72
     0
 73
     0
 74
     5
  7

 75
    16
147
1.0
148
0.0
149
0.0
100
AcDbLayout
  1
レイアウト1
 70
     1
 71
     1
 10
0.0
 20
0.0
 11
12.0
 21
9.0
 12
0.0
 22
0.0
 32
0.0
 14
1.000000000000000E+20
 24
1.000000000000000E+20
 34
1.000000000000000E+20
 15
-1.000000000000000E+20
 25
-1.000000000000000E+20
 35
-1.000000000000000E+20
146
0.0
 13
0.0
 23
0.0
 33
0.0
 16
1.0
 26
0.0
 36
0.0
 17
0.0
 27
1.0
 37
0.0
 76
     0
330
2D16
  0
MATERIAL
  5
2CBF
102
{ACAD_XDICTIONARY
360
2CC0
102
}
102
{ACAD_REACTORS
330
2CB6
102
}
330
2CB6
100
AcDbMaterial
  1
ByBlock
 72
     0
 43
0.0208333333333333
 43
0.0
 43
0.0
 43
0.0
 43
0.0
 43
0.0208333333333333
 43
0.0
 43
0.0
 43
0.0
 43
0.0
 43
1.0
 43
0.0
 43
0.0
 43
0.0
 43
0.0
 43
1.0
 77
     0
 47
0.0208333333333333
 47
0.0
 47
0.0
 47
0.0
 47
0.0
 47
0.0208333333333333
 47
0.0
 47
0.0
 47
0.0
 47
0.0
 47
1.0
 47
0.0
 47
0.0
 47
0.0
 47
0.0
 47
1.0
171
     0
 49
0.0208333333333333
 49
0.0
 49
0.0
 49
0.0
 49
0.0
 49
0.0208333333333333
 49
0.0
 49
0.0
 49
0.0
 49
0.0
 49
1.0
 49
0.0
 49
0.0
 49
0.0
 49
0.0
 49
1.0
175
     0
142
0.0208333333333333
142
0.0
142
0.0
142
0.0
142
0.0
142
0.0208333333333333
142
0.0
142
0.0
142
0.0
142
0.0
142
1.0
142
0.0
142
0.0
142
0.0
142
0.0
142
1.0
179
     0
144
0.0208333333333333
144
0.0
144
0.0
144
0.0
144
0.0
144
0.0208333333333333
144
0.0
144
0.0
144
0.0
144
0.0
144
1.0
144
0.0
144
0.0
144
0.0
144
0.0
144
1.0
147
0.0208333333333333
147
0.0
147
0.0
147
0.0
147
0.0
147
0.0208333333333333
147
0.0
147
0.0
147
0.0
147
0.0
147
1.0
147
0.0
147
0.0
147
0.0
147
0.0
147
1.0
  0
MATERIAL
  5
2CB7
102
{ACAD_XDICTIONARY
360
2CB8
102
}
102
{ACAD_REACTORS
330
2CB6
102
}
330
2CB6
100
AcDbMaterial
  1
ByLayer
 72
     0
 43
0.0208333333333333
 43
0.0
 43
0.0
 43
0.0
 43
0.0
 43
0.0208333333333333
 43
0.0
 43
0.0
 43
0.0
 43
0.0
 43
1.0
 43
0.0
 43
0.0
 43
0.0
 43
0.0
 43
1.0
 77
     0
 47
0.0208333333333333
 47
0.0
 47
0.0
 47
0.0
 47
0.0
 47
0.0208333333333333
 47
0.0
 47
0.0
 47
0.0
 47
0.0
 47
1.0
 47
0.0
 47
0.0
 47
0.0
 47
0.0
 47
1.0
171
     0
 49
0.0208333333333333
 49
0.0
 49
0.0
 49
0.0
 49
0.0
 49
0.0208333333333333
 49
0.0
 49
0.0
 49
0.0
 49
0.0
 49
1.0
 49
0.0
 49
0.0
 49
0.0
 49
0.0
 49
1.0
175
     0
142
0.0208333333333333
142
0.0
142
0.0
142
0.0
142
0.0
142
0.0208333333333333
142
0.0
142
0.0
142
0.0
142
0.0
142
1.0
142
0.0
142
0.0
142
0.0
142
0.0
142
1.0
179
     0
144
0.0208333333333333
144
0.0
144
0.0
144
0.0
144
0.0
144
0.0208333333333333
144
0.0
144
0.0
144
0.0
144
0.0
144
1.0
144
0.0
144
0.0
144
0.0
144
0.0
144
1.0
147
0.0208333333333333
147
0.0
147
0.0
147
0.0
147
0.0
147
0.0208333333333333
147
0.0
147
0.0
147
0.0
147
0.0
147
1.0
147
0.0
147
0.0
147
0.0
147
0.0
147
1.0
  0
MATERIAL
  5
2CC7
102
{ACAD_XDICTIONARY
360
2CC8
102
}
102
{ACAD_REACTORS
330
2CB6
102
}
330
2CB6
100
AcDbMaterial
  1
Global
 72
     0
 43
0.0208333333333333
 43
0.0
 43
0.0
 43
0.0
 43
0.0
 43
0.0208333333333333
 43
0.0
 43
0.0
 43
0.0
 43
0.0
 43
1.0
 43
0.0
 43
0.0
 43
0.0
 43
0.0
 43
1.0
 77
     0
 47
0.0208333333333333
 47
0.0
 47
0.0
 47
0.0
 47
0.0
 47
0.0208333333333333
 47
0.0
 47
0.0
 47
0.0
 47
0.0
 47
1.0
 47
0.0
 47
0.0
 47
0.0
 47
0.0
 47
1.0
171
     0
 49
0.0208333333333333
 49
0.0
 49
0.0
 49
0.0
 49
0.0
 49
0.0208333333333333
 49
0.0
 49
0.0
 49
0.0
 49
0.0
 49
1.0
 49
0.0
 49
0.0
 49
0.0
 49
0.0
 49
1.0
175
     0
142
0.0208333333333333
142
0.0
142
0.0
142
0.0
142
0.0
142
0.0208333333333333
142
0.0
142
0.0
142
0.0
142
0.0
142
1.0
142
0.0
142
0.0
142
0.0
142
0.0
142
1.0
179
     0
144
0.0208333333333333
144
0.0
144
0.0
144
0.0
144
0.0
144
0.0208333333333333
144
0.0
144
0.0
144
0.0
144
0.0
144
1.0
144
0.0
144
0.0
144
0.0
144
0.0
144
1.0
147
0.0208333333333333
147
0.0
147
0.0
147
0.0
147
0.0
147
0.0208333333333333
147
0.0
147
0.0
147
0.0
147
0.0
147
1.0
147
0.0
147
0.0
147
0.0
147
0.0
147
1.0
  0
MLEADERSTYLE
  5
2D14
102
{ACAD_REACTORS
330
2D13
102
}
330
2D13
100
AcDbMLeaderStyle
170
     2
171
     1
172
     0
 90
        2
 40
0.0
 41
0.0
173
     1
 91
-1056964608
340
2D08
 92
       -2
290
     1
 42
0.09
291
     1
 43
0.36
  3
Standard
 44
0.18
300

342
2D03
174
     1
178
     6
175
     1
176
     0
 93
-1056964608
 45
0.18
292
     0
297
     0
 46
0.18
 94
-1056964608
 47
1.0
 49
1.0
140
1.0
293
     1
141
0.0
294
     1
177
     0
142
1.0
295
     0
296
     0
143
0.125
1001
ACAD_MLEADERVER
1070
     2
  0
MLINESTYLE
  5
2D0D
102
{ACAD_REACTORS
330
2D0C
102
}
330
2D0C
100
AcDbMlineStyle
  2
STANDARD
 70
     0
  3

 62
   256
 51
90.0
 52
90.0
 71
     2
 49
0.5
 62
   256
  6
BYLAYER
 49
-0.5
 62
   256
  6
BYLAYER
  0
ACDBPLACEHOLDER
  5
2CB5
102
{ACAD_REACTORS
330
2CB4
102
}
330
2CB4
  0
SCALE
  5
2CE1
102
{ACAD_REACTORS
330
2CE0
102
}
330
2CE0
100
AcDbScale
 70
     0
300
1:1
140
1.0
141
1.0
290
     1
  0
SCALE
  5
2CE2
102
{ACAD_REACTORS
330
2CE0
102
}
330
2CE0
100
AcDbScale
 70
     0
300
1:2
140
1.0
141
2.0
290
     0
  0
SCALE
  5
2CE3
102
{ACAD_REACTORS
330
2CE0
102
}
330
2CE0
100
AcDbScale
 70
     0
300
1:4
140
1.0
141
4.0
290
     0
  0
SCALE
  5
2CE4
102
{ACAD_REACTORS
330
2CE0
102
}
330
2CE0
100
AcDbScale
 70
     0
300
1:5
140
1.0
141
5.0
290
     0
  0
SCALE
  5
2CE5
102
{ACAD_REACTORS
330
2CE0
102
}
330
2CE0
100
AcDbScale
 70
     0
300
1:8
140
1.0
141
8.0
290
     0
  0
SCALE
  5
2CE6
102
{ACAD_REACTORS
330
2CE0
102
}
330
2CE0
100
AcDbScale
 70
     0
300
1:10
140
1.0
141
10.0
290
     0
  0
SCALE
  5
2CE7
102
{ACAD_REACTORS
330
2CE0
102
}
330
2CE0
100
AcDbScale
 70
     0
300
1:16
140
1.0
141
16.0
290
     0
  0
SCALE
  5
2CE8
102
{ACAD_REACTORS
330
2CE0
102
}
330
2CE0
100
AcDbScale
 70
     0
300
1:20
140
1.0
141
20.0
290
     0
  0
SCALE
  5
2CE9
102
{ACAD_REACTORS
330
2CE0
102
}
330
2CE0
100
AcDbScale
 70
     0
300
1:30
140
1.0
141
30.0
290
     0
  0
SCALE
  5
2CEA
102
{ACAD_REACTORS
330
2CE0
102
}
330
2CE0
100
AcDbScale
 70
     0
300
1:40
140
1.0
141
40.0
290
     0
  0
SCALE
  5
2CEB
102
{ACAD_REACTORS
330
2CE0
102
}
330
2CE0
100
AcDbScale
 70
     0
300
1:50
140
1.0
141
50.0
290
     0
  0
SCALE
  5
2CEC
102
{ACAD_REACTORS
330
2CE0
102
}
330
2CE0
100
AcDbScale
 70
     0
300
1:100
140
1.0
141
100.0
290
     0
  0
SCALE
  5
2CED
102
{ACAD_REACTORS
330
2CE0
102
}
330
2CE0
100
AcDbScale
 70
     0
300
2:1
140
2.0
141
1.0
290
     0
  0
SCALE
  5
2CEE
102
{ACAD_REACTORS
330
2CE0
102
}
330
2CE0
100
AcDbScale
 70
     0
300
4:1
140
4.0
141
1.0
290
     0
  0
SCALE
  5
2CEF
102
{ACAD_REACTORS
330
2CE0
102
}
330
2CE0
100
AcDbScale
 70
     0
300
8:1
140
8.0
141
1.0
290
     0
  0
SCALE
  5
2CF0
102
{ACAD_REACTORS
330
2CE0
102
}
330
2CE0
100
AcDbScale
 70
     0
300
10:1
140
10.0
141
1.0
290
     0
  0
SCALE
  5
2CF1
102
{ACAD_REACTORS
330
2CE0
102
}
330
2CE0
100
AcDbScale
 70
     0
300
100:1
140
100.0
141
1.0
290
     0
  0
SCALE
  5
2CF2
102
{ACAD_REACTORS
330
2CE0
102
}
330
2CE0
100
AcDbScale
 70
     0
300
1/128" = 1'-0"
140
0.0078125
141
12.0
290
     0
  0
SCALE
  5
2CF3
102
{ACAD_REACTORS
330
2CE0
102
}
330
2CE0
100
AcDbScale
 70
     0
300
1/64" = 1'-0"
140
0.015625
141
12.0
290
     0
  0
SCALE
  5
2CF4
102
{ACAD_REACTORS
330
2CE0
102
}
330
2CE0
100
AcDbScale
 70
     0
300
1/32" = 1'-0"
140
0.03125
141
12.0
290
     0
  0
SCALE
  5
2CF5
102
{ACAD_REACTORS
330
2CE0
102
}
330
2CE0
100
AcDbScale
 70
     0
300
1/16" = 1'-0"
140
0.0625
141
12.0
290
     0
  0
SCALE
  5
2CF6
102
{ACAD_REACTORS
330
2CE0
102
}
330
2CE0
100
AcDbScale
 70
     0
300
3/32" = 1'-0"
140
0.09375
141
12.0
290
     0
  0
SCALE
  5
2CF7
102
{ACAD_REACTORS
330
2CE0
102
}
330
2CE0
100
AcDbScale
 70
     0
300
1/8" = 1'-0"
140
0.125
141
12.0
290
     0
  0
SCALE
  5
2CF8
102
{ACAD_REACTORS
330
2CE0
102
}
330
2CE0
100
AcDbScale
 70
     0
300
3/16" = 1'-0"
140
0.1875
141
12.0
290
     0
  0
SCALE
  5
2CF9
102
{ACAD_REACTORS
330
2CE0
102
}
330
2CE0
100
AcDbScale
 70
     0
300
1/4" = 1'-0"
140
0.25
141
12.0
290
     0
  0
SCALE
  5
2CFA
102
{ACAD_REACTORS
330
2CE0
102
}
330
2CE0
100
AcDbScale
 70
     0
300
3/8" = 1'-0"
140
0.375
141
12.0
290
     0
  0
SCALE
  5
2CFB
102
{ACAD_REACTORS
330
2CE0
102
}
330
2CE0
100
AcDbScale
 70
     0
300
1/2" = 1'-0"
140
0.5
141
12.0
290
     0
  0
SCALE
  5
2CFC
102
{ACAD_REACTORS
330
2CE0
102
}
330
2CE0
100
AcDbScale
 70
     0
300
3/4" = 1'-0"
140
0.75
141
12.0
290
     0
  0
SCALE
  5
2CFD
102
{ACAD_REACTORS
330
2CE0
102
}
330
2CE0
100
AcDbScale
 70
     0
300
1" = 1'-0"
140
1.0
141
12.0
290
     0
  0
SCALE
  5
2CFE
102
{ACAD_REACTORS
330
2CE0
102
}
330
2CE0
100
AcDbScale
 70
     0
300
1-1/2" = 1'-0"
140
1.5
141
12.0
290
     0
  0
SCALE
  5
2CFF
102
{ACAD_REACTORS
330
2CE0
102
}
330
2CE0
100
AcDbScale
 70
     0
300
3" = 1'-0"
140
3.0
141
12.0
290
     0
  0
SCALE
  5
2D00
102
{ACAD_REACTORS
330
2CE0
102
}
330
2CE0
100
AcDbScale
 70
     0
300
6" = 1'-0"
140
6.0
141
12.0
290
     0
  0
SCALE
  5
2D01
102
{ACAD_REACTORS
330
2CE0
102
}
330
2CE0
100
AcDbScale
 70
     0
300
1'-0" = 1'-0"
140
12.0
141
12.0
290
     0
  0
TABLESTYLE
  5
2D12
102
{ACAD_XDICTIONARY
360
2E9D
102
}
102
{ACAD_REACTORS
330
2D11
102
}
330
2D11
100
AcDbTableStyle
  3
Standard
 70
     0
 71
     0
 40
0.06
 41
0.06
280
     0
281
     0
  7
STANDARD
140
0.18
170
     2
 62
     0
 63
     7
283
     0
274
    -2
284
     1
 64
     0
275
    -2
285
     1
 65
     0
276
    -2
286
     1
 66
     0
277
    -2
287
     1
 67
     0
278
    -2
288
     1
 68
     0
279
    -2
289
     1
 69
     0
  7
STANDARD
140
0.25
170
     5
 62
     0
 63
     7
283
     0
274
    -2
284
     1
 64
     0
275
    -2
285
     1
 65
     0
276
    -2
286
     1
 66
     0
277
    -2
287
     1
 67
     0
278
    -2
288
     1
 68
     0
279
    -2
289
     1
 69
     0
  7
STANDARD
140
0.18
170
     5
 62
     0
 63
     7
283
     0
274
    -2
284
     1
 64
     0
275
    -2
285
     1
 65
     0
276
    -2
286
     1
 66
     0
277
    -2
287
     1
 67
     0
278
    -2
288
     1
 68
     0
279
    -2
289
     1
 69
     0
  0
VISUALSTYLE
  5
2CD5
102
{ACAD_REACTORS
330
2CCF
102
}
330
2CCF
100
AcDbVisualStyle
  2
2dWireframe
 70
     4
 71
     0
 72
     2
 73
     0
 90
        0
 40
-0.6
 41
-30.0
 62
     5
 63
     7
 74
     1
 91
        4
 64
     7
 65
   257
 75
     1
175
     1
 42
1.0
 92
        0
 66
   257
 43
1.0
 76
     1
 77
     6
 78
     2
 67
     7
 79
     5
170
     0
171
     0
290
     0
174
     0
 93
        1
 44
0.0
173
     0
291
     0
 45
0.0
1001
ACAD
1000
AcDbSavedByObjectVersion
1070
     0
  0
VISUALSTYLE
  5
2CD7
102
{ACAD_REACTORS
330
2CCF
102
}
330
2CCF
100
AcDbVisualStyle
  2
3D Hidden
 70
     6
 71
     1
 72
     2
 73
     2
 90
        0
 40
-0.6
 41
-30.0
 62
     5
 63
     7
 74
     2
 91
        2
 64
     7
 65
   257
 75
     2
175
     1
 42
40.0
 92
        0
 66
   257
 43
1.0
 76
     1
 77
     6
 78
     2
 67
     7
 79
     3
170
     0
171
     0
290
     0
174
     0
 93
        1
 44
0.0
173
     0
291
     0
 45
0.0
1001
ACAD
1000
AcDbSavedByObjectVersion
1070
     0
  0
VISUALSTYLE
  5
2CD6
102
{ACAD_REACTORS
330
2CCF
102
}
330
2CCF
100
AcDbVisualStyle
  2
3dWireframe
 70
     5
 71
     0
 72
     2
 73
     0
 90
        0
 40
-0.6
 41
-30.0
 62
     5
 63
     7
 74
     1
 91
        4
 64
     7
 65
   257
 75
     1
175
     1
 42
1.0
 92
        0
 66
   257
 43
1.0
 76
     1
 77
     6
 78
     2
 67
     7
 79
     5
170
     0
171
     0
290
     0
174
     0
 93
        1
 44
0.0
173
     0
291
     0
 45
0.0
1001
ACAD
1000
AcDbSavedByObjectVersion
1070
     0
  0
VISUALSTYLE
  5
2CD4
102
{ACAD_REACTORS
330
2CCF
102
}
330
2CCF
100
AcDbVisualStyle
  2
Basic
 70
     7
 71
     1
 72
     0
 73
     1
 90
        0
 40
-0.6
 41
-30.0
 62
     5
 63
     7
 74
     0
 91
        4
 64
     7
 65
   257
 75
     1
175
     1
 42
1.0
 92
        8
 66
     7
 43
1.0
 76
     1
 77
     6
 78
     2
 67
     7
 79
     5
170
     0
171
     0
290
     0
174
     0
 93
        1
 44
0.0
173
     0
291
     1
 45
0.0
1001
ACAD
1000
AcDbSavedByObjectVersion
1070
     0
  0
VISUALSTYLE
  5
2CDB
102
{ACAD_REACTORS
330
2CCF
102
}
330
2CCF
100
AcDbVisualStyle
  2
Brighten
 70
    12
 71
     2
 72
     2
 73
     0
 90
        0
 40
-0.6
 41
-30.0
 62
     5
 63
     7
 74
     1
 91
        4
 64
     7
 65
   257
 75
     1
175
     1
 42
1.0
 92
        8
 66
     7
 43
1.0
 76
     1
 77
     6
 78
     2
 67
     7
 79
     5
170
     0
171
     0
290
     0
174
     0
 93
        1
 44
50.0
173
     0
291
     1
 45
0.0
1001
ACAD
1000
AcDbSavedByObjectVersion
1070
     0
  0
VISUALSTYLE
  5
2CDF
102
{ACAD_REACTORS
330
2CCF
102
}
330
2CCF
100
AcDbVisualStyle
  2
ColorChange
 70
    16
 71
     2
 72
     2
 73
     3
 90
        0
 40
-0.6
 41
-30.0
 62
     5
 63
     8
 74
     1
 91
        4
 64
     7
 65
   257
 75
     1
175
     1
 42
1.0
 92
        8
 66
     8
 43
1.0
 76
     1
 77
     6
 78
     2
 67
     7
 79
     5
170
     0
171
     0
290
     0
174
     0
 93
        1
 44
0.0
173
     0
291
     1
 45
0.0
1001
ACAD
1000
AcDbSavedByObjectVersion
1070
     0
  0
VISUALSTYLE
  5
2CD8
102
{ACAD_REACTORS
330
2CCF
102
}
330
2CCF
100
AcDbVisualStyle
  2
Conceptual
 70
     9
 71
     3
 72
     2
 73
     0
 90
        0
 40
-0.6
 41
-30.0
 62
     5
 63
     7
 74
     2
 91
        2
 64
     7
 65
   257
 75
     1
175
     1
 42
40.0
 92
        8
 66
     7
 43
1.0
 76
     1
 77
     6
 78
     2
 67
     7
 79
     3
170
     0
171
     0
290
     0
174
     0
 93
        1
 44
0.0
173
     0
291
     0
 45
0.0
1001
ACAD
1000
AcDbSavedByObjectVersion
1070
     0
  0
VISUALSTYLE
  5
2CDA
102
{ACAD_REACTORS
330
2CCF
102
}
330
2CCF
100
AcDbVisualStyle
  2
Dim
 70
    11
 71
     2
 72
     2
 73
     0
 90
        0
 40
-0.6
 41
-30.0
 62
     5
 63
     7
 74
     1
 91
        4
 64
     7
 65
   257
 75
     1
175
     1
 42
1.0
 92
        8
 66
     7
 43
1.0
 76
     1
 77
     6
 78
     2
 67
     7
 79
     5
170
     0
171
     0
290
     0
174
     0
 93
        1
 44
-50.0
173
     0
291
     1
 45
0.0
1001
ACAD
1000
AcDbSavedByObjectVersion
1070
     0
  0
VISUALSTYLE
  5
2CDE
102
{ACAD_REACTORS
330
2CCF
102
}
330
2CCF
100
AcDbVisualStyle
  2
Facepattern
 70
    15
 71
     2
 72
     2
 73
     0
 90
        0
 40
-0.6
 41
-30.0
 62
     5
 63
     7
 74
     1
 91
        4
 64
     7
 65
   257
 75
     1
175
     1
 42
1.0
 92
        8
 66
     7
 43
1.0
 76
     1
 77
     6
 78
     2
 67
     7
 79
     5
170
     0
171
     0
290
     0
174
     0
 93
        1
 44
0.0
173
     0
291
     1
 45
0.0
1001
ACAD
1000
AcDbSavedByObjectVersion
1070
     0
  0
VISUALSTYLE
  5
2CD0
102
{ACAD_REACTORS
330
2CCF
102
}
330
2CCF
100
AcDbVisualStyle
  2
Flat
 70
     0
 71
     2
 72
     1
 73
     1
 90
        2
 40
-0.6
 41
30.0
 62
     5
 63
     7
 74
     0
 91
        4
 64
     7
 65
   257
 75
     1
175
     1
 42
1.0
 92
        8
 66
     7
 43
1.0
 76
     1
 77
     6
 78
     2
 67
     7
 79
     5
170
     0
171
     0
290
     0
174
     0
 93
       13
 44
0.0
173
     0
291
     1
 45
0.0
1001
ACAD
1000
AcDbSavedByObjectVersion
1070
     0
  0
VISUALSTYLE
  5
2CD1
102
{ACAD_REACTORS
330
2CCF
102
}
330
2CCF
100
AcDbVisualStyle
  2
FlatWithEdges
 70
     1
 71
     2
 72
     1
 73
     1
 90
        2
 40
-0.6
 41
30.0
 62
     5
 63
     7
 74
     1
 91
        4
 64
     7
 65
   257
 75
     1
175
     1
 42
1.0
 92
        0
 66
   257
 43
1.0
 76
     1
 77
     6
 78
     2
 67
     7
 79
     5
170
     0
171
     0
290
     0
174
     0
 93
       13
 44
0.0
173
     0
291
     1
 45
0.0
1001
ACAD
1000
AcDbSavedByObjectVersion
1070
     0
  0
VISUALSTYLE
  5
2CD2
102
{ACAD_REACTORS
330
2CCF
102
}
330
2CCF
100
AcDbVisualStyle
  2
Gouraud
 70
     2
 71
     2
 72
     2
 73
     1
 90
        2
 40
-0.6
 41
30.0
 62
     5
 63
     7
 74
     0
 91
        4
 64
     7
 65
   257
 75
     1
175
     1
 42
1.0
 92
        0
 66
     7
 43
1.0
 76
     1
 77
     6
 78
     2
 67
     7
 79
     5
170
     0
171
     0
290
     0
174
     0
 93
       13
 44
0.0
173
     0
291
     1
 45
0.0
1001
ACAD
1000
AcDbSavedByObjectVersion
1070
     0
  0
VISUALSTYLE
  5
2CD3
102
{ACAD_REACTORS
330
2CCF
102
}
330
2CCF
100
AcDbVisualStyle
  2
GouraudWithEdges
 70
     3
 71
     2
 72
     2
 73
     1
 90
        2
 40
-0.6
 41
30.0
 62
     5
 63
     7
 74
     1
 91
        4
 64
     7
 65
   257
 75
     1
175
     1
 42
1.0
 92
        0
 66
   257
 43
1.0
 76
     1
 77
     6
 78
     2
 67
     7
 79
     5
170
     0
171
     0
290
     0
174
     0
 93
       13
 44
0.0
173
     0
291
     1
 45
0.0
1001
ACAD
1000
AcDbSavedByObjectVersion
1070
     0
  0
VISUALSTYLE
  5
2CDD
102
{ACAD_REACTORS
330
2CCF
102
}
330
2CCF
100
AcDbVisualStyle
  2
Linepattern
 70
    14
 71
     2
 72
     2
 73
     0
 90
        0
 40
-0.6
 41
-30.0
 62
     5
 63
     7
 74
     1
 91
        4
 64
     7
 65
   257
 75
     7
175
     7
 42
1.0
 92
        8
 66
     7
 43
1.0
 76
     1
 77
     6
 78
     2
 67
     7
 79
     5
170
     0
171
     0
290
     0
174
     0
 93
        1
 44
0.0
173
     0
291
     1
 45
0.0
1001
ACAD
1000
AcDbSavedByObjectVersion
1070
     0
  0
VISUALSTYLE
  5
2CD9
102
{ACAD_REACTORS
330
2CCF
102
}
330
2CCF
100
AcDbVisualStyle
  2
Realistic
 70
     8
 71
     2
 72
     2
 73
     0
 90
        0
 40
-0.6
 41
-30.0
 62
     5
 63
     7
 74
     1
 91
        0
 64
     7
 65
   257
 75
     1
175
     1
 42
1.0
 92
        8
 66
     8
 43
1.0
 76
     1
 77
     6
 78
     2
 67
     7
 79
     5
170
     0
171
     0
290
     0
174
     0
 93
       13
 44
0.0
173
     0
291
     0
 45
0.0
1001
ACAD
1000
AcDbSavedByObjectVersion
1070
     0
  0
VISUALSTYLE
  5
2CDC
102
{ACAD_REACTORS
330
2CCF
102
}
330
2CCF
100
AcDbVisualStyle
  2
Thicken
 70
    13
 71
     2
 72
     2
 73
     0
 90
        0
 40
-0.6
 41
-30.0
 62
     5
 63
     7
 74
     1
 91
        4
 64
     7
 65
   257
 75
     1
175
     1
 42
1.0
 92
       12
 66
     7
 43
1.0
 76
     1
 77
     6
 78
     2
 67
     7
 79
     5
170
     0
171
     0
290
     0
174
     0
 93
        1
 44
0.0
173
     0
291
     1
 45
0.0
1001
ACAD
1000
AcDbSavedByObjectVersion
1070
     0
  0
DICTIONARYVAR
  5
2E99
102
{ACAD_REACTORS
330
2E96
102
}
330
2E96
100
DictionaryVariables
280
     0
  1
1:1
  0
DICTIONARYVAR
  5
2E98
102
{ACAD_REACTORS
330
2E96
102
}
330
2E96
100
DictionaryVariables
280
     0
  1
STANDARD
  0
DICTIONARYVAR
  5
2E97
102
{ACAD_REACTORS
330
2E96
102
}
330
2E96
100
DictionaryVariables
280
     0
  1
STANDARD
  0
DICTIONARYVAR
  5
2E9C
102
{ACAD_REACTORS
330
2E96
102
}
330
2E96
100
DictionaryVariables
280
     0
  1
1
  0
DICTIONARYVAR
  5
2E9B
102
{ACAD_REACTORS
330
2E96
102
}
330
2E96
100
DictionaryVariables
280
     0
  1
1
  0
DICTIONARYVAR
  5
2E9A
102
{ACAD_REACTORS
330
2E96
102
}
330
2E96
100
DictionaryVariables
280
     0
  1
127
  0
DICTIONARY
  5
2E54
102
{ACAD_REACTORS
330
2E46
102
}
330
2E46
100
AcDbDictionary
281
     1
  0
DICTIONARY
  5
2D94
102
{ACAD_REACTORS
330
2D93
102
}
330
2D93
100
AcDbDictionary
281
     1
  3
DWGSETTINGS
350
2D95
  3
TRANSSETTINGS
350
2D96
  0
LAYER_INDEX
  5
2E88
102
{ACAD_REACTORS
330
2E87
102
}
330
2E87
100
AcDbIndex
 40
2456213.411353438
100
AcDbLayerIndex
  8
0
360
2E89
 90
        0
  8
OUTLINE
360
2E8A
 90
       68
  8
SIZE
360
2E8B
 90
       60
  8
BASIS
360
2E8C
 90
        0
  8
DETAIL
360
2E8D
 90
       46
  8
ARRANGE
360
2E8E
 90
        3
  8
DEFPOINTS
360
2E8F
 90
        0
  8
ETC
360
2E90
 90
        3
  8
FIX
360
2E91
 90
       16
  8
NOTE
360
2E92
 90
       35
  8
SERVICESPACE
360
2E93
 90
        0
  8
SYMBOLLINE
360
2E94
 90
        0
  8
BASIC
360
2E95
 90
        2
  0
DICTIONARY
  5
2EAC
330
2D1D
100
AcDbDictionary
280
     1
281
     1
  3
ACAD_XREC_ROUNDTRIP
360
2EAD
  0
DICTIONARY
  5
2EAA
330
2D19
100
AcDbDictionary
280
     1
281
     1
  3
ACAD_XREC_ROUNDTRIP
360
2EAB
  0
DICTIONARY
  5
2CC0
330
2CBF
100
AcDbDictionary
280
     1
281
     1
  3
ACAD_XREC_ROUNDTRIP
360
2EA7
  3
BUMPTILE
360
2CC2
  3
DIFFUSETILE
360
2CC1
  3
OPACITYTILE
360
2CC5
  3
REFLECTIONTILE
360
2CC4
  3
REFRACTIONTILE
360
2CC6
  3
SPECULARTILE
360
2CC3
  0
DICTIONARY
  5
2CB8
330
2CB7
100
AcDbDictionary
280
     1
281
     1
  3
ACAD_XREC_ROUNDTRIP
360
2EA6
  3
BUMPTILE
360
2CBA
  3
DIFFUSETILE
360
2CB9
  3
OPACITYTILE
360
2CBD
  3
REFLECTIONTILE
360
2CBC
  3
REFRACTIONTILE
360
2CBE
  3
SPECULARTILE
360
2CBB
  0
DICTIONARY
  5
2CC8
330
2CC7
100
AcDbDictionary
280
     1
281
     1
  3
ACAD_XREC_ROUNDTRIP
360
2EA8
  3
BUMPTILE
360
2CCA
  3
DIFFUSETILE
360
2CC9
  3
OPACITYTILE
360
2CCD
  3
REFLECTIONTILE
360
2CCC
  3
REFRACTIONTILE
360
2CCE
  3
SPECULARTILE
360
2CCB
  0
DICTIONARY
  5
2E9D
330
2D12
100
AcDbDictionary
280
     1
281
     1
  3
ACAD_ROUNDTRIP_2008_TABLESTYLE_CELLSTYLEMAP
360
2E9E
  3
ACAD_XREC_ROUNDTRIP
360
2EA9
  0
IDBUFFER
  5
2E89
330
0
100
AcDbIdBuffer
  0
IDBUFFER
  5
2E8A
330
0
100
AcDbIdBuffer
330
2A01
330
2A02
330
2A03
330
2A04
330
2A05
330
2A06
330
2A07
330
2A08
330
2A09
330
2A0A
330
2A0B
330
2A0C
330
2A0D
330
2A0E
330
2A0F
330
2A10
330
2A12
330
2A14
330
2A16
330
2A18
330
953
330
954
330
955
330
956
330
957
330
958
330
297A
330
297B
330
297D
330
297F
330
2986
330
2987
330
2988
330
2989
330
298B
330
298C
330
298D
330
298E
330
2990
330
2991
330
2992
330
2993
330
29E7
330
29E8
330
29E9
330
29EA
330
29EB
330
29EC
330
29ED
330
29EE
330
29EF
330
29F0
330
29F1
330
29F2
330
29F3
330
29F4
330
29F5
330
29F6
330
29F7
330
29F8
330
29F9
330
29FA
330
29FB
330
29FC
330
29FD
330
29FE
330
29FF
330
2A00
  0
IDBUFFER
  5
2E8B
330
0
100
AcDbIdBuffer
330
2A49
330
2A4A
330
2A4B
330
2A4C
330
2A4D
330
2A4E
330
2A4F
330
2A50
330
2A51
330
2A52
330
2A53
330
2A54
330
2A19
330
2A1A
330
2A1B
330
2A1C
330
2A1D
330
2A1E
330
2A1F
330
2A20
330
2A21
330
2A22
330
2A23
330
2A24
330
2A25
330
2A26
330
2A27
330
2A28
330
2A29
330
2A2A
330
2A2B
330
2A2C
330
2A2D
330
2A2E
330
2A2F
330
2A30
330
2A31
330
2A32
330
2A33
330
2A34
330
2A35
330
2A36
330
2A37
330
2A38
330
2A39
330
2A3A
330
2A3B
330
2A3C
330
2A3D
330
2A3E
330
2A3F
330
2A40
330
2A41
330
2A42
330
2A43
330
2A44
330
2A45
330
2A46
330
2A47
330
2A48
  0
IDBUFFER
  5
2E8C
330
0
100
AcDbIdBuffer
  0
IDBUFFER
  5
2E8D
330
0
100
AcDbIdBuffer
330
299A
330
299B
330
299C
330
299D
330
299E
330
299F
330
29A0
330
29A1
330
29A2
330
29A3
330
29A4
330
29A5
330
29A6
330
29A7
330
29A8
330
29A9
330
29AA
330
29AB
330
29AC
330
29AD
330
29AE
330
29AF
330
29B0
330
29B1
330
29B2
330
29B3
330
2A11
330
2A13
330
2A15
330
2A17
330
297C
330
297E
330
2980
330
2981
330
2982
330
2983
330
2984
330
2985
330
298A
330
298F
330
2994
330
2995
330
2996
330
2997
330
2998
330
2999
  0
IDBUFFER
  5
2E8E
330
0
100
AcDbIdBuffer
330
2975
330
2976
330
2977
  0
IDBUFFER
  5
2E8F
330
0
100
AcDbIdBuffer
  0
IDBUFFER
  5
2E90
330
0
100
AcDbIdBuffer
330
29B4
330
29B5
330
29C6
  0
IDBUFFER
  5
2E91
330
0
100
AcDbIdBuffer
330
29B6
330
29B7
330
29B8
330
29B9
330
29BA
330
29BB
330
29BC
330
29BD
330
29BE
330
29BF
330
29C0
330
29C1
330
29C2
330
29C3
330
29C4
330
29C5
  0
IDBUFFER
  5
2E92
330
0
100
AcDbIdBuffer
330
29D7
330
29D8
330
29D9
330
29DA
330
29DB
330
29DC
330
29DD
330
29DE
330
29DF
330
29E0
330
29E1
330
29E2
330
29E3
330
29E4
330
29E5
330
29E6
330
2A55
330
2A56
330
2A57
330
29C7
330
29C8
330
29C9
330
29CA
330
29CB
330
29CC
330
29CD
330
29CE
330
29CF
330
29D0
330
29D1
330
29D2
330
29D3
330
29D4
330
29D5
330
29D6
  0
IDBUFFER
  5
2E93
330
0
100
AcDbIdBuffer
  0
IDBUFFER
  5
2E94
330
0
100
AcDbIdBuffer
  0
IDBUFFER
  5
2E95
330
0
100
AcDbIdBuffer
330
2978
330
2979
  0
XRECORD
  5
2EAD
102
{ACAD_REACTORS
330
2EAC
102
}
330
2EAC
100
AcDbXrecord
280
     1
102
SHADEPLOT
 70
     0
102
SHADEPLOTRESLEVEL
 70
     2
102
SHADEPLOTCUSTOMDPI
 70
   300
  0
XRECORD
  5
2EAB
102
{ACAD_REACTORS
330
2EAA
102
}
330
2EAA
100
AcDbXrecord
280
     1
102
SHADEPLOT
 70
     0
102
SHADEPLOTRESLEVEL
 70
     2
102
SHADEPLOTCUSTOMDPI
 70
   300
  0
XRECORD
  5
2EA7
102
{ACAD_REACTORS
330
2CC0
102
}
330
2CC0
100
AcDbXrecord
280
     1
102
MATERIAL
148
0.0
149
0.0
149
0.0
 93
        0
 94
      127
282
     0
 72
     0
 77
     0
171
     0
175
     0
179
     0
273
     0
  0
XRECORD
  5
2CC2
102
{ACAD_REACTORS
330
2CC0
102
}
330
2CC0
100
AcDbXrecord
280
     1
270
     1
271
     1
  0
XRECORD
  5
2CC1
102
{ACAD_REACTORS
330
2CC0
102
}
330
2CC0
100
AcDbXrecord
280
     1
270
     1
271
     1
  0
XRECORD
  5
2CC5
102
{ACAD_REACTORS
330
2CC0
102
}
330
2CC0
100
AcDbXrecord
280
     1
270
     1
271
     1
  0
XRECORD
  5
2CC4
102
{ACAD_REACTORS
330
2CC0
102
}
330
2CC0
100
AcDbXrecord
280
     1
270
     1
271
     1
  0
XRECORD
  5
2CC6
102
{ACAD_REACTORS
330
2CC0
102
}
330
2CC0
100
AcDbXrecord
280
     1
270
     1
271
     1
  0
XRECORD
  5
2CC3
102
{ACAD_REACTORS
330
2CC0
102
}
330
2CC0
100
AcDbXrecord
280
     1
270
     1
271
     1
  0
XRECORD
  5
2EA6
102
{ACAD_REACTORS
330
2CB8
102
}
330
2CB8
100
AcDbXrecord
280
     1
102
MATERIAL
148
0.0
149
0.0
149
0.0
 93
        0
 94
      127
282
     0
 72
     0
 77
     0
171
     0
175
     0
179
     0
273
     0
  0
XRECORD
  5
2CBA
102
{ACAD_REACTORS
330
2CB8
102
}
330
2CB8
100
AcDbXrecord
280
     1
270
     1
271
     1
  0
XRECORD
  5
2CB9
102
{ACAD_REACTORS
330
2CB8
102
}
330
2CB8
100
AcDbXrecord
280
     1
270
     1
271
     1
  0
XRECORD
  5
2CBD
102
{ACAD_REACTORS
330
2CB8
102
}
330
2CB8
100
AcDbXrecord
280
     1
270
     1
271
     1
  0
XRECORD
  5
2CBC
102
{ACAD_REACTORS
330
2CB8
102
}
330
2CB8
100
AcDbXrecord
280
     1
270
     1
271
     1
  0
XRECORD
  5
2CBE
102
{ACAD_REACTORS
330
2CB8
102
}
330
2CB8
100
AcDbXrecord
280
     1
270
     1
271
     1
  0
XRECORD
  5
2CBB
102
{ACAD_REACTORS
330
2CB8
102
}
330
2CB8
100
AcDbXrecord
280
     1
270
     1
271
     1
  0
XRECORD
  5
2EA8
102
{ACAD_REACTORS
330
2CC8
102
}
330
2CC8
100
AcDbXrecord
280
     1
102
MATERIAL
148
0.0
149
0.0
149
0.0
 93
        0
 94
      127
282
     0
 72
     0
 77
     0
171
     0
175
     0
179
     0
273
     0
  0
XRECORD
  5
2CCA
102
{ACAD_REACTORS
330
2CC8
102
}
330
2CC8
100
AcDbXrecord
280
     1
270
     1
271
     1
  0
XRECORD
  5
2CC9
102
{ACAD_REACTORS
330
2CC8
102
}
330
2CC8
100
AcDbXrecord
280
     1
270
     1
271
     1
  0
XRECORD
  5
2CCD
102
{ACAD_REACTORS
330
2CC8
102
}
330
2CC8
100
AcDbXrecord
280
     1
270
     1
271
     1
  0
XRECORD
  5
2CCC
102
{ACAD_REACTORS
330
2CC8
102
}
330
2CC8
100
AcDbXrecord
280
     1
270
     1
271
     1
  0
XRECORD
  5
2CCE
102
{ACAD_REACTORS
330
2CC8
102
}
330
2CC8
100
AcDbXrecord
280
     1
270
     1
271
     1
  0
XRECORD
  5
2CCB
102
{ACAD_REACTORS
330
2CC8
102
}
330
2CC8
100
AcDbXrecord
280
     1
270
     1
271
     1
  0
CELLSTYLEMAP
  5
2E9E
102
{ACAD_REACTORS
330
2E9D
102
}
330
2E9D
100
AcDbCellStyleMap
 90
        3
300
CELLSTYLE
  1
TABLEFORMAT_BEGIN
 90
        5
170
     1
 91
        0
 92
    32768
 62
   257
 93
        1
300
CONTENTFORMAT
  1
CONTENTFORMAT_BEGIN
 90
        0
 91
        0
 92
      512
 93
        0
300

 40
0.0
140
1.0
 94
        5
 62
     0
340
2D03
144
0.25
309
CONTENTFORMAT_END
171
     0
 94
        0
309
TABLEFORMAT_END
  1
CELLSTYLE_BEGIN
 90
        1
 91
        1
300
_TITLE
309
CELLSTYLE_END
300
CELLSTYLE
  1
TABLEFORMAT_BEGIN
 90
        5
170
     1
 91
        0
 92
        0
 62
   257
 93
        1
300
CONTENTFORMAT
  1
CONTENTFORMAT_BEGIN
 90
        0
 91
        0
 92
      512
 93
        0
300

 40
0.0
140
1.0
 94
        5
 62
     0
340
2D03
144
0.18
309
CONTENTFORMAT_END
171
     0
 94
        0
309
TABLEFORMAT_END
  1
CELLSTYLE_BEGIN
 90
        2
 91
        1
300
_HEADER
309
CELLSTYLE_END
300
CELLSTYLE
  1
TABLEFORMAT_BEGIN
 90
        5
170
     1
 91
        0
 92
        0
 62
   257
 93
        1
300
CONTENTFORMAT
  1
CONTENTFORMAT_BEGIN
 90
        0
 91
        0
 92
      512
 93
        0
300

 40
0.0
140
1.0
 94
        2
 62
     0
340
2D03
144
0.18
309
CONTENTFORMAT_END
171
     0
 94
        0
309
TABLEFORMAT_END
  1
CELLSTYLE_BEGIN
 90
        3
 91
        2
300
_DATA
309
CELLSTYLE_END
  0
XRECORD
  5
2EA9
102
{ACAD_REACTORS
330
2E9D
102
}
330
2E9D
100
AcDbXrecord
280
     1
102
ACAD_ROUNDTRIP_PRE2007_TABLESTYLE
 90
      512
 91
        0
  1

 92
      512
 93
        0
  2

 94
      512
 95
        0
  3

  0
ENDSEC
  0
EOF
