  0
SECTION
  2
HEADER
  9
$ACADVER
  1
AC1015
  9
$ACADMAINTVER
 70
    20
  9
$DWGCODEPAGE
  3
ANSI_932
  9
$INSBASE
 10
0.0
 20
0.0
 30
0.0
  9
$EXTMIN
 10
-1127.595114277968
 20
-1370.759950238714
 30
0.0
  9
$EXTMAX
 10
1368.041700443933
 20
615.2578212458883
 30
50.0
  9
$LIMMIN
 10
-2970.0
 20
-2100.0
  9
$LIMMAX
 10
2970.0
 20
2100.0
  9
$ORTHOMODE
 70
     1
  9
$REGENMODE
 70
     0
  9
$FILLMODE
 70
     1
  9
$QTEXTMODE
 70
     0
  9
$MIRRTEXT
 70
     0
  9
$LTSCALE
 40
20.0
  9
$ATTMODE
 70
     1
  9
$TEXTSIZE
 40
64.0
  9
$TRACEWID
 40
0.05
  9
$TEXTSTYLE
  7
STANDARD
  9
$CLAYER
  8
0
  9
$CELTYPE
  6
ByLayer
  9
$CECOLOR
 62
   256
  9
$CELTSCALE
 40
1.0
  9
$DISPSILH
 70
     0
  9
$DIMSCALE
 40
1.0
  9
$DIMASZ
 40
0.12
  9
$DIMEXO
 40
0.05
  9
$DIMDLI
 40
0.5
  9
$DIMRND
 40
0.0
  9
$DIMDLE
 40
0.0
  9
$DIMEXE
 40
0.1
  9
$DIMTP
 40
0.1
  9
$DIMTM
 40
0.1
  9
$DIMTXT
 40
0.12
  9
$DIMCEN
 40
0.0
  9
$DIMTSZ
 40
0.0
  9
$DIMTOL
 70
     0
  9
$DIMLIM
 70
     0
  9
$DIMTIH
 70
     1
  9
$DIMTOH
 70
     1
  9
$DIMSE1
 70
     0
  9
$DIMSE2
 70
     0
  9
$DIMTAD
 70
     0
  9
$DIMZIN
 70
     7
  9
$DIMBLK
  1

  9
$DIMASO
 70
     1
  9
$DIMSHO
 70
     0
  9
$DIMPOST
  1

  9
$DIMAPOST
  1
mm
  9
$DIMALT
 70
     0
  9
$DIMALTD
 70
     2
  9
$DIMALTF
 40
25.4
  9
$DIMLFAC
 40
1.0
  9
$DIMTOFL
 70
     0
  9
$DIMTVP
 40
0.0
  9
$DIMTIX
 70
     0
  9
$DIMSOXD
 70
     0
  9
$DIMSAH
 70
     0
  9
$DIMBLK1
  1

  9
$DIMBLK2
  1

  9
$DIMSTYLE
  2
AM_ANSI
  9
$DIMCLRD
 70
   256
  9
$DIMCLRE
 70
   256
  9
$DIMCLRT
 70
     2
  9
$DIMTFAC
 40
0.71
  9
$DIMGAP
 40
0.06
  9
$DIMJUST
 70
     0
  9
$DIMSD1
 70
     0
  9
$DIMSD2
 70
     0
  9
$DIMTOLJ
 70
     1
  9
$DIMTZIN
 70
     7
  9
$DIMALTZ
 70
     0
  9
$DIMALTTZ
 70
     0
  9
$DIMUPT
 70
     0
  9
$DIMDEC
 70
     4
  9
$DIMTDEC
 70
     4
  9
$DIMALTU
 70
     2
  9
$DIMALTTD
 70
     4
  9
$DIMTXSTY
  7
STANDARD
  9
$DIMAUNIT
 70
     0
  9
$DIMADEC
 70
     0
  9
$DIMALTRND
 40
0.0
  9
$DIMAZIN
 70
     2
  9
$DIMDSEP
 70
    46
  9
$DIMATFIT
 70
     3
  9
$DIMFRAC
 70
     0
  9
$DIMLDRBLK
  1

  9
$DIMLUNIT
 70
     2
  9
$DIMLWD
 70
    -1
  9
$DIMLWE
 70
    -1
  9
$DIMTMOVE
 70
     0
  9
$LUNITS
 70
     2
  9
$LUPREC
 70
     4
  9
$SKETCHINC
 40
0.1
  9
$FILLETRAD
 40
4.0
  9
$AUNITS
 70
     1
  9
$AUPREC
 70
     3
  9
$MENU
  1
ACAD
  9
$ELEVATION
 40
0.0
  9
$PELEVATION
 40
0.0
  9
$THICKNESS
 40
50.0
  9
$LIMCHECK
 70
     0
  9
$CHAMFERA
 40
0.0
  9
$CHAMFERB
 40
0.0
  9
$CHAMFERC
 40
0.0
  9
$CHAMFERD
 40
0.0
  9
$SKPOLY
 70
     0
  9
$TDCREATE
 40
2452321.396199653
  9
$TDUCREATE
 40
2452321.021199653
  9
$TDUPDATE
 40
2456213.411788068
  9
$TDUUPDATE
 40
2456213.036788068
  9
$TDINDWG
 40
1.0440550116
  9
$TDUSRTIMER
 40
1.0440492361
  9
$USRTIMER
 70
     1
  9
$ANGBASE
 50
0.0
  9
$ANGDIR
 70
     0
  9
$PDMODE
 70
     3
  9
$PDSIZE
 40
-2.0
  9
$PLINEWID
 40
0.0
  9
$SPLFRAME
 70
     0
  9
$SPLINETYPE
 70
     6
  9
$SPLINESEGS
 70
     8
  9
$HANDSEED
  5
3371
  9
$SURFTAB1
 70
     6
  9
$SURFTAB2
 70
     6
  9
$SURFTYPE
 70
     6
  9
$SURFU
 70
     6
  9
$SURFV
 70
     6
  9
$UCSBASE
  2

  9
$UCSNAME
  2

  9
$UCSORG
 10
0.0
 20
0.0
 30
0.0
  9
$UCSXDIR
 10
1.0
 20
0.0
 30
0.0
  9
$UCSYDIR
 10
0.0
 20
1.0
 30
0.0
  9
$UCSORTHOREF
  2

  9
$UCSORTHOVIEW
 70
     0
  9
$UCSORGTOP
 10
0.0
 20
0.0
 30
0.0
  9
$UCSORGBOTTOM
 10
0.0
 20
0.0
 30
0.0
  9
$UCSORGLEFT
 10
0.0
 20
0.0
 30
0.0
  9
$UCSORGRIGHT
 10
0.0
 20
0.0
 30
0.0
  9
$UCSORGFRONT
 10
0.0
 20
0.0
 30
0.0
  9
$UCSORGBACK
 10
0.0
 20
0.0
 30
0.0
  9
$PUCSBASE
  2

  9
$PUCSNAME
  2

  9
$PUCSORG
 10
0.0
 20
0.0
 30
0.0
  9
$PUCSXDIR
 10
1.0
 20
0.0
 30
0.0
  9
$PUCSYDIR
 10
0.0
 20
1.0
 30
0.0
  9
$PUCSORTHOREF
  2

  9
$PUCSORTHOVIEW
 70
     0
  9
$PUCSORGTOP
 10
0.0
 20
0.0
 30
0.0
  9
$PUCSORGBOTTOM
 10
0.0
 20
0.0
 30
0.0
  9
$PUCSORGLEFT
 10
0.0
 20
0.0
 30
0.0
  9
$PUCSORGRIGHT
 10
0.0
 20
0.0
 30
0.0
  9
$PUCSORGFRONT
 10
0.0
 20
0.0
 30
0.0
  9
$PUCSORGBACK
 10
0.0
 20
0.0
 30
0.0
  9
$USERI1
 70
     0
  9
$USERI2
 70
     0
  9
$USERI3
 70
     0
  9
$USERI4
 70
     0
  9
$USERI5
 70
     0
  9
$USERR1
 40
20.0
  9
$USERR2
 40
0.0
  9
$USERR3
 40
0.0
  9
$USERR4
 40
0.0
  9
$USERR5
 40
0.0
  9
$WORLDVIEW
 70
     1
  9
$SHADEDGE
 70
     3
  9
$SHADEDIF
 70
    70
  9
$TILEMODE
 70
     1
  9
$MAXACTVP
 70
    64
  9
$PINSBASE
 10
0.0
 20
0.0
 30
0.0
  9
$PLIMCHECK
 70
     0
  9
$PEXTMIN
 10
1.000000000000000E+20
 20
1.000000000000000E+20
 30
1.000000000000000E+20
  9
$PEXTMAX
 10
-1.000000000000000E+20
 20
-1.000000000000000E+20
 30
-1.000000000000000E+20
  9
$PLIMMIN
 10
0.0
 20
0.0
  9
$PLIMMAX
 10
12.0
 20
9.0
  9
$UNITMODE
 70
     0
  9
$VISRETAIN
 70
     1
  9
$PLINEGEN
 70
     0
  9
$PSLTSCALE
 70
     1
  9
$TREEDEPTH
 70
  3020
  9
$CMLSTYLE
  2
Standard
  9
$CMLJUST
 70
     0
  9
$CMLSCALE
 40
1.0
  9
$PROXYGRAPHICS
 70
     1
  9
$MEASUREMENT
 70
     0
  9
$CELWEIGHT
370
    -1
  9
$ENDCAPS
280
     0
  9
$JOINSTYLE
280
     0
  9
$LWDISPLAY
290
     0
  9
$INSUNITS
 70
     0
  9
$HYPERLINKBASE
  1

  9
$STYLESHEET
  1

  9
$XEDIT
290
     1
  9
$CEPSNTYPE
380
     0
  9
$PSTYLEMODE
290
     1
  9
$FINGERPRINTGUID
  2
{80B62347-0B38-408A-AA8E-D8E2428E877E}
  9
$VERSIONGUID
  2
{A173CFDE-91B3-4B00-8AE2-9F94447B4F3E}
  9
$EXTNAMES
290
     1
  9
$PSVPSCALE
 40
0.0
  9
$OLESTARTUP
290
     0
  0
ENDSEC
  0
SECTION
  2
CLASSES
  0
CLASS
  1
ACDBDICTIONARYWDFLT
  2
AcDbDictionaryWithDefault
  3
ObjectDBX Classes
 90
        0
280
     0
281
     0
  0
CLASS
  1
MATERIAL
  2
AcDbMaterial
  3
ObjectDBX Classes
 90
     1153
280
     0
281
     0
  0
CLASS
  1
VISUALSTYLE
  2
AcDbVisualStyle
  3
ObjectDBX Classes
 90
     4095
280
     0
281
     0
  0
CLASS
  1
SCALE
  2
AcDbScale
  3
ObjectDBX Classes
 90
     1153
280
     0
281
     0
  0
CLASS
  1
TABLESTYLE
  2
AcDbTableStyle
  3
ObjectDBX Classes
 90
     4095
280
     0
281
     0
  0
CLASS
  1
MLEADERSTYLE
  2
AcDbMLeaderStyle
  3
ACDB_MLEADERSTYLE_CLASS
 90
     4095
280
     0
281
     0
  0
CLASS
  1
AMGSETTINGSOBJ
  2
AmgSettingsObj
  3
"AcadM|Product Description: AutoCAD Mechanical|Company: Autodesk, Inc."
 90
     1024
280
     0
281
     0
  0
CLASS
  1
ACME_DOCUMENT
  2
AcMeDbDoc
  3
AcMeServices
 90
     1024
280
     0
281
     0
  0
CLASS
  1
ACMESCOPE
  2
AcMeScope
  3
AcMeServices
 90
     1024
280
     0
281
     0
  0
CLASS
  1
ACMECOMMANDHISTORY
  2
AcMeCommandHistory
  3
AcMeServices
 90
     1024
280
     0
281
     0
  0
CLASS
  1
ACIMSYSVARMAN
  2
AcImSysVarManager
  3
AcMeServices
 90
     1024
280
     0
281
     0
  0
CLASS
  1
ACIMREALSYSVAR
  2
AcImRealSysVar
  3
AcMeServices
 90
     1024
280
     0
281
     0
  0
CLASS
  1
ACIMINTSYSVAR
  2
AcImIntSysVar
  3
AcMeServices
 90
     1024
280
     0
281
     0
  0
CLASS
  1
ACMEDRAWINGMAN
  2
AcMeDrawingMan
  3
AcMeServices
 90
     1024
280
     0
281
     0
  0
CLASS
  1
ACMEVIEW
  2
AcMeView
  3
AcMeServices
 90
     1024
280
     0
281
     0
  0
CLASS
  1
ACDBENTITYCACHE
  2
AcMeEntityCache
  3
AcMeServices
 90
     1024
280
     0
281
     0
  0
CLASS
  1
GSMANAGER
  2
AcMeGSManager
  3
AcMeServices
 90
     1024
280
     0
281
     0
  0
CLASS
  1
AMDTINTERNALREACTOR
  2
AmdtInternalReactor
  3
AcMeServices
 90
     1024
280
     0
281
     0
  0
CLASS
  1
ACMESTATEMGR
  2
AcMeStateMgr
  3
AcMeServices
 90
     1024
280
     0
281
     0
  0
CLASS
  1
ACGREFMASTER
  2
AcGrefMaster
  3
AcAttribServices
 90
     1024
280
     0
281
     0
  0
CLASS
  1
AM_DRAWING_MGR
  2
AcDmDwgMgr
  3
AcMechDwgViewMgmt
 90
     1024
280
     0
281
     0
  0
CLASS
  1
AM_DWG_DOCUMENT
  2
AcDmDwgDocument
  3
AcMechDwgViewMgmt
 90
     1024
280
     0
281
     0
  0
CLASS
  1
AM_DWG_SHEET
  2
AcDmSheet
  3
AcMechDwgViewMgmt
 90
     1024
280
     0
281
     0
  0
CLASS
  1
AM_VIEWDIMPARMAP
  2
AcDmViewDimParMap
  3
AcMechDwgViewMgmt
 90
     1024
280
     0
281
     0
  0
CLASS
  1
AM_DWGMGR_NAME
  2
AcDmDwgMgrName
  3
AcMechDwgViewMgmt
 90
     1024
280
     0
281
     0
  0
CLASS
  1
ACME_DATABASE
  2
AcMeDbDatabase
  3
AcMeServices
 90
     1024
280
     0
281
     0
  0
CLASS
  1
ACRFINSADJUSTERMGR
  2
AcRfInsAdjusterMgr
  3
AcMeServices
 90
     1024
280
     0
281
     0
  0
CLASS
  1
ACGREFACADMASTER
  2
AcGrefacadMaster
  3
AcGrefServices
 90
     1024
280
     0
281
     0
  0
CLASS
  1
AMDTMENUSTATEMGR
  2
AmdtMenuStateMgr
  3
McadcomServices
 90
     1024
280
     0
281
     0
  0
CLASS
  1
AMDTMCOMMENUSTATE
  2
AmdtMcomMenuState
  3
McadcomServices
 90
     1024
280
     0
281
     0
  0
CLASS
  1
AMIMASTER
  2
AmiMaster
  3
AmiServices
 90
     1024
280
     0
281
     0
  0
CLASS
  1
ASAPP
  2
AcAsAppObject
  3
AutoSurfServices
 90
     1024
280
     0
281
     0
  0
CLASS
  1
IM_STATIC_MAN
  2
AcImStaticVarManager
  3
AcMeServices
 90
     1024
280
     0
281
     0
  0
CLASS
  1
ACIMSTRSYSVAR
  2
AcImStrSysVar
  3
AcMeServices
 90
     1024
280
     0
281
     0
  0
CLASS
  1
ACIMDBLSTATICVAR
  2
AcImDblStaticVar
  3
AcMeServices
 90
     1024
280
     0
281
     0
  0
CLASS
  1
ACIMSTRSTATICVAR
  2
AcImStrStaticVar
  3
AcMeServices
 90
     1024
280
     0
281
     0
  0
CLASS
  1
ACIMINTSTATICVAR
  2
AcImIntStaticVar
  3
AcMeServices
 90
     1024
280
     0
281
     0
  0
CLASS
  1
ACASGREFMASTER
  2
AcAsGrefMaster
  3
AutoSurfResolverServices
 90
     1024
280
     0
281
     0
  0
CLASS
  1
ACADGREFMODULE
  2
AcAdGrefModule
  3
AdGrefServices
 90
     1024
280
     0
281
     0
  0
CLASS
  1
AMDTMAPISURFMOUDULE
  2
AmdtMApiSurfModule
  3
MApiSurfServices
 90
     1024
280
     0
281
     0
  0
CLASS
  1
MAPIAMMOUDLE
  2
MApiAmModule
  3
MApiAmServices
 90
     1024
280
     0
281
     0
  0
CLASS
  1
AMDTADMENUSTATE
  2
AmdtAdMenuState
  3
DesignerServices
 90
     1024
280
     0
281
     0
  0
CLASS
  1
ADAPPL
  2
AcAdAppl
  3
DesignerServices
 90
     1024
280
     0
281
     0
  0
CLASS
  1
DEPMGR
  2
AcAdDepMgr
  3
DesignerServices
 90
     1024
280
     0
281
     0
  0
CLASS
  1
PARAMMGR
  2
AcAdParamMgr
  3
DesignerServices
 90
     1024
280
     0
281
     0
  0
CLASS
  1
PARAMSCOPE
  2
AcAdParamScope
  3
DesignerServices
 90
     1024
280
     0
281
     0
  0
CLASS
  1
NAMEDAPPL
  2
AcAdNamedAppl
  3
DesignerServices
 90
     1024
280
     0
281
     0
  0
CLASS
  1
AMDTDMMENUSTATE
  2
AmdtDmMenuState
  3
AcMechDwgViewMgmt
 90
     1024
280
     0
281
     0
  0
CLASS
  1
MAPIADMODULE
  2
MApiAdModule
  3
MApiAdServices
 90
     1024
280
     0
281
     0
  0
CLASS
  1
AMDTAMMENUSTATE
  2
AmdtAmMenuState
  3
DesignerAssemblies
 90
     1024
280
     0
281
     0
  0
CLASS
  1
ACAMPROJECT
  2
AcAmProject
  3
DesignerAssemblies
 90
     1024
280
     0
281
     0
  0
CLASS
  1
ACAMGRCOMPDEF
  2
AcAmGrCompDef
  3
DesignerAssemblies
 90
     1024
280
     0
281
     0
  0
CLASS
  1
ACCMCONTEXT
  2
AcCmContext
  3
DesignerAssemblies
 90
     1024
280
     0
281
     0
  0
CLASS
  1
ACAMCOMPDEF
  2
AcAmCompDef
  3
DesignerAssemblies
 90
     1024
280
     0
281
     0
  0
CLASS
  1
ACAMCOMPDEFMGR
  2
AcAmCompDefMgr
  3
DesignerAssemblies
 90
     1024
280
     0
281
     0
  0
CLASS
  1
AMCONTEXTMGR
  2
AcAmContextMgr
  3
DesignerAssemblies
 90
     1024
280
     0
281
     0
  0
CLASS
  1
ACAMCONTEXTMODELER
  2
AcAmContextModeler
  3
DesignerAssemblies
 90
     1024
280
     0
281
     0
  0
CLASS
  1
ACMDATADICTIONARY
  2
AcmDataDictionary
  3
"AcmSymBB|Product Description: AutoCAD Mechanical|Company: Autodesk, Inc."
 90
     1024
280
     0
281
     0
  0
CLASS
  1
ACMDATAENTRYBLOCK
  2
AcmDataEntryBlock
  3
AcmSymBB|Product Description: AutoCAD Mechanical|Company: Autodesk, Inc.
 90
     1024
280
     0
281
     0
  0
CLASS
  1
ACRFATTGENMGR
  2
AcRfAttGeneralMgr
  3
AcAttribServices
 90
     1024
280
     0
281
     0
  0
CLASS
  1
ACRFOBJATTMGR
  2
AcRfObjAttGroupMgr
  3
AcAttribServices
 90
     1024
280
     0
281
     0
  0
CLASS
  1
ACRFMCADAPIATTHOLDER
  2
AcRfMCADAPIAttHolder
  3
AcAttribServices
 90
     1024
280
     0
281
     0
  0
CLASS
  1
AMDTSYSATTR
  2
AmdtSystemAttribute
  3
AcAttribServices
 90
     1024
280
     0
281
     0
  0
CLASS
  1
CATALOGSTATE
  2
AcAmCatalogState
  3
DesignerAssemblies
 90
     1024
280
     0
281
     0
  0
CLASS
  1
ACAMGRCOMPDEFSET
  2
AcAmGrCompDefSet
  3
DesignerAssemblies
 90
     1024
280
     0
281
     0
  0
CLASS
  1
AMDTBROWSERDBTAB
  2
AmdtBrowserDbTab
  3
McadcomServices
 90
     1024
280
     0
281
     0
  0
CLASS
  1
CBROWSERAPPOBJECT
  2
CBrowserAppObject
  3
McadcomServices
 90
     1024
280
     0
281
     0
  0
CLASS
  1
DM_PLACEHOLDER
  2
AcDmSelsetPlaceholder
  3
AcMechDwgViewMgmt
 90
     1024
280
     0
281
     0
  0
CLASS
  1
ACMSTANDARDANSI
  2
AcmStandardANSI
  3
"Amdt_StdImp|Product Description: AutoCAD Mechanical|Company: Autodesk, Inc."
 90
     1024
280
     0
281
     0
  0
CLASS
  1
ACMSURFSTANDARDANSI
  2
AcmSurfTextStdANSI
  3
"Amdt_StdImp|Product Description: AutoCAD Mechanical|Company: Autodesk, Inc."
 90
     1024
280
     0
281
     0
  0
CLASS
  1
ACMFCFSTANDARDANSI
  2
AcmFCFStdANSI
  3
"Amdt_StdImp|Product Description: AutoCAD Mechanical|Company: Autodesk, Inc."
 90
     1024
280
     0
281
     0
  0
CLASS
  1
ACMWELDSTANDARDANSI
  2
AcmWeldingStdANSI
  3
"Amdt_StdImp|Product Description: AutoCAD Mechanical|Company: Autodesk, Inc."
 90
     1024
280
     0
281
     0
  0
CLASS
  1
ACMIDSTANDARDANSI
  2
AcmIdStdANSI
  3
"Amdt_StdImp|Product Description: AutoCAD Mechanical|Company: Autodesk, Inc."
 90
     1024
280
     0
281
     0
  0
CLASS
  1
ACMDATUMSTANDARDANSI
  2
AcmDatumStdANSI
  3
"Amdt_StdImp|Product Description: AutoCAD Mechanical|Company: Autodesk, Inc."
 90
     1024
280
     0
281
     0
  0
CLASS
  1
ACMBOMSTANDARDANSI
  2
AcmBOMStdANSI
  3
"Amdt_StdImp|Product Description: AutoCAD Mechanical|Company: Autodesk, Inc."
 90
     1024
280
     0
281
     0
  0
CLASS
  1
ACMDETAILSTANDARDANSI
  2
AmdtDetailSymStdANSI
  3
"Amdt_StdImp|Product Description: AutoCAD Mechanical|Company: Autodesk, Inc."
 90
     1024
280
     0
281
     0
  0
CLASS
  1
ACMSECTIONSTANDARDANSI
  2
AmdtSectionSymStdANSI
  3
"Amdt_StdImp|Product Description: AutoCAD Mechanical|Company: Autodesk, Inc."
 90
     1024
280
     0
281
     0
  0
CLASS
  1
ACMCENTERLINESTANDARDANSI
  2
AmdtCenterLineStdANSI
  3
"Amdt_StdImp|Product Description: AutoCAD Mechanical|Company: Autodesk, Inc."
 90
     1024
280
     0
281
     0
  0
CLASS
  1
ACMTHREADLINESTANDARDANSI
  2
AmdtThreadLineStdANSI
  3
"Amdt_StdImp|Product Description: AutoCAD Mechanical|Company: Autodesk, Inc."
 90
     1024
280
     0
281
     0
  0
CLASS
  1
ACMNOTESTANDARDANSI
  2
AmdtNoteStdANSI
  3
"Amdt_StdImp|Product Description: AutoCAD Mechanical|Company: Autodesk, Inc."
 90
     1024
280
     0
281
     0
  0
CLASS
  1
ACMTAPERSTANDARDANSI
  2
AcmTaperStdANSI
  3
"Amdt_StdImp|Product Description: AutoCAD Mechanical|Company: Autodesk, Inc."
 90
     1024
280
     0
281
     0
  0
CLASS
  1
ACMANOOTATIONVIEWSTANDARDANSI
  2
AmdtAnViewStdANSI
  3
"Amdt_StdImp|Product Description: AutoCAD Mechanical|Company: Autodesk, Inc."
 90
     1024
280
     0
281
     0
  0
CLASS
  1
ACAMGLAYSTD
  2
AcAmgLayStd
  3
"AmgLay|Product Description: AutoCAD Mechanical|Company: Autodesk, Inc."
 90
     1024
280
     0
281
     0
  0
CLASS
  1
ACAMGDIMSTD
  2
AcAmgDimStd
  3
"AmgDim|Product Description: AutoCAD Mechanical|Company: Autodesk, Inc."
 90
     1024
280
     0
281
     0
  0
CLASS
  1
ACAMGHOLECHARTSTDANSI
  2
AcAmgHoleChartStdANSI
  3
AmgDim|Product Description: AutoCAD Mechanical|Company: Autodesk, Inc.
 90
     1024
280
     0
281
     0
  0
CLASS
  1
AMGOBJPROPCFG
  2
AmgObjPropCfg
  3
"AmgLay|Product Description: AutoCAD Mechanical|Company: Autodesk, Inc."
 90
     1025
280
     0
281
     0
  0
CLASS
  1
ACAMGTITLESTD
  2
AcAmgTitleStd
  3
"AmgTitle|Product Description: AutoCAD Mechanical|Company: Autodesk, Inc."
 90
     4095
280
     0
281
     0
  0
CLASS
  1
AMDTNOTETEMPLATEDB
  2
AmdtNoteTemplateDB
  3
AcmSymBB|Product Description: AutoCAD Mechanical|Company: Autodesk, Inc.
 90
     1024
280
     0
281
     0
  0
CLASS
  1
LAYER_INDEX
  2
AcDbLayerIndex
  3
ObjectDBX Classes
 90
        0
280
     0
281
     0
  0
CLASS
  1
IDBUFFER
  2
AcDbIdBuffer
  3
ObjectDBX Classes
 90
        0
280
     0
281
     0
  0
CLASS
  1
DICTIONARYVAR
  2
AcDbDictionaryVar
  3
ObjectDBX Classes
 90
        0
280
     0
281
     0
  0
CLASS
  1
CELLSTYLEMAP
  2
AcDbCellStyleMap
  3
ObjectDBX Classes
 90
     1152
280
     0
281
     0
  0
CLASS
  1
ACDBPLACEHOLDER
  2
AcDbPlaceHolder
  3
ObjectDBX Classes
 90
        0
280
     0
281
     0
  0
CLASS
  1
LAYOUT
  2
AcDbLayout
  3
ObjectDBX Classes
 90
        0
280
     0
281
     0
  0
ENDSEC
  0
SECTION
  2
TABLES
  0
TABLE
  2
VPORT
  5
3165
330
0
100
AcDbSymbolTable
 70
     1
  0
VPORT
  5
31D5
330
3165
100
AcDbSymbolTableRecord
100
AcDbViewportTableRecord
  2
*ACTIVE
 70
     0
 10
0.0
 20
0.0
 11
1.0
 21
1.0
 12
0.0
 22
0.0
 13
0.0
 23
0.0
 14
1.0
 24
1.0
 15
0.0
 25
0.0
 16
0.0
 26
0.0
 36
1.0
 17
120.0943132863532
 27
-377.6321317740157
 37
0.0
 40
1999.485277660089
 41
1.712555066079295
 42
50.0
 43
0.0
 44
0.0
 50
0.0
 51
0.0
 71
     0
 72
   100
 73
     1
 74
     0
 75
     0
 76
     0
 77
     0
 78
     0
281
     0
 65
     0
110
0.0
120
0.0
130
0.0
111
1.0
121
0.0
131
0.0
112
0.0
122
1.0
132
0.0
 79
     0
146
0.0
  0
ENDTAB
  0
TABLE
  2
LTYPE
  5
3162
330
0
100
AcDbSymbolTable
 70
    20
  0
LTYPE
  5
31BF
330
3162
100
AcDbSymbolTableRecord
100
AcDbLinetypeTableRecord
  2
ByBlock
 70
     0
  3

 72
    65
 73
     0
 40
0.0
  0
LTYPE
  5
31C0
330
3162
100
AcDbSymbolTableRecord
100
AcDbLinetypeTableRecord
  2
ByLayer
 70
     0
  3

 72
    65
 73
     0
 40
0.0
  0
LTYPE
  5
31C1
330
3162
100
AcDbSymbolTableRecord
100
AcDbLinetypeTableRecord
  2
CONTINUOUS
 70
     0
  3
実線
 72
    65
 73
     0
 40
0.0
  0
LTYPE
  5
31D6
330
3162
100
AcDbSymbolTableRecord
100
AcDbLinetypeTableRecord
  2
DASHDOT
 70
     0
  3
____ _ ____ _ ____ _ ____ _ ____ _ ____ _ ____
 72
    65
 73
     4
 40
5.5
 49
4.0
 74
     0
 49
-0.6
 74
     0
 49
0.3
 74
     0
 49
-0.6
 74
     0
  0
LTYPE
  5
31D7
330
3162
100
AcDbSymbolTableRecord
100
AcDbLinetypeTableRecord
  2
HIDDEN
 70
     0
  3
Hidden __ __ __ __ __ __ __ __ __ __ __ __ __ _
 72
    65
 73
     2
 40
0.375
 49
0.25
 74
     0
 49
-0.125
 74
     0
  0
LTYPE
  5
31D8
330
3162
100
AcDbSymbolTableRecord
100
AcDbLinetypeTableRecord
  2
PHANTOM2
 70
     0
  3
Phantom (.5x) ___ _ _ ___ _ _ ___ _ _ ___ _ _
 72
    65
 73
     6
 40
1.25
 49
0.625
 74
     0
 49
-0.125
 74
     0
 49
0.125
 74
     0
 49
-0.125
 74
     0
 49
0.125
 74
     0
 49
-0.125
 74
     0
  0
LTYPE
  5
31D9
330
3162
100
AcDbSymbolTableRecord
100
AcDbLinetypeTableRecord
  2
CENTER
 70
     0
  3
Center ____ _ ____ _ ____ _ ____ _ ____ _ ____
 72
    65
 73
     4
 40
2.0
 49
1.25
 74
     0
 49
-0.25
 74
     0
 49
0.25
 74
     0
 49
-0.25
 74
     0
  0
LTYPE
  5
31DA
330
3162
100
AcDbSymbolTableRecord
100
AcDbLinetypeTableRecord
  2
ASULTYPE
 70
     0
  3
実線
 72
    65
 73
     2
 40
3.0
 49
2.5
 74
     0
 49
0.5
 74
     0
  0
LTYPE
  5
31DB
330
3162
100
AcDbSymbolTableRecord
100
AcDbLinetypeTableRecord
  2
ASVLTYPE
 70
     0
  3
__ __ __ __ __ __ __ __ __ __ __ __ __ __ __ __ __ __ __ __ __
 72
    65
 73
     2
 40
0.75
 49
0.5
 74
     0
 49
-0.25
 74
     0
  0
LTYPE
  5
31DC
330
3162
100
AcDbSymbolTableRecord
100
AcDbLinetypeTableRecord
  2
AM_ISO02W050
 70
     0
  3
__ __ __ __ __ __ __ __ __ __ __ __ __ __ __
 72
    65
 73
     2
 40
7.5
 49
6.0
 74
     0
 49
-1.5
 74
     0
  0
LTYPE
  5
31DD
330
3162
100
AcDbSymbolTableRecord
100
AcDbLinetypeTableRecord
  2
AM_ISO08W050
 70
     0
  3
____ . ____ . ____ . ____ . ____ . ____ . ____
 72
    65
 73
     4
 40
18.0
 49
12.0
 74
     0
 49
-1.5
 74
     0
 49
3.0
 74
     0
 49
-1.5
 74
     0
  0
LTYPE
  5
31DE
330
3162
100
AcDbSymbolTableRecord
100
AcDbLinetypeTableRecord
  2
AM_ISO09W050
 70
     0
  3
_____ . . _____ . . _____ . . ____ .. ____
 72
    65
 73
     6
 40
22.5
 49
12.0
 74
     0
 49
-1.5
 74
     0
 49
3.0
 74
     0
 49
-1.5
 74
     0
 49
3.0
 74
     0
 49
-1.5
 74
     0
  0
LTYPE
  5
31DF
330
3162
100
AcDbSymbolTableRecord
100
AcDbLinetypeTableRecord
  2
AMCONSTR
 70
     0
  3
_______________________
 72
    65
 73
     2
 40
9999.0
 49
9999.0
 74
     0
 49
0.0
 74
     0
  0
LTYPE
  5
31E0
330
3162
100
AcDbSymbolTableRecord
100
AcDbLinetypeTableRecord
  2
AM_ISO08W050X2
 70
     0
  3
__ . __ . __ . __ . __ . __
 72
    65
 73
     4
 40
9.0
 49
6.0
 74
     0
 49
-0.75
 74
     0
 49
1.5
 74
     0
 49
-0.75
 74
     0
  0
LTYPE
  5
31E1
330
3162
100
AcDbSymbolTableRecord
100
AcDbLinetypeTableRecord
  2
AM_ISO02W050X2
 70
     0
  3
 _ _ _ _ _ _ _ _ _ _ _ _
 72
    65
 73
     2
 40
3.75
 49
3.0
 74
     0
 49
-0.75
 74
     0
  0
LTYPE
  5
31E2
330
3162
100
AcDbSymbolTableRecord
100
AcDbLinetypeTableRecord
  2
AMZIGZAG
 70
     0
  3
/\/-/\/-/\/-/\/-/\/-/\/
 72
    65
 73
     2
 40
11.0001
 49
0.0001
 74
     0
 49
-11.0
 74
     0
  0
LTYPE
  5
31E3
330
3162
100
AcDbSymbolTableRecord
100
AcDbLinetypeTableRecord
  2
CENTER2
 70
     0
  3
Center (.5x) ___ _ ___ _ ___ _ ___ _ ___ _ ___
 72
    65
 73
     4
 40
1.125
 49
0.75
 74
     0
 49
-0.125
 74
     0
 49
0.125
 74
     0
 49
-0.125
 74
     0
  0
LTYPE
  5
31E4
330
3162
100
AcDbSymbolTableRecord
100
AcDbLinetypeTableRecord
  2
HIDDEN2
 70
     0
  3
Hidden (.5x) _ _ _ _ _ _ _ _ _ _ _ _ _ _ _ _ _
 72
    65
 73
     2
 40
0.1875
 49
0.125
 74
     0
 49
-0.0625
 74
     0
  0
LTYPE
  5
31E5
330
3162
100
AcDbSymbolTableRecord
100
AcDbLinetypeTableRecord
  2
AMZIGZAG2
 70
     0
  3
/\/-/\/-/\/-/\/-/\/-/\/
 72
    65
 73
     2
 40
0.4401
 49
0.0001
 74
     0
 49
-0.4400000000000003
 74
     0
  0
LTYPE
  5
31E6
330
3162
100
AcDbSymbolTableRecord
100
AcDbLinetypeTableRecord
  2
ACANSTGB
 70
     0
  3
__ . . __ . .
 72
    65
 73
     6
 40
0.35433070866
 49
0.15748031496
 74
     0
 49
-0.03937007874
 74
     0
 49
0.03937007874
 74
     0
 49
-0.03937007874
 74
     0
 49
0.03937007874
 74
     0
 49
-0.03937007874
 74
     0
  0
LTYPE
  5
31E7
330
3162
100
AcDbSymbolTableRecord
100
AcDbLinetypeTableRecord
  2
ACANSTGL
 70
     0
  3
_ _ _ _ _
 72
    65
 73
     2
 40
0.11811023622
 49
0.07874015748
 74
     0
 49
-0.03937007874
 74
     0
  0
LTYPE
  5
31E8
330
3162
100
AcDbSymbolTableRecord
100
AcDbLinetypeTableRecord
  2
CENTERX2
 70
     0
  3
________  __  ________  __  ________  __  _____
 72
    65
 73
     4
 40
4.0
 49
2.5
 74
     0
 49
-0.5
 74
     0
 49
0.5
 74
     0
 49
-0.5
 74
     0
  0
ENDTAB
  0
TABLE
  2
LAYER
  5
315F
330
0
100
AcDbSymbolTable
 70
    14
  0
LAYER
  5
31B9
102
{ACAD_XDICTIONARY
360
332A
102
}
330
315F
100
AcDbSymbolTableRecord
100
AcDbLayerTableRecord
  2
0
 70
     0
 62
     7
  6
CONTINUOUS
370
    -3
390
316C
  0
LAYER
  5
31E9
102
{ACAD_XDICTIONARY
360
332C
102
}
330
315F
100
AcDbSymbolTableRecord
100
AcDbLayerTableRecord
  2
OUTLINE
 70
     0
 62
     3
  6
CONTINUOUS
370
    -3
390
316C
  0
LAYER
  5
31EA
102
{ACAD_XDICTIONARY
360
332E
102
}
330
315F
100
AcDbSymbolTableRecord
100
AcDbLayerTableRecord
  2
SIZE
 70
     0
 62
    30
  6
CONTINUOUS
370
    -3
390
316C
  0
LAYER
  5
31EB
102
{ACAD_XDICTIONARY
360
3330
102
}
330
315F
100
AcDbSymbolTableRecord
100
AcDbLayerTableRecord
  2
BASIS
 70
     0
 62
     6
  6
DASHDOT
370
    -3
390
316C
  0
LAYER
  5
31EC
102
{ACAD_XDICTIONARY
360
3332
102
}
330
315F
100
AcDbSymbolTableRecord
100
AcDbLayerTableRecord
  2
DETAIL
 70
     0
 62
     5
  6
CONTINUOUS
370
    -3
390
316C
  0
LAYER
  5
31ED
102
{ACAD_XDICTIONARY
360
3334
102
}
330
315F
100
AcDbSymbolTableRecord
100
AcDbLayerTableRecord
  2
ARRANGE
 70
     0
 62
     1
  6
CONTINUOUS
370
    -3
390
316C
  0
LAYER
  5
31EE
330
315F
100
AcDbSymbolTableRecord
100
AcDbLayerTableRecord
  2
DEFPOINTS
 70
     0
 62
     7
  6
CONTINUOUS
290
     0
370
    -3
390
316C
  0
LAYER
  5
31EF
102
{ACAD_XDICTIONARY
360
3336
102
}
330
315F
100
AcDbSymbolTableRecord
100
AcDbLayerTableRecord
  2
ETC
 70
     0
 62
    61
  6
CONTINUOUS
370
    -3
390
316C
  0
LAYER
  5
31F0
102
{ACAD_XDICTIONARY
360
3338
102
}
330
315F
100
AcDbSymbolTableRecord
100
AcDbLayerTableRecord
  2
FIX
 70
     0
 62
    11
  6
CONTINUOUS
370
    -3
390
316C
  0
LAYER
  5
31F1
102
{ACAD_XDICTIONARY
360
333A
102
}
330
315F
100
AcDbSymbolTableRecord
100
AcDbLayerTableRecord
  2
NOTE
 70
     0
 62
     4
  6
CONTINUOUS
370
    -3
390
316C
  0
LAYER
  5
31F2
102
{ACAD_XDICTIONARY
360
333C
102
}
330
315F
100
AcDbSymbolTableRecord
100
AcDbLayerTableRecord
  2
SERVICESPACE
 70
     0
 62
     2
  6
DASHDOT
370
    -3
390
316C
  0
LAYER
  5
31F3
102
{ACAD_XDICTIONARY
360
333E
102
}
330
315F
100
AcDbSymbolTableRecord
100
AcDbLayerTableRecord
  2
SYMBOLLINE
 70
     0
 62
    15
  6
CONTINUOUS
370
    -3
390
316C
  0
LAYER
  5
31F4
102
{ACAD_XDICTIONARY
360
3340
102
}
330
315F
100
AcDbSymbolTableRecord
100
AcDbLayerTableRecord
  2
BASIC
 70
     0
 62
     6
  6
CENTERX2
370
    -3
390
316C
  0
LAYER
  5
31F5
102
{ACAD_XDICTIONARY
360
3342
102
}
330
315F
100
AcDbSymbolTableRecord
100
AcDbLayerTableRecord
  2
DETAIL___1
 70
     0
 62
     5
  6
CONTINUOUS
370
    -3
390
316C
  0
ENDTAB
  0
TABLE
  2
STYLE
  5
3160
330
0
100
AcDbSymbolTable
 70
     5
  0
STYLE
  5
31BA
330
3160
100
AcDbSymbolTableRecord
100
AcDbTextStyleTableRecord
  2
STANDARD
 70
     0
 40
64.0
 41
0.9
 50
0.0
 71
     0
 42
64.0
  3
SIMPLEX.shx
  4
BIGFONT.shx
  0
STYLE
  5
31BE
330
3160
100
AcDbSymbolTableRecord
100
AcDbTextStyleTableRecord
  2
ANNOTATIVE
 70
     0
 40
0.0
 41
1.0
 50
0.0
 71
     0
 42
0.2
  3
txt
  4

1001
ACADANNOTATIVE
1000
AnnotativeData
1002
{
1070
     1
1070
     1
1002
}
  0
STYLE
  5
31F6
330
3160
100
AcDbSymbolTableRecord
100
AcDbTextStyleTableRecord
  2

 70
     1
 40
0.0
 41
1.0
 50
0.0
 71
     0
 42
64.0
  3
genltshp.shx
  4

  0
STYLE
  5
31F7
330
3160
100
AcDbSymbolTableRecord
100
AcDbTextStyleTableRecord
  2
ACANSTS
 70
     0
 40
1.0
 41
1.0
 50
0.0
 71
     0
 42
64.0
  3
romans.shx
  4
extfont.shx
  0
STYLE
  5
31F8
330
3160
100
AcDbSymbolTableRecord
100
AcDbTextStyleTableRecord
  2
ACANSGDT
 70
     0
 40
0.0
 41
1.0
 50
0.0
 71
     0
 42
64.0
  3
amgdt.shx
  4

  0
ENDTAB
  0
TABLE
  2
VIEW
  5
3163
330
0
100
AcDbSymbolTable
 70
     1
  0
VIEW
  5
31F9
330
3163
100
AcDbSymbolTableRecord
100
AcDbViewTableRecord
  2
ALL
 70
     0
 40
4282.619807999997
 10
0.0
 20
41.30990399999999
 41
5940.0
 11
0.0
 21
0.0
 31
1.0
 12
0.0
 22
0.0
 32
0.0
 42
50.0
 43
0.0
 44
0.0
 50
0.0
 71
     0
281
     0
 72
     1
110
0.0
120
0.0
130
0.0
111
1.0
121
0.0
131
0.0
112
0.0
122
1.0
132
0.0
 79
     0
146
0.0
  0
ENDTAB
  0
TABLE
  2
UCS
  5
3164
330
0
100
AcDbSymbolTable
 70
     0
  0
ENDTAB
  0
TABLE
  2
APPID
  5
3166
330
0
100
AcDbSymbolTable
 70
    30
  0
APPID
  5
31BB
330
3166
100
AcDbSymbolTableRecord
100
AcDbRegAppTableRecord
  2
ACAD
 70
     0
  0
APPID
  5
31C2
330
3166
100
AcDbSymbolTableRecord
100
AcDbRegAppTableRecord
  2
ACADANNOTATIVE
 70
     0
  0
APPID
  5
31CC
330
3166
100
AcDbSymbolTableRecord
100
AcDbRegAppTableRecord
  2
ACAD_MLEADERVER
 70
     0
  0
APPID
  5
31FA
330
3166
100
AcDbSymbolTableRecord
100
AcDbRegAppTableRecord
  2
GENIUS_GENDIM_13
 70
     0
  0
APPID
  5
31FB
330
3166
100
AcDbSymbolTableRecord
100
AcDbRegAppTableRecord
  2
GENIUS_GENDTOL_13
 70
     0
  0
APPID
  5
31FC
330
3166
100
AcDbSymbolTableRecord
100
AcDbRegAppTableRecord
  2
GENIUS_GE3DTOL_13
 70
     0
  0
APPID
  5
31FD
330
3166
100
AcDbSymbolTableRecord
100
AcDbRegAppTableRecord
  2
MCAD_NO_VIS
 70
     0
  0
APPID
  5
31FE
330
3166
100
AcDbSymbolTableRecord
100
AcDbRegAppTableRecord
  2
ACAD_TEMP_GRAPHIC
 70
     0
  0
APPID
  5
31FF
330
3166
100
AcDbSymbolTableRecord
100
AcDbRegAppTableRecord
  2
AD_DRAW
 70
     0
  0
APPID
  5
3200
330
3166
100
AcDbSymbolTableRecord
100
AcDbRegAppTableRecord
  2
ACATTRIBSERVICES
 70
     0
  0
APPID
  5
3201
330
3166
100
AcDbSymbolTableRecord
100
AcDbRegAppTableRecord
  2
ASURF_PCURVE_APPNAME
 70
     0
  0
APPID
  5
3202
330
3166
100
AcDbSymbolTableRecord
100
AcDbRegAppTableRecord
  2
AMG_3D2D_5_0
 70
     0
  0
APPID
  5
3203
330
3166
100
AcDbSymbolTableRecord
100
AcDbRegAppTableRecord
  2
DESIGNERASSEMBLIES
 70
     0
  0
APPID
  5
3204
330
3166
100
AcDbSymbolTableRecord
100
AcDbRegAppTableRecord
  2
ACADM_DIM_EDIT
 70
     0
  0
APPID
  5
3205
330
3166
100
AcDbSymbolTableRecord
100
AcDbRegAppTableRecord
  2
AMDT_DM_ADJ
 70
     0
  0
APPID
  5
3206
330
3166
100
AcDbSymbolTableRecord
100
AcDbRegAppTableRecord
  2
ACAD_DSTYLE_DIMARC_LENGTH_
 70
     0
  0
APPID
  5
3207
330
3166
100
AcDbSymbolTableRecord
100
AcDbRegAppTableRecord
  2
ACAD_DSTYLE_DIMJOGGED_JOGA
 70
     0
  0
APPID
  5
3208
330
3166
100
AcDbSymbolTableRecord
100
AcDbRegAppTableRecord
  2
ACAD_PSEXT
 70
     0
  0
APPID
  5
3209
330
3166
100
AcDbSymbolTableRecord
100
AcDbRegAppTableRecord
  2
ACAD_EXEMPT_FROM_CAD_STANDARDS
 70
     0
  0
APPID
  5
320A
330
3166
100
AcDbSymbolTableRecord
100
AcDbRegAppTableRecord
  2
ACAD_DSTYLE_DIMJAG
 70
     0
  0
APPID
  5
320B
330
3166
100
AcDbSymbolTableRecord
100
AcDbRegAppTableRecord
  2
ACAD_DSTYLE_DIMTALN
 70
     0
  0
APPID
  5
320C
330
3166
100
AcDbSymbolTableRecord
100
AcDbRegAppTableRecord
  2
AMG_3D2D_5_00
 70
     0
  0
APPID
  5
320D
330
3166
100
AcDbSymbolTableRecord
100
AcDbRegAppTableRecord
  2
AMG_3D2D_5_01
 70
     0
  0
APPID
  5
320E
330
3166
100
AcDbSymbolTableRecord
100
AcDbRegAppTableRecord
  2
AMG_3D2D_5_02
 70
     0
  0
APPID
  5
320F
330
3166
100
AcDbSymbolTableRecord
100
AcDbRegAppTableRecord
  2
AMG_3D2D_5_03
 70
     0
  0
APPID
  5
32D1
330
3166
100
AcDbSymbolTableRecord
100
AcDbRegAppTableRecord
  2
AMG_3D2D_5.0
 70
     0
  0
APPID
  5
336D
330
3166
100
AcDbSymbolTableRecord
100
AcDbRegAppTableRecord
  2
ACAD_DSTYLE_DIMARC_LENGTH_SYMBOL
 70
     0
  0
APPID
  5
336E
330
3166
100
AcDbSymbolTableRecord
100
AcDbRegAppTableRecord
  2
ACAD_DSTYLE_DIM_LINETYPE
 70
     0
  0
APPID
  5
336F
330
3166
100
AcDbSymbolTableRecord
100
AcDbRegAppTableRecord
  2
ACAD_DSTYLE_DIM_EXT1_LINETYPE
 70
     0
  0
APPID
  5
3370
330
3166
100
AcDbSymbolTableRecord
100
AcDbRegAppTableRecord
  2
ACAD_DSTYLE_DIM_EXT2_LINETYPE
 70
     0
  0
ENDTAB
  0
TABLE
  2
DIMSTYLE
  5
3167
330
0
100
AcDbSymbolTable
 70
    10
100
AcDbDimStyleTable
 71
     1
340
3210
  0
DIMSTYLE
105
31BC
330
3167
100
AcDbSymbolTableRecord
100
AcDbDimStyleTableRecord
  2
STANDARD
 70
     0
 41
12.0
 42
20.0
 44
20.0
 77
     1
 78
     8
140
64.0
141
0.0
147
10.0
172
     1
275
     1
279
     2
284
     7
285
     7
286
     7
340
31BA
  0
DIMSTYLE
105
31BD
330
3167
100
AcDbSymbolTableRecord
100
AcDbDimStyleTableRecord
  2
ANNOTATIVE
 70
     0
275
     1
279
     2
284
     7
285
     7
286
     7
340
31BA
1001
ACADANNOTATIVE
1000
AnnotativeData
1002
{
1070
     1
1070
     1
1002
}
  0
DIMSTYLE
105
3210
330
3167
100
AcDbSymbolTableRecord
100
AcDbDimStyleTableRecord
  2
AM_ANSI
 70
     0
  4
mm
 41
0.12
 42
0.05
 43
0.5
 44
0.1
 47
0.1
 48
0.1
 78
     7
 79
     2
140
0.12
141
0.0
146
0.71
147
0.06
176
   256
177
   256
178
     2
274
     4
284
     7
340
31BA
371
    -1
372
    -1
1001
ACAD_DSTYLE_DIMARC_LENGTH_SYMBOL
1070
   379
1070
     1
1001
ACAD_DSTYLE_DIM_LINETYPE
1070
   380
1005
31BF
1001
ACAD_DSTYLE_DIM_EXT1_LINETYPE
1070
   381
1005
31BF
1001
ACAD_DSTYLE_DIM_EXT2_LINETYPE
1070
   382
1005
31BF
  0
DIMSTYLE
105
3211
330
3167
100
AcDbSymbolTableRecord
100
AcDbDimStyleTableRecord
  2
AM_ANSI$3
 70
     0
  4
mm
 41
0.12
 42
0.05
 43
0.5
 44
0.1
 47
0.1
 48
0.1
 78
     7
 79
     2
140
0.12
141
0.0
146
0.71
147
0.06
176
   256
177
   256
178
     2
274
     4
284
     7
288
     1
289
     0
340
31BA
371
    -1
372
    -1
1001
ACAD_DSTYLE_DIMARC_LENGTH_SYMBOL
1070
   379
1070
     1
1001
ACAD_DSTYLE_DIM_LINETYPE
1070
   380
1005
31BF
1001
ACAD_DSTYLE_DIM_EXT1_LINETYPE
1070
   381
1005
31BF
1001
ACAD_DSTYLE_DIM_EXT2_LINETYPE
1070
   382
1005
31BF
  0
DIMSTYLE
105
3212
330
3167
100
AcDbSymbolTableRecord
100
AcDbDimStyleTableRecord
  2
AM_ANSI$4
 70
     0
  4
mm
 41
0.12
 42
0.05
 43
0.5
 44
0.1
 47
0.1
 48
0.1
 78
     7
 79
     2
140
0.12
141
0.0
146
0.71
147
0.06
176
   256
177
   256
178
     2
274
     4
284
     7
340
31BA
371
    -1
372
    -1
1001
ACAD_DSTYLE_DIMARC_LENGTH_SYMBOL
1070
   379
1070
     1
1001
ACAD_DSTYLE_DIM_LINETYPE
1070
   380
1005
31BF
1001
ACAD_DSTYLE_DIM_EXT1_LINETYPE
1070
   381
1005
31BF
1001
ACAD_DSTYLE_DIM_EXT2_LINETYPE
1070
   382
1005
31BF
  0
DIMSTYLE
105
3213
330
3167
100
AcDbSymbolTableRecord
100
AcDbDimStyleTableRecord
  2
AM_ANSI$7
 70
     0
  4
mm
 41
0.12
 42
0.05
 43
0.5
 44
0.1
 47
0.1
 48
0.1
 78
     7
 79
     2
140
0.12
141
0.0
146
0.71
147
0.06
176
   256
177
   256
178
     2
274
     4
284
     7
340
31BA
371
    -1
372
    -1
1001
ACAD_DSTYLE_DIMARC_LENGTH_SYMBOL
1070
   379
1070
     1
1001
ACAD_DSTYLE_DIM_LINETYPE
1070
   380
1005
31BF
1001
ACAD_DSTYLE_DIM_EXT1_LINETYPE
1070
   381
1005
31BF
1001
ACAD_DSTYLE_DIM_EXT2_LINETYPE
1070
   382
1005
31BF
  0
DIMSTYLE
105
3214
330
3167
100
AcDbSymbolTableRecord
100
AcDbDimStyleTableRecord
  2
AM_ANSI$SF
 70
     0
  4
mm
 41
0.12
 42
0.05
 43
0.5
 44
0.1
 47
0.1
 48
0.1
 75
     1
 76
     1
 78
     7
 79
     2
140
0.12
141
0.0
146
0.71
147
0.06
176
   256
177
   256
178
     2
274
     4
284
     7
340
31BA
371
    -1
372
    -1
1001
ACAD_DSTYLE_DIMARC_LENGTH_SYMBOL
1070
   379
1070
     1
1001
ACAD_DSTYLE_DIM_LINETYPE
1070
   380
1005
31BF
1001
ACAD_DSTYLE_DIM_EXT1_LINETYPE
1070
   381
1005
31BF
1001
ACAD_DSTYLE_DIM_EXT2_LINETYPE
1070
   382
1005
31BF
  0
DIMSTYLE
105
3215
330
3167
100
AcDbSymbolTableRecord
100
AcDbDimStyleTableRecord
  2
AM_ANSI$SH
 70
     0
  4
mm
 41
0.12
 42
0.05
 43
0.5
 44
0.1
 47
0.1
 48
0.1
 75
     1
 76
     1
 78
     7
 79
     2
140
0.12
141
0.0
146
0.71
147
0.06
173
     1
176
   256
177
   256
178
     2
274
     4
284
     7
340
31BA
343
3229
371
    -1
372
    -1
1001
ACAD_DSTYLE_DIMARC_LENGTH_SYMBOL
1070
   379
1070
     1
1001
ACAD_DSTYLE_DIM_LINETYPE
1070
   380
1005
31BF
1001
ACAD_DSTYLE_DIM_EXT1_LINETYPE
1070
   381
1005
31BF
1001
ACAD_DSTYLE_DIM_EXT2_LINETYPE
1070
   382
1005
31BF
  0
DIMSTYLE
105
3216
330
3167
100
AcDbSymbolTableRecord
100
AcDbDimStyleTableRecord
  2
STANDARD1
 70
     0
 40
6.0
 41
2.5
 42
0.625
 43
6.0
 44
1.25
 47
1.0
 48
0.5
 77
     1
 78
     8
140
2.5
141
0.0
146
0.6
147
1.0
173
     1
275
     1
279
     2
284
     7
285
     7
286
     7
340
31BA
  0
DIMSTYLE
105
3217
330
3167
100
AcDbSymbolTableRecord
100
AcDbDimStyleTableRecord
  2
STANDARD$0
 70
     0
 41
12.0
 42
20.0
 44
20.0
 73
     0
 74
     0
 77
     1
 78
     8
140
64.0
141
0.0
147
10.0
172
     1
275
     1
279
     2
284
     7
285
     7
286
     7
340
31BA
  0
ENDTAB
  0
TABLE
  2
BLOCK_RECORD
  5
315E
330
0
100
AcDbSymbolTable
 70
    25
  0
BLOCK_RECORD
  5
31D1
102
{ACAD_XDICTIONARY
360
3344
102
}
330
315E
100
AcDbSymbolTableRecord
100
AcDbBlockTableRecord
  2
*Model_Space
340
31D4
  0
BLOCK_RECORD
  5
31CD
330
315E
100
AcDbSymbolTableRecord
100
AcDbBlockTableRecord
  2
*Paper_Space
340
31D0
  0
BLOCK_RECORD
  5
321F
330
315E
100
AcDbSymbolTableRecord
100
AcDbBlockTableRecord
  2
$MODEL_SPACE
340
0
  0
BLOCK_RECORD
  5
3221
330
315E
100
AcDbSymbolTableRecord
100
AcDbBlockTableRecord
  2
$PAPER_SPACE
340
0
  0
BLOCK_RECORD
  5
3223
330
315E
100
AcDbSymbolTableRecord
100
AcDbBlockTableRecord
  2
_ORIGIN
340
0
  0
BLOCK_RECORD
  5
3225
330
315E
100
AcDbSymbolTableRecord
100
AcDbBlockTableRecord
  2
_DOTBLANK
340
0
102
{BLKREFS
331
202C
331
202D
331
2035
331
2036
331
203E
331
203F
331
2047
331
2048
331
2052
331
2053
331
205D
331
205E
331
30F2
331
30F3
331
30F7
331
30F8
331
30FC
331
30FD
331
3103
331
3104
331
3108
331
3109
331
310D
331
310E
102
}
  0
BLOCK_RECORD
  5
3227
330
315E
100
AcDbSymbolTableRecord
100
AcDbBlockTableRecord
  2
_OPEN30
340
0
102
{BLKREFS
331
2199
331
2586
331
3116
102
}
  0
BLOCK_RECORD
  5
3229
330
315E
100
AcDbSymbolTableRecord
100
AcDbBlockTableRecord
  2
GENAXEH
340
0
  0
BLOCK_RECORD
  5
322B
330
315E
100
AcDbSymbolTableRecord
100
AcDbBlockTableRecord
  2
*U6
340
0
  0
BLOCK_RECORD
  5
322D
330
315E
100
AcDbSymbolTableRecord
100
AcDbBlockTableRecord
  2
*D7
340
0
  0
BLOCK_RECORD
  5
322F
330
315E
100
AcDbSymbolTableRecord
100
AcDbBlockTableRecord
  2
*U8
340
0
102
{BLKREFS
331
202E
102
}
  0
BLOCK_RECORD
  5
3231
330
315E
100
AcDbSymbolTableRecord
100
AcDbBlockTableRecord
  2
*D9
340
0
  0
BLOCK_RECORD
  5
3233
330
315E
100
AcDbSymbolTableRecord
100
AcDbBlockTableRecord
  2
*U10
340
0
102
{BLKREFS
331
2037
102
}
  0
BLOCK_RECORD
  5
3235
330
315E
100
AcDbSymbolTableRecord
100
AcDbBlockTableRecord
  2
*D11
340
0
  0
BLOCK_RECORD
  5
3237
330
315E
100
AcDbSymbolTableRecord
100
AcDbBlockTableRecord
  2
*U12
340
0
102
{BLKREFS
331
2040
102
}
  0
BLOCK_RECORD
  5
3239
330
315E
100
AcDbSymbolTableRecord
100
AcDbBlockTableRecord
  2
*D13
340
0
  0
BLOCK_RECORD
  5
323B
330
315E
100
AcDbSymbolTableRecord
100
AcDbBlockTableRecord
  2
*U14
340
0
102
{BLKREFS
331
2049
102
}
  0
BLOCK_RECORD
  5
323D
330
315E
100
AcDbSymbolTableRecord
100
AcDbBlockTableRecord
  2
*D15
340
0
  0
BLOCK_RECORD
  5
323F
330
315E
100
AcDbSymbolTableRecord
100
AcDbBlockTableRecord
  2
*U16
340
0
102
{BLKREFS
331
2054
102
}
  0
BLOCK_RECORD
  5
3241
330
315E
100
AcDbSymbolTableRecord
100
AcDbBlockTableRecord
  2
*D17
340
0
  0
BLOCK_RECORD
  5
3243
330
315E
100
AcDbSymbolTableRecord
100
AcDbBlockTableRecord
  2
*U18
340
0
102
{BLKREFS
331
205F
102
}
  0
BLOCK_RECORD
  5
3245
330
315E
100
AcDbSymbolTableRecord
100
AcDbBlockTableRecord
  2
*U19
340
0
  0
BLOCK_RECORD
  5
3247
330
315E
100
AcDbSymbolTableRecord
100
AcDbBlockTableRecord
  2
*U20
340
0
  0
BLOCK_RECORD
  5
3249
330
315E
100
AcDbSymbolTableRecord
100
AcDbBlockTableRecord
  2
*U21
340
0
  0
BLOCK_RECORD
  5
324B
330
315E
100
AcDbSymbolTableRecord
100
AcDbBlockTableRecord
  2
*X22
340
0
102
{BLKREFS
331
3059
102
}
  0
BLOCK_RECORD
  5
324D
330
315E
100
AcDbSymbolTableRecord
100
AcDbBlockTableRecord
  2
*X23
340
0
102
{BLKREFS
331
305A
102
}
  0
ENDTAB
  0
ENDSEC
  0
SECTION
  2
BLOCKS
  0
BLOCK
  5
31D2
330
31D1
100
AcDbEntity
  8
0
100
AcDbBlockBegin
  2
*Model_Space
 70
     0
 10
0.0
 20
0.0
 30
0.0
  3
*Model_Space
  1

  0
ENDBLK
  5
31D3
330
31D1
100
AcDbEntity
  8
0
100
AcDbBlockEnd
  0
BLOCK
  5
31CE
330
31CD
100
AcDbEntity
 67
     1
  8
0
100
AcDbBlockBegin
  2
*Paper_Space
 70
     0
 10
0.0
 20
0.0
 30
0.0
  3
*Paper_Space
  1

  0
ENDBLK
  5
31CF
330
31CD
100
AcDbEntity
 67
     1
  8
0
100
AcDbBlockEnd
  0
BLOCK
  5
3220
330
321F
100
AcDbEntity
  8
0
100
AcDbBlockBegin
  2
$MODEL_SPACE
 70
     0
 10
0.0
 20
0.0
 30
0.0
  3
$MODEL_SPACE
  1

  0
ENDBLK
  5
2968
330
321F
100
AcDbEntity
  8
0
100
AcDbBlockEnd
  0
BLOCK
  5
3222
330
3221
100
AcDbEntity
  8
0
100
AcDbBlockBegin
  2
$PAPER_SPACE
 70
     0
 10
0.0
 20
0.0
 30
0.0
  3
$PAPER_SPACE
  1

  0
ENDBLK
  5
2964
330
3221
100
AcDbEntity
  8
0
100
AcDbBlockEnd
  0
BLOCK
  5
3224
330
3223
100
AcDbEntity
  8
0
100
AcDbBlockBegin
  2
_ORIGIN
 70
     0
 10
0.0
 20
0.0
 30
0.0
  3
_ORIGIN
  1

  0
CIRCLE
  5
880
330
3223
100
AcDbEntity
  8
0
  6
Continuous
 62
     7
100
AcDbCircle
 10
0.0
 20
0.0
 30
0.0
 40
0.5
  0
LINE
  5
881
330
3223
100
AcDbEntity
  8
0
  6
Continuous
 62
     7
100
AcDbLine
 10
0.0
 20
0.0
 30
0.0
 11
-1.0
 21
0.0
 31
0.0
  0
ENDBLK
  5
882
330
3223
100
AcDbEntity
  8
0
100
AcDbBlockEnd
  0
BLOCK
  5
3226
330
3225
100
AcDbEntity
  8
0
 62
     1
100
AcDbBlockBegin
  2
_DOTBLANK
 70
     0
 10
0.0
 20
0.0
 30
0.0
  3
_DOTBLANK
  1

  0
CIRCLE
  5
AB3
330
3225
100
AcDbEntity
  8
0
  6
ByBlock
 62
     0
100
AcDbCircle
 10
0.0
 20
0.0
 30
0.0
 40
0.5
  0
LINE
  5
AB4
330
3225
100
AcDbEntity
  8
0
  6
ByBlock
 62
     0
100
AcDbLine
 10
-0.5
 20
0.0
 30
0.0
 11
-1.0
 21
0.0
 31
0.0
  0
ENDBLK
  5
AB6
330
3225
100
AcDbEntity
  8
0
 62
     1
100
AcDbBlockEnd
  0
BLOCK
  5
3228
330
3227
100
AcDbEntity
  8
0
 62
     1
100
AcDbBlockBegin
  2
_OPEN30
 70
     0
 10
0.0
 20
0.0
 30
0.0
  3
_OPEN30
  1

  0
LINE
  5
AB8
330
3227
100
AcDbEntity
  8
0
  6
ByBlock
 62
     0
100
AcDbLine
 10
-1.0
 20
0.26794919
 30
0.0
 11
0.0
 21
0.0
 31
0.0
  0
LINE
  5
AB9
330
3227
100
AcDbEntity
  8
0
  6
ByBlock
 62
     0
100
AcDbLine
 10
0.0
 20
0.0
 30
0.0
 11
-1.0
 21
-0.26794919
 31
0.0
  0
LINE
  5
ABA
330
3227
100
AcDbEntity
  8
0
  6
ByBlock
 62
     0
100
AcDbLine
 10
0.0
 20
0.0
 30
0.0
 11
-1.0
 21
0.0
 31
0.0
  0
ENDBLK
  5
ABC
330
3227
100
AcDbEntity
  8
0
 62
     1
100
AcDbBlockEnd
  0
BLOCK
  5
322A
330
3229
100
AcDbEntity
  8
0
100
AcDbBlockBegin
  2
GENAXEH
 70
     0
 10
0.0
 20
0.0
 30
0.0
  3
GENAXEH
  1

  0
LINE
  5
FDB
330
3229
100
AcDbEntity
  8
0
100
AcDbLine
 10
-1.0
 20
0.0
 30
0.0
 11
1.0
 21
0.0
 31
0.0
  0
ENDBLK
  5
FDD
330
3229
100
AcDbEntity
  8
0
100
AcDbBlockEnd
  0
BLOCK
  5
322C
330
322B
100
AcDbEntity
  8
0
100
AcDbBlockBegin
  2
*U6
 70
     1
 10
0.0
 20
0.0
 30
0.0
  3
*U6
  1

  0
ENDBLK
  5
1ED4
330
322B
100
AcDbEntity
  8
0
100
AcDbBlockEnd
  0
BLOCK
  5
322E
330
322D
100
AcDbEntity
  8
0
100
AcDbBlockBegin
  2
*D7
 70
     1
 10
0.0
 20
0.0
 30
0.0
  3
*D7
  1

  0
LINE
  5
2029
330
322D
100
AcDbEntity
  8
SIZE
 62
     0
100
AcDbLine
 10
-135.5
 20
-449.4732256776551
 30
0.0
 11
-135.5
 21
-638.0173952306003
 31
0.0
  0
LINE
  5
202A
330
322D
100
AcDbEntity
  8
SIZE
 62
     0
100
AcDbLine
 10
135.5
 20
-449.4732256776551
 30
0.0
 11
135.5
 21
-638.0173952306003
 31
0.0
  0
LINE
  5
202B
330
322D
100
AcDbEntity
  8
SIZE
 62
     0
100
AcDbLine
 10
-123.5
 20
-618.0173952306001
 30
0.0
 11
123.5
 21
-618.0173952306001
 31
0.0
  0
INSERT
  5
202C
330
322D
100
AcDbEntity
  8
SIZE
 62
     0
100
AcDbBlockReference
  2
_DOTBLANK
 10
-135.5
 20
-618.0173952306001
 30
0.0
 41
12.0
 42
12.0
 43
12.0
 50
180.0
  0
INSERT
  5
202D
330
322D
100
AcDbEntity
  8
SIZE
 62
     0
100
AcDbBlockReference
  2
_DOTBLANK
 10
135.5
 20
-618.0173952306001
 30
0.0
 41
12.0
 42
12.0
 43
12.0
  0
INSERT
  5
202E
330
322D
100
AcDbEntity
  8
0
100
AcDbBlockReference
  2
*U8
 10
0.0
 20
0.0
 30
0.0
  0
POINT
  5
202F
330
322D
100
AcDbEntity
  8
DEFPOINTS
 62
     0
100
AcDbPoint
 10
-135.5
 20
-429.473225677655
 30
0.0
  0
POINT
  5
2030
330
322D
100
AcDbEntity
  8
DEFPOINTS
 62
     0
100
AcDbPoint
 10
135.5
 20
-429.473225677655
 30
0.0
  0
POINT
  5
2031
330
322D
100
AcDbEntity
  8
DEFPOINTS
 62
     0
100
AcDbPoint
 10
135.5
 20
-618.0173952306001
 30
0.0
  0
ENDBLK
  5
1FDF
330
322D
100
AcDbEntity
  8
0
100
AcDbBlockEnd
  0
BLOCK
  5
3230
330
322F
100
AcDbEntity
  8
0
100
AcDbBlockBegin
  2
*U8
 70
     1
 10
0.0
 20
0.0
 30
0.0
  3
*U8
  1

  0
TEXT
  5
21A6
330
322F
100
AcDbEntity
  8
SIZE
 62
     0
100
AcDbText
 10
-61.7142857142857
 20
-608.0173952306003
 30
0.0
 40
64.0
  1
271
 41
0.9
100
AcDbText
  0
ENDBLK
  5
21A8
330
322F
100
AcDbEntity
  8
0
100
AcDbBlockEnd
  0
BLOCK
  5
3232
330
3231
100
AcDbEntity
  8
0
100
AcDbBlockBegin
  2
*D9
 70
     1
 10
0.0
 20
0.0
 30
0.0
  3
*D9
  1

  0
LINE
  5
2032
330
3231
100
AcDbEntity
  8
SIZE
 62
     0
100
AcDbLine
 10
143.7000000000007
 20
-430.0
 30
0.0
 11
304.6432844803784
 21
-430.0
 31
0.0
  0
LINE
  5
2033
330
3231
100
AcDbEntity
  8
SIZE
 62
     0
100
AcDbLine
 10
177.5
 20
-0.0000000000000057
 30
0.0
 11
304.6432844803785
 21
-0.0000000000000417
 31
0.0
  0
LINE
  5
2034
330
3231
100
AcDbEntity
  8
SIZE
 62
     0
100
AcDbLine
 10
284.6432844803784
 20
-418.0
 30
0.0
 11
284.6432844803785
 21
-12.00000000000003
 31
0.0
  0
INSERT
  5
2035
330
3231
100
AcDbEntity
  8
SIZE
 62
     0
100
AcDbBlockReference
  2
_DOTBLANK
 10
284.6432844803784
 20
-430.0
 30
0.0
 41
12.0
 42
12.0
 43
12.0
 50
270.0
  0
INSERT
  5
2036
330
3231
100
AcDbEntity
  8
SIZE
 62
     0
100
AcDbBlockReference
  2
_DOTBLANK
 10
284.6432844803785
 20
-0.000000000000036
 30
0.0
 41
12.0
 42
12.0
 43
12.0
 50
90.0
  0
INSERT
  5
2037
330
3231
100
AcDbEntity
  8
0
100
AcDbBlockReference
  2
*U10
 10
0.0
 20
0.0
 30
0.0
  0
POINT
  5
2038
330
3231
100
AcDbEntity
  8
DEFPOINTS
 62
     0
100
AcDbPoint
 10
123.7000000000007
 20
-430.0
 30
0.0
  0
POINT
  5
2039
330
3231
100
AcDbEntity
  8
DEFPOINTS
 62
     0
100
AcDbPoint
 10
157.5
 20
0.0
 30
0.0
  0
POINT
  5
203A
330
3231
100
AcDbEntity
  8
DEFPOINTS
 62
     0
100
AcDbPoint
 10
284.6432844803785
 20
-0.000000000000036
 30
0.0
  0
ENDBLK
  5
1FEB
330
3231
100
AcDbEntity
  8
0
100
AcDbBlockEnd
  0
BLOCK
  5
3234
330
3233
100
AcDbEntity
  8
0
100
AcDbBlockBegin
  2
*U10
 70
     1
 10
0.0
 20
0.0
 30
0.0
  3
*U10
  1

  0
TEXT
  5
21AA
330
3233
100
AcDbEntity
  8
SIZE
 62
     0
100
AcDbText
 10
274.6432844803785
 20
-289.0571428571429
 30
0.0
 40
64.0
  1
430
 50
90.0
 41
0.9
100
AcDbText
  0
ENDBLK
  5
21AC
330
3233
100
AcDbEntity
  8
0
100
AcDbBlockEnd
  0
BLOCK
  5
3236
330
3235
100
AcDbEntity
  8
0
100
AcDbBlockBegin
  2
*D11
 70
     1
 10
0.0
 20
0.0
 30
0.0
  3
*D11
  1

  0
LINE
  5
203B
330
3235
100
AcDbEntity
  8
SIZE
 62
     0
100
AcDbLine
 10
-140.0
 20
32.5
 30
0.0
 11
-140.0
 21
136.4516878685499
 31
0.0
  0
LINE
  5
203C
330
3235
100
AcDbEntity
  8
SIZE
 62
     0
100
AcDbLine
 10
140.0
 20
32.5
 30
0.0
 11
140.0
 21
136.4516878685499
 31
0.0
  0
LINE
  5
203D
330
3235
100
AcDbEntity
  8
SIZE
 62
     0
100
AcDbLine
 10
-128.0
 20
116.4516878685499
 30
0.0
 11
128.0
 21
116.4516878685499
 31
0.0
  0
INSERT
  5
203E
330
3235
100
AcDbEntity
  8
SIZE
 62
     0
100
AcDbBlockReference
  2
_DOTBLANK
 10
-140.0
 20
116.4516878685499
 30
0.0
 41
12.0
 42
12.0
 43
12.0
 50
180.0
  0
INSERT
  5
203F
330
3235
100
AcDbEntity
  8
SIZE
 62
     0
100
AcDbBlockReference
  2
_DOTBLANK
 10
140.0
 20
116.4516878685499
 30
0.0
 41
12.0
 42
12.0
 43
12.0
  0
INSERT
  5
2040
330
3235
100
AcDbEntity
  8
0
100
AcDbBlockReference
  2
*U12
 10
0.0
 20
0.0
 30
0.0
  0
POINT
  5
2041
330
3235
100
AcDbEntity
  8
DEFPOINTS
 62
     0
100
AcDbPoint
 10
-140.0
 20
12.5
 30
0.0
  0
POINT
  5
2042
330
3235
100
AcDbEntity
  8
DEFPOINTS
 62
     0
100
AcDbPoint
 10
140.0
 20
12.5
 30
0.0
  0
POINT
  5
2043
330
3235
100
AcDbEntity
  8
DEFPOINTS
 62
     0
100
AcDbPoint
 10
140.0
 20
116.4516878685499
 30
0.0
  0
ENDBLK
  5
1FF7
330
3235
100
AcDbEntity
  8
0
100
AcDbBlockEnd
  0
BLOCK
  5
3238
330
3237
100
AcDbEntity
  8
0
100
AcDbBlockBegin
  2
*U12
 70
     1
 10
0.0
 20
0.0
 30
0.0
  3
*U12
  1

  0
TEXT
  5
21AE
330
3237
100
AcDbEntity
  8
SIZE
 62
     0
100
AcDbText
 10
-74.05714285714283
 20
126.4516878685499
 30
0.0
 40
64.0
  1
280
 41
0.9
100
AcDbText
  0
ENDBLK
  5
21B0
330
3237
100
AcDbEntity
  8
0
100
AcDbBlockEnd
  0
BLOCK
  5
323A
330
3239
100
AcDbEntity
  8
0
100
AcDbBlockBegin
  2
*D13
 70
     1
 10
0.0
 20
0.0
 30
0.0
  3
*D13
  1

  0
LINE
  5
2044
330
3239
100
AcDbEntity
  8
SIZE
 62
     0
100
AcDbLine
 10
-157.5
 20
20.0
 30
0.0
 11
-157.5
 21
245.5794621189598
 31
0.0
  0
LINE
  5
2045
330
3239
100
AcDbEntity
  8
SIZE
 62
     0
100
AcDbLine
 10
157.5
 20
20.0
 30
0.0
 11
157.5
 21
245.5794621189598
 31
0.0
  0
LINE
  5
2046
330
3239
100
AcDbEntity
  8
SIZE
 62
     0
100
AcDbLine
 10
-145.5
 20
225.5794621189598
 30
0.0
 11
145.5
 21
225.5794621189598
 31
0.0
  0
INSERT
  5
2047
330
3239
100
AcDbEntity
  8
SIZE
 62
     0
100
AcDbBlockReference
  2
_DOTBLANK
 10
-157.5
 20
225.5794621189598
 30
0.0
 41
12.0
 42
12.0
 43
12.0
 50
180.0
  0
INSERT
  5
2048
330
3239
100
AcDbEntity
  8
SIZE
 62
     0
100
AcDbBlockReference
  2
_DOTBLANK
 10
157.5
 20
225.5794621189598
 30
0.0
 41
12.0
 42
12.0
 43
12.0
  0
INSERT
  5
2049
330
3239
100
AcDbEntity
  8
0
100
AcDbBlockReference
  2
*U14
 10
0.0
 20
0.0
 30
0.0
  0
POINT
  5
204A
330
3239
100
AcDbEntity
  8
DEFPOINTS
 62
     0
100
AcDbPoint
 10
-157.5
 20
0.0
 30
0.0
  0
POINT
  5
204B
330
3239
100
AcDbEntity
  8
DEFPOINTS
 62
     0
100
AcDbPoint
 10
157.5
 20
0.0
 30
0.0
  0
POINT
  5
204C
330
3239
100
AcDbEntity
  8
DEFPOINTS
 62
     0
100
AcDbPoint
 10
157.5
 20
225.5794621189598
 30
0.0
  0
ENDBLK
  5
2003
330
3239
100
AcDbEntity
  8
0
100
AcDbBlockEnd
  0
BLOCK
  5
323C
330
323B
100
AcDbEntity
  8
0
100
AcDbBlockBegin
  2
*U14
 70
     1
 10
0.0
 20
0.0
 30
0.0
  3
*U14
  1

  0
TEXT
  5
21B2
330
323B
100
AcDbEntity
  8
SIZE
 62
     0
100
AcDbText
 10
-68.57142857142857
 20
235.5794621189598
 30
0.0
 40
64.0
  1
315
 41
0.9
100
AcDbText
  0
ENDBLK
  5
21B4
330
323B
100
AcDbEntity
  8
0
100
AcDbBlockEnd
  0
BLOCK
  5
323E
330
323D
100
AcDbEntity
  8
0
100
AcDbBlockBegin
  2
*D15
 70
     1
 10
0.0
 20
0.0
 30
0.0
  3
*D15
  1

  0
LINE
  5
204D
330
323D
100
AcDbEntity
  8
SIZE
 62
     0
100
AcDbLine
 10
-177.5
 20
0.0000000000000057
 30
0.0
 11
-219.7694545525301
 21
0.0000000000000176
 31
0.0
  0
LINE
  5
204E
330
323D
100
AcDbEntity
  8
SIZE
 62
     0
100
AcDbLine
 10
-177.5
 20
-7.999999999999993
 30
0.0
 11
-219.7694545525301
 21
-7.999999999999982
 31
0.0
  0
LINE
  5
204F
330
323D
100
AcDbEntity
  8
SIZE
 62
     0
100
AcDbLine
 10
-199.76945455253
 20
12.00000000000001
 30
0.0
 11
-199.76945455253
 21
24.00000000000001
 31
0.0
  0
LINE
  5
2050
330
323D
100
AcDbEntity
  8
SIZE
 62
     0
100
AcDbLine
 10
-199.76945455253
 20
-19.99999999999999
 30
0.0
 11
-199.7694545525301
 21
-90.4
 31
0.0
  0
LINE
  5
2051
330
323D
100
AcDbEntity
  8
SIZE
 62
     0
100
AcDbLine
 10
-199.76945455253
 20
0.000000000000012
 30
0.0
 11
-199.76945455253
 21
-7.999999999999985
 31
0.0
  0
INSERT
  5
2052
330
323D
100
AcDbEntity
  8
SIZE
 62
     0
100
AcDbBlockReference
  2
_DOTBLANK
 10
-199.76945455253
 20
0.000000000000012
 30
0.0
 41
12.0
 42
12.0
 43
12.0
 50
270.0
  0
INSERT
  5
2053
330
323D
100
AcDbEntity
  8
SIZE
 62
     0
100
AcDbBlockReference
  2
_DOTBLANK
 10
-199.76945455253
 20
-7.999999999999985
 30
0.0
 41
12.0
 42
12.0
 43
12.0
 50
90.0
  0
INSERT
  5
2054
330
323D
100
AcDbEntity
  8
0
100
AcDbBlockReference
  2
*U16
 10
0.0
 20
0.0
 30
0.0
  0
POINT
  5
2055
330
323D
100
AcDbEntity
  8
DEFPOINTS
 62
     0
100
AcDbPoint
 10
-157.5
 20
0.0
 30
0.0
  0
POINT
  5
2056
330
323D
100
AcDbEntity
  8
DEFPOINTS
 62
     0
100
AcDbPoint
 10
-157.5
 20
-8.0
 30
0.0
  0
POINT
  5
2057
330
323D
100
AcDbEntity
  8
DEFPOINTS
 62
     0
100
AcDbPoint
 10
-199.76945455253
 20
-7.999999999999985
 30
0.0
  0
ENDBLK
  5
200F
330
323D
100
AcDbEntity
  8
0
100
AcDbBlockEnd
  0
BLOCK
  5
3240
330
323F
100
AcDbEntity
  8
0
100
AcDbBlockBegin
  2
*U16
 70
     1
 10
0.0
 20
0.0
 30
0.0
  3
*U16
  1

  0
TEXT
  5
21B6
330
323F
100
AcDbEntity
  8
SIZE
 62
     0
100
AcDbText
 10
-209.7694545525301
 20
-80.4
 30
0.0
 40
64.0
  1
8
 50
90.0
 41
0.9
100
AcDbText
  0
ENDBLK
  5
21B8
330
323F
100
AcDbEntity
  8
0
100
AcDbBlockEnd
  0
BLOCK
  5
3242
330
3241
100
AcDbEntity
  8
0
100
AcDbBlockBegin
  2
*D17
 70
     1
 10
0.0
 20
0.0
 30
0.0
  3
*D17
  1

  0
LINE
  5
2058
330
3241
100
AcDbEntity
  8
SIZE
 62
     0
100
AcDbLine
 10
143.7000000000007
 20
-430.0
 30
0.0
 11
304.626441221626
 21
-430.0
 31
0.0
  0
LINE
  5
2059
330
3241
100
AcDbEntity
  8
SIZE
 62
     0
100
AcDbLine
 10
143.1000000000022
 20
-441.0000000000001
 30
0.0
 11
304.626441221626
 21
-441.0000000000001
 31
0.0
  0
LINE
  5
205A
330
3241
100
AcDbEntity
  8
SIZE
 62
     0
100
AcDbLine
 10
284.626441221626
 20
-418.0
 30
0.0
 11
284.626441221626
 21
-406.0
 31
0.0
  0
LINE
  5
205B
330
3241
100
AcDbEntity
  8
SIZE
 62
     0
100
AcDbLine
 10
284.626441221626
 20
-453.0
 30
0.0
 11
284.626441221626
 21
-542.6000000000001
 31
0.0
  0
LINE
  5
205C
330
3241
100
AcDbEntity
  8
SIZE
 62
     0
100
AcDbLine
 10
284.626441221626
 20
-430.0
 30
0.0
 11
284.626441221626
 21
-441.0000000000001
 31
0.0
  0
INSERT
  5
205D
330
3241
100
AcDbEntity
  8
SIZE
 62
     0
100
AcDbBlockReference
  2
_DOTBLANK
 10
284.626441221626
 20
-430.0
 30
0.0
 41
12.0
 42
12.0
 43
12.0
 50
270.0
  0
INSERT
  5
205E
330
3241
100
AcDbEntity
  8
SIZE
 62
     0
100
AcDbBlockReference
  2
_DOTBLANK
 10
284.626441221626
 20
-441.0000000000001
 30
0.0
 41
12.0
 42
12.0
 43
12.0
 50
90.0
  0
INSERT
  5
205F
330
3241
100
AcDbEntity
  8
0
100
AcDbBlockReference
  2
*U18
 10
0.0
 20
0.0
 30
0.0
  0
POINT
  5
2060
330
3241
100
AcDbEntity
  8
DEFPOINTS
 62
     0
100
AcDbPoint
 10
123.7000000000007
 20
-430.0
 30
0.0
  0
POINT
  5
2061
330
3241
100
AcDbEntity
  8
DEFPOINTS
 62
     0
100
AcDbPoint
 10
123.1000000000022
 20
-441.0
 30
0.0
  0
POINT
  5
2062
330
3241
100
AcDbEntity
  8
DEFPOINTS
 62
     0
100
AcDbPoint
 10
284.626441221626
 20
-441.0000000000001
 30
0.0
  0
ENDBLK
  5
201D
330
3241
100
AcDbEntity
  8
0
100
AcDbBlockEnd
  0
BLOCK
  5
3244
330
3243
100
AcDbEntity
  8
0
100
AcDbBlockBegin
  2
*U18
 70
     1
 10
0.0
 20
0.0
 30
0.0
  3
*U18
  1

  0
TEXT
  5
21BA
330
3243
100
AcDbEntity
  8
SIZE
 62
     0
100
AcDbText
 10
274.6264412216261
 20
-532.6
 30
0.0
 40
64.0
  1
11
 50
90.0
 41
0.9
100
AcDbText
  0
ENDBLK
  5
21BC
330
3243
100
AcDbEntity
  8
0
100
AcDbBlockEnd
  0
BLOCK
  5
3246
330
3245
100
AcDbEntity
  8
0
100
AcDbBlockBegin
  2
*U19
 70
     1
 10
0.0
 20
0.0
 30
0.0
  3
*U19
  1

  0
INSERT
  5
2199
330
3245
100
AcDbEntity
  8
NOTE
100
AcDbBlockReference
  2
_OPEN30
 10
-140.0
 20
0.0
 30
0.0
 41
12.0
 42
12.0
 43
12.0
 50
312.6090116116894
  0
POLYLINE
  5
219A
330
3245
100
AcDbEntity
  8
NOTE
100
AcDb2dPolyline
 66
     1
 10
0.0
 20
0.0
 30
0.0
  0
VERTEX
  5
219B
330
219A
100
AcDbEntity
  8
NOTE
100
AcDbVertex
100
AcDb2dVertex
 10
-148.1239008361894
 20
8.831887408915472
 30
0.0
  0
VERTEX
  5
219C
330
219A
100
AcDbEntity
  8
NOTE
100
AcDbVertex
100
AcDb2dVertex
 10
-227.8693999922543
 20
95.5270950580134
 30
0.0
  0
VERTEX
  5
219D
330
219A
100
AcDbEntity
  8
NOTE
100
AcDbVertex
100
AcDb2dVertex
 10
-776.4522571351115
 20
95.5270950580134
 30
0.0
  0
SEQEND
  5
219E
330
219A
100
AcDbEntity
  8
NOTE
  0
ENDBLK
  5
21A0
330
3245
100
AcDbEntity
  8
0
100
AcDbBlockEnd
  0
BLOCK
  5
3248
330
3247
100
AcDbEntity
  8
0
100
AcDbBlockBegin
  2
*U20
 70
     1
 10
0.0
 20
0.0
 30
0.0
  3
*U20
  1

  0
TEXT
  5
21A2
330
3247
100
AcDbEntity
  8
NOTE
100
AcDbText
 10
-773.7093999922541
 20
113.5270950580134
 30
0.0
 40
64.0
  1
4×φ10取付穴
 41
0.9
100
AcDbText
  0
ENDBLK
  5
21A4
330
3247
100
AcDbEntity
  8
0
100
AcDbBlockEnd
  0
BLOCK
  5
324A
330
3249
100
AcDbEntity
  8
0
100
AcDbBlockBegin
  2
*U21
 70
     1
 10
0.0
 20
0.0
 30
0.0
  3
*U21
  1

  0
INSERT
  5
2586
330
3249
100
AcDbEntity
  8
NOTE
100
AcDbBlockReference
  2
_OPEN30
 10
-449.9999999999982
 20
0.0000000000013642
 30
0.0
 41
12.0
 42
12.0
 43
12.0
 50
312.6090116116894
  0
POLYLINE
  5
2587
330
3249
100
AcDbEntity
  8
NOTE
100
AcDb2dPolyline
 66
     1
 10
0.0
 20
0.0
 30
0.0
  0
VERTEX
  5
2588
330
2587
100
AcDbEntity
  8
NOTE
100
AcDbVertex
100
AcDb2dVertex
 10
-458.1239008361873
 20
8.831887408916838
 30
0.0
  0
VERTEX
  5
2589
330
2587
100
AcDbEntity
  8
NOTE
100
AcDbVertex
100
AcDb2dVertex
 10
-537.8693999922525
 20
95.52709505801479
 30
0.0
  0
VERTEX
  5
258A
330
2587
100
AcDbEntity
  8
NOTE
100
AcDbVertex
100
AcDb2dVertex
 10
-1133.080828563681
 20
95.52709505801479
 30
0.0
  0
SEQEND
  5
258B
330
2587
100
AcDbEntity
  8
NOTE
  0
ENDBLK
  5
258C
330
3249
100
AcDbEntity
  8
0
100
AcDbBlockEnd
  0
BLOCK
  5
324C
330
324B
100
AcDbEntity
  8
0
100
AcDbBlockBegin
  2
*X22
 70
     1
 10
0.0
 20
0.0
 30
0.0
  3
*X22
  1

  0
LINE
  5
2ABC
330
324B
100
AcDbEntity
  8
0
 62
     0
100
AcDbLine
 10
422.1156497951739
 20
-1132.584304071672
 30
0.0
 11
422.3000000000029
 21
-1132.461404248948
 31
0.0
  0
LINE
  5
2ABD
330
324B
100
AcDbEntity
  8
0
 62
     0
100
AcDbLine
 10
417.6156885012897
 20
-1132.58430407167
 30
0.0
 11
422.3000000000029
 21
-1129.461437713529
 31
0.0
  0
LINE
  5
2ABE
330
324B
100
AcDbEntity
  8
0
 62
     0
100
AcDbLine
 10
413.1157272073976
 20
-1132.584304071673
 30
0.0
 11
422.2999999999991
 21
-1126.461471178116
 31
0.0
  0
LINE
  5
2ABF
330
324B
100
AcDbEntity
  8
0
 62
     0
100
AcDbLine
 10
408.6157659135168
 20
-1132.58430407167
 30
0.0
 11
422.2999999999991
 21
-1123.461504642701
 31
0.0
  0
LINE
  5
2AC0
330
324B
100
AcDbEntity
  8
0
 62
     0
100
AcDbLine
 10
404.1158046196322
 20
-1132.584304071672
 30
0.0
 11
422.3000000000029
 21
-1120.461538107283
 31
0.0
  0
LINE
  5
2AC1
330
324B
100
AcDbEntity
  8
0
 62
     0
100
AcDbLine
 10
399.6158433257442
 20
-1132.584304071672
 30
0.0
 11
422.3000000000029
 21
-1117.461571571866
 31
0.0
  0
LINE
  5
2AC2
330
324B
100
AcDbEntity
  8
0
 62
     0
100
AcDbLine
 10
395.115882031856
 20
-1132.584304071673
 30
0.0
 11
422.2999999999991
 21
-1114.461605036451
 31
0.0
  0
LINE
  5
2AC3
330
324B
100
AcDbEntity
  8
0
 62
     0
100
AcDbLine
 10
390.6159207379715
 20
-1132.584304071673
 30
0.0
 11
422.3000000000029
 21
-1111.461638501034
 31
0.0
  0
LINE
  5
2AC4
330
324B
100
AcDbEntity
  8
0
 62
     0
100
AcDbLine
 10
386.1159594440906
 20
-1132.584304071672
 30
0.0
 11
422.3000000000029
 21
-1108.461671965616
 31
0.0
  0
LINE
  5
2AC5
330
324B
100
AcDbEntity
  8
0
 62
     0
100
AcDbLine
 10
381.6159981501987
 20
-1132.584304071672
 30
0.0
 11
422.2999999999991
 21
-1105.4617054302
 31
0.0
  0
LINE
  5
2AC6
330
324B
100
AcDbEntity
  8
0
 62
     0
100
AcDbLine
 10
377.1160368563177
 20
-1132.584304071672
 30
0.0
 11
422.2999999999991
 21
-1102.461738894788
 31
0.0
  0
LINE
  5
2AC7
330
324B
100
AcDbEntity
  8
0
 62
     0
100
AcDbLine
 10
372.6160755624333
 20
-1132.584304071672
 30
0.0
 11
422.3000000000029
 21
-1099.461772359369
 31
0.0
  0
LINE
  5
2AC8
330
324B
100
AcDbEntity
  8
0
 62
     0
100
AcDbLine
 10
368.116114268545
 20
-1132.584304071672
 30
0.0
 11
422.2999999999991
 21
-1096.461805823952
 31
0.0
  0
LINE
  5
2AC9
330
324B
100
AcDbEntity
  8
0
 62
     0
100
AcDbLine
 10
363.6161529746569
 20
-1132.584304071673
 30
0.0
 11
422.2999999999991
 21
-1093.461839288538
 31
0.0
  0
LINE
  5
2ACA
330
324B
100
AcDbEntity
  8
0
 62
     0
100
AcDbLine
 10
359.1161916807723
 20
-1132.584304071672
 30
0.0
 11
422.2999999999991
 21
-1090.461872753121
 31
0.0
  0
LINE
  5
2ACB
330
324B
100
AcDbEntity
  8
0
 62
     0
100
AcDbLine
 10
354.6162303868914
 20
-1132.584304071672
 30
0.0
 11
422.3000000000029
 21
-1087.461906217706
 31
0.0
  0
LINE
  5
2ACC
330
324B
100
AcDbEntity
  8
0
 62
     0
100
AcDbLine
 10
350.1162690930032
 20
-1132.584304071672
 30
0.0
 11
422.2999999999991
 21
-1084.461939682287
 31
0.0
  0
LINE
  5
2ACD
330
324B
100
AcDbEntity
  8
0
 62
     0
100
AcDbLine
 10
345.6163077991186
 20
-1132.584304071673
 30
0.0
 11
422.2999999999991
 21
-1081.461973146874
 31
0.0
  0
LINE
  5
2ACE
330
324B
100
AcDbEntity
  8
0
 62
     0
100
AcDbLine
 10
341.116346505234
 20
-1132.58430407167
 30
0.0
 11
422.3000000000029
 21
-1078.462006611456
 31
0.0
  0
LINE
  5
2ACF
330
324B
100
AcDbEntity
  8
0
 62
     0
100
AcDbLine
 10
336.6163852113459
 20
-1132.584304071672
 30
0.0
 11
422.3000000000029
 21
-1075.462040076039
 31
0.0
  0
LINE
  5
2AD0
330
324B
100
AcDbEntity
  8
0
 62
     0
100
AcDbLine
 10
332.116423917465
 20
-1132.58430407167
 30
0.0
 11
422.2999999999991
 21
-1072.462073540624
 31
0.0
  0
LINE
  5
2AD1
330
324B
100
AcDbEntity
  8
0
 62
     0
100
AcDbLine
 10
327.6164626235768
 20
-1132.584304071672
 30
0.0
 11
422.2999999999991
 21
-1069.462107005207
 31
0.0
  0
LINE
  5
2AD2
330
324B
100
AcDbEntity
  8
0
 62
     0
100
AcDbLine
 10
323.1165013296922
 20
-1132.584304071672
 30
0.0
 11
422.3000000000029
 21
-1066.462140469792
 31
0.0
  0
LINE
  5
2AD3
330
324B
100
AcDbEntity
  8
0
 62
     0
100
AcDbLine
 10
318.6165400358041
 20
-1132.584304071673
 30
0.0
 11
422.2999999999991
 21
-1063.462173934375
 31
0.0
  0
LINE
  5
2AD4
330
324B
100
AcDbEntity
  8
0
 62
     0
100
AcDbLine
 10
314.1165787419232
 20
-1132.58430407167
 30
0.0
 11
422.2999999999991
 21
-1060.462207398959
 31
0.0
  0
LINE
  5
2AD5
330
324B
100
AcDbEntity
  8
0
 62
     0
100
AcDbLine
 10
309.6166174480349
 20
-1132.584304071672
 30
0.0
 11
422.3000000000029
 21
-1057.462240863542
 31
0.0
  0
LINE
  5
2AD6
330
324B
100
AcDbEntity
  8
0
 62
     0
100
AcDbLine
 10
305.1166561541468
 20
-1132.584304071672
 30
0.0
 11
422.2999999999991
 21
-1054.462274328127
 31
0.0
  0
LINE
  5
2AD7
330
324B
100
AcDbEntity
  8
0
 62
     0
100
AcDbLine
 10
300.6166948602622
 20
-1132.584304071672
 30
0.0
 11
422.2999999999991
 21
-1051.46230779271
 31
0.0
  0
LINE
  5
2AD8
330
324B
100
AcDbEntity
  8
0
 62
     0
100
AcDbLine
 10
296.1167335663777
 20
-1132.584304071673
 30
0.0
 11
422.2999999999991
 21
-1048.462341257296
 31
0.0
  0
LINE
  5
2AD9
330
324B
100
AcDbEntity
  8
0
 62
     0
100
AcDbLine
 10
291.6167722724895
 20
-1132.58430407167
 30
0.0
 11
422.2999999999991
 21
-1045.462374721877
 31
0.0
  0
LINE
  5
2ADA
330
324B
100
AcDbEntity
  8
0
 62
     0
100
AcDbLine
 10
287.1168109786049
 20
-1132.584304071672
 30
0.0
 11
422.3000000000029
 21
-1042.462408186462
 31
0.0
  0
LINE
  5
2ADB
330
324B
100
AcDbEntity
  8
0
 62
     0
100
AcDbLine
 10
282.616849684724
 20
-1132.58430407167
 30
0.0
 11
422.2999999999991
 21
-1039.462441651045
 31
0.0
  0
LINE
  5
2ADC
330
324B
100
AcDbEntity
  8
0
 62
     0
100
AcDbLine
 10
278.1168883908358
 20
-1132.584304071673
 30
0.0
 11
422.2999999999991
 21
-1036.462475115631
 31
0.0
  0
LINE
  5
2ADD
330
324B
100
AcDbEntity
  8
0
 62
     0
100
AcDbLine
 10
273.6169270969476
 20
-1132.584304071672
 30
0.0
 11
422.2999999999991
 21
-1033.462508580212
 31
0.0
  0
LINE
  5
2ADE
330
324B
100
AcDbEntity
  8
0
 62
     0
100
AcDbLine
 10
269.1169658030631
 20
-1132.584304071672
 30
0.0
 11
422.3000000000029
 21
-1030.462542044797
 31
0.0
  0
LINE
  5
2ADF
330
324B
100
AcDbEntity
  8
0
 62
     0
100
AcDbLine
 10
264.6170045091821
 20
-1132.58430407167
 30
0.0
 11
422.2999999999991
 21
-1027.462575509382
 31
0.0
  0
LINE
  5
2AE0
330
324B
100
AcDbEntity
  8
0
 62
     0
100
AcDbLine
 10
260.1170432152903
 20
-1132.584304071673
 30
0.0
 11
422.2999999999991
 21
-1024.462608973965
 31
0.0
  0
LINE
  5
2AE1
330
324B
100
AcDbEntity
  8
0
 62
     0
100
AcDbLine
 10
255.6170819214058
 20
-1132.584304071672
 30
0.0
 11
422.3000000000029
 21
-1021.462642438548
 31
0.0
  0
LINE
  5
2AE2
330
324B
100
AcDbEntity
  8
0
 62
     0
100
AcDbLine
 10
251.1171206275212
 20
-1132.584304071672
 30
0.0
 11
422.3000000000029
 21
-1018.46267590313
 31
0.0
  0
LINE
  5
2AE3
330
324B
100
AcDbEntity
  8
0
 62
     0
100
AcDbLine
 10
246.6171593336403
 20
-1132.58430407167
 30
0.0
 11
422.2999999999991
 21
-1015.462709367717
 31
0.0
  0
LINE
  5
2AE4
330
324B
100
AcDbEntity
  8
0
 62
     0
100
AcDbLine
 10
242.1171980397485
 20
-1132.584304071672
 30
0.0
 11
422.2999999999991
 21
-1012.4627428323
 31
0.0
  0
LINE
  5
2AE5
330
324B
100
AcDbEntity
  8
0
 62
     0
100
AcDbLine
 10
237.6172367458639
 20
-1132.584304071672
 30
0.0
 11
422.3000000000029
 21
-1009.462776296883
 31
0.0
  0
LINE
  5
2AE6
330
324B
100
AcDbEntity
  8
0
 62
     0
100
AcDbLine
 10
233.1172754519794
 20
-1132.584304071672
 30
0.0
 11
422.3000000000029
 21
-1006.462809761468
 31
0.0
  0
LINE
  5
2AE7
330
324B
100
AcDbEntity
  8
0
 62
     0
100
AcDbLine
 10
228.6173141580948
 20
-1132.584304071672
 30
0.0
 11
422.2999999999991
 21
-1003.46284322605
 31
0.0
  0
LINE
  5
2AE8
330
324B
100
AcDbEntity
  8
0
 62
     0
100
AcDbLine
 10
224.1173528642103
 20
-1132.58430407167
 30
0.0
 11
422.2999999999991
 21
-1000.462876690635
 31
0.0
  0
LINE
  5
2AE9
330
324B
100
AcDbEntity
  8
0
 62
     0
100
AcDbLine
 10
219.6173915703257
 20
-1132.584304071672
 30
0.0
 11
422.3000000000029
 21
-997.4629101552199
 31
0.0
  0
LINE
  5
2AEA
330
324B
100
AcDbEntity
  8
0
 62
     0
100
AcDbLine
 10
215.1174302764375
 20
-1132.58430407167
 30
0.0
 11
422.2999999999991
 21
-994.4629436198024
 31
0.0
  0
LINE
  5
2AEB
330
324B
100
AcDbEntity
  8
0
 62
     0
100
AcDbLine
 10
210.6174689825493
 20
-1132.584304071673
 30
0.0
 11
422.2999999999991
 21
-991.4629770843875
 31
0.0
  0
LINE
  5
2AEC
330
324B
100
AcDbEntity
  8
0
 62
     0
100
AcDbLine
 10
206.1175076886684
 20
-1132.584304071672
 30
0.0
 11
422.3000000000029
 21
-988.4630105489687
 31
0.0
  0
LINE
  5
2AED
330
324B
100
AcDbEntity
  8
0
 62
     0
100
AcDbLine
 10
201.6175463947838
 20
-1132.584304071672
 30
0.0
 11
422.3000000000029
 21
-985.4630440135553
 31
0.0
  0
LINE
  5
2AEE
330
324B
100
AcDbEntity
  8
0
 62
     0
100
AcDbLine
 10
197.1175851008957
 20
-1132.58430407167
 30
0.0
 11
422.2999999999991
 21
-982.46307747814
 31
0.0
  0
LINE
  5
2AEF
330
324B
100
AcDbEntity
  8
0
 62
     0
100
AcDbLine
 10
192.6176238070075
 20
-1132.584304071672
 30
0.0
 11
422.2999999999991
 21
-979.4631109427209
 31
0.0
  0
LINE
  5
2AF0
330
324B
100
AcDbEntity
  8
0
 62
     0
100
AcDbLine
 10
188.1176625131264
 20
-1132.584304071672
 30
0.0
 11
422.3000000000029
 21
-976.4631444073055
 31
0.0
  0
LINE
  5
2AF1
330
324B
100
AcDbEntity
  8
0
 62
     0
100
AcDbLine
 10
183.6177012192383
 20
-1132.584304071672
 30
0.0
 11
422.2999999999991
 21
-973.4631778718885
 31
0.0
  0
LINE
  5
2AF2
330
324B
100
AcDbEntity
  8
0
 62
     0
100
AcDbLine
 10
179.1177399253538
 20
-1132.58430407167
 30
0.0
 11
422.2999999999991
 21
-970.4632113364732
 31
0.0
  0
LINE
  5
2AF3
330
324B
100
AcDbEntity
  8
0
 62
     0
100
AcDbLine
 10
174.6177786314692
 20
-1132.58430407167
 30
0.0
 11
422.3000000000029
 21
-967.4632448010545
 31
0.0
  0
LINE
  5
2AF4
330
324B
100
AcDbEntity
  8
0
 62
     0
100
AcDbLine
 10
170.1178173375847
 20
-1132.584304071672
 30
0.0
 11
422.3000000000029
 21
-964.4632782656406
 31
0.0
  0
LINE
  5
2AF5
330
324B
100
AcDbEntity
  8
0
 62
     0
100
AcDbLine
 10
165.6178560436964
 20
-1132.58430407167
 30
0.0
 11
422.3000000000029
 21
-961.4633117302236
 31
0.0
  0
LINE
  5
2AF6
330
324B
100
AcDbEntity
  8
0
 62
     0
100
AcDbLine
 10
161.1178947498119
 20
-1132.584304071672
 30
0.0
 11
422.2999999999991
 21
-958.4633451948082
 31
0.0
  0
LINE
  5
2AF7
330
324B
100
AcDbEntity
  8
0
 62
     0
100
AcDbLine
 10
156.6179334559274
 20
-1132.58430407167
 30
0.0
 11
422.3000000000029
 21
-955.4633786593912
 31
0.0
  0
LINE
  5
2AF8
330
324B
100
AcDbEntity
  8
0
 62
     0
100
AcDbLine
 10
152.1179721620392
 20
-1132.584304071672
 30
0.0
 11
422.2999999999991
 21
-952.4634121239778
 31
0.0
  0
LINE
  5
2AF9
330
324B
100
AcDbEntity
  8
0
 62
     0
100
AcDbLine
 10
147.6180108681546
 20
-1132.58430407167
 30
0.0
 11
422.3000000000029
 21
-949.4634455885588
 31
0.0
  0
LINE
  5
2AFA
330
324B
100
AcDbEntity
  8
0
 62
     0
100
AcDbLine
 10
143.1180495742665
 20
-1132.584304071673
 30
0.0
 11
422.2999999999991
 21
-946.4634790531453
 31
0.0
  0
LINE
  5
2AFB
330
324B
100
AcDbEntity
  8
0
 62
     0
100
AcDbLine
 10
138.6180882803855
 20
-1132.584304071672
 30
0.0
 11
422.3000000000029
 21
-943.4635125177264
 31
0.0
  0
LINE
  5
2AFC
330
324B
100
AcDbEntity
  8
0
 62
     0
100
AcDbLine
 10
134.1181269864973
 20
-1132.58430407167
 30
0.0
 11
422.2999999999991
 21
-940.4635459823108
 31
0.0
  0
LINE
  5
2AFD
330
324B
100
AcDbEntity
  8
0
 62
     0
100
AcDbLine
 10
129.6181656926128
 20
-1132.58430407167
 30
0.0
 11
422.2999999999991
 21
-937.4635794468959
 31
0.0
  0
LINE
  5
2AFE
330
324B
100
AcDbEntity
  8
0
 62
     0
100
AcDbLine
 10
125.1182043987246
 20
-1132.584304071672
 30
0.0
 11
422.3000000000029
 21
-934.4636129114768
 31
0.0
  0
LINE
  5
2AFF
330
324B
100
AcDbEntity
  8
0
 62
     0
100
AcDbLine
 10
120.6182431048401
 20
-1132.584304071672
 30
0.0
 11
422.2999999999991
 21
-931.4636463760633
 31
0.0
  0
LINE
  5
2B00
330
324B
100
AcDbEntity
  8
0
 62
     0
100
AcDbLine
 10
116.1182818109555
 20
-1132.584304071672
 30
0.0
 11
422.3000000000029
 21
-928.4636798406445
 31
0.0
  0
LINE
  5
2B01
330
324B
100
AcDbEntity
  8
0
 62
     0
100
AcDbLine
 10
111.6183205170709
 20
-1132.58430407167
 30
0.0
 11
422.2999999999991
 21
-925.4637133052311
 31
0.0
  0
LINE
  5
2B02
330
324B
100
AcDbEntity
  8
0
 62
     0
100
AcDbLine
 10
107.1183592231828
 20
-1132.58430407167
 30
0.0
 11
422.2999999999991
 21
-922.4637467698119
 31
0.0
  0
LINE
  5
2B03
330
324B
100
AcDbEntity
  8
0
 62
     0
100
AcDbLine
 10
102.6183979292982
 20
-1132.584304071672
 30
0.0
 11
422.2999999999991
 21
-919.4637802343983
 31
0.0
  0
LINE
  5
2B04
330
324B
100
AcDbEntity
  8
0
 62
     0
100
AcDbLine
 10
98.11843663541731
 20
-1132.58430407167
 30
0.0
 11
422.3000000000029
 21
-916.4638136989816
 31
0.0
  0
LINE
  5
2B05
330
324B
100
AcDbEntity
  8
0
 62
     0
100
AcDbLine
 10
93.61847534152913
 20
-1132.584304071672
 30
0.0
 11
422.2999999999991
 21
-913.4638471635662
 31
0.0
  0
LINE
  5
2B06
330
324B
100
AcDbEntity
  8
0
 62
     0
100
AcDbLine
 10
89.11851404764091
 20
-1132.58430407167
 30
0.0
 11
422.2999999999991
 21
-910.4638806281487
 31
0.0
  0
LINE
  5
2B07
330
324B
100
AcDbEntity
  8
0
 62
     0
100
AcDbLine
 10
84.61855275375638
 20
-1132.584304071672
 30
0.0
 11
422.2999999999991
 21
-907.4639140927356
 31
0.0
  0
LINE
  5
2B08
330
324B
100
AcDbEntity
  8
0
 62
     0
100
AcDbLine
 10
80.11859145987545
 20
-1132.58430407167
 30
0.0
 11
422.3000000000029
 21
-904.4639475573166
 31
0.0
  0
LINE
  5
2B09
330
324B
100
AcDbEntity
  8
0
 62
     0
100
AcDbLine
 10
75.61863016598727
 20
-1132.58430407167
 30
0.0
 11
422.2999999999991
 21
-901.4639810218996
 31
0.0
  0
LINE
  5
2B0A
330
324B
100
AcDbEntity
  8
0
 62
     0
100
AcDbLine
 10
71.11866887209908
 20
-1132.584304071672
 30
0.0
 11
422.2999999999991
 21
-898.4640144864846
 31
0.0
  0
LINE
  5
2B0B
330
324B
100
AcDbEntity
  8
0
 62
     0
100
AcDbLine
 10
66.61870757821453
 20
-1132.58430407167
 30
0.0
 11
422.2999999999991
 21
-895.464047951069
 31
0.0
  0
LINE
  5
2B0C
330
324B
100
AcDbEntity
  8
0
 62
     0
100
AcDbLine
 10
62.11874628433361
 20
-1132.58430407167
 30
0.0
 11
422.3000000000029
 21
-892.4640814156518
 31
0.0
  0
LINE
  5
2B0D
330
324B
100
AcDbEntity
  8
0
 62
     0
100
AcDbLine
 10
57.61878499044541
 20
-1132.58430407167
 30
0.0
 11
422.2999999999991
 21
-889.4641148802346
 31
0.0
  0
LINE
  5
2B0E
330
324B
100
AcDbEntity
  8
0
 62
     0
100
AcDbLine
 10
53.1188236965572
 20
-1132.584304071672
 30
0.0
 11
422.2999999999991
 21
-886.4641483448213
 31
0.0
  0
LINE
  5
2B0F
330
324B
100
AcDbEntity
  8
0
 62
     0
100
AcDbLine
 10
48.61886240267631
 20
-1132.58430407167
 30
0.0
 11
422.3000000000029
 21
-883.4641818094024
 31
0.0
  0
LINE
  5
2B10
330
324B
100
AcDbEntity
  8
0
 62
     0
100
AcDbLine
 10
44.1189011087881
 20
-1132.58430407167
 30
0.0
 11
422.2999999999991
 21
-880.4642152739868
 31
0.0
  0
LINE
  5
2B11
330
324B
100
AcDbEntity
  8
0
 62
     0
100
AcDbLine
 10
39.61893981490357
 20
-1132.58430407167
 30
0.0
 11
422.2999999999991
 21
-877.4642487385699
 31
0.0
  0
LINE
  5
2B12
330
324B
100
AcDbEntity
  8
0
 62
     0
100
AcDbLine
 10
35.11897852101538
 20
-1132.584304071672
 30
0.0
 11
422.3000000000029
 21
-874.4642822031543
 31
0.0
  0
LINE
  5
2B13
330
324B
100
AcDbEntity
  8
0
 62
     0
100
AcDbLine
 10
30.61901722713447
 20
-1132.58430407167
 30
0.0
 11
422.3000000000029
 21
-871.4643156677393
 31
0.0
  0
LINE
  5
2B14
330
324B
100
AcDbEntity
  8
0
 62
     0
100
AcDbLine
 10
26.11905593324627
 20
-1132.584304071672
 30
0.0
 11
422.2999999999991
 21
-868.4643491323223
 31
0.0
  0
LINE
  5
2B15
330
324B
100
AcDbEntity
  8
0
 62
     0
100
AcDbLine
 10
21.61909463936172
 20
-1132.58430407167
 30
0.0
 11
422.2999999999991
 21
-865.4643825969069
 31
0.0
  0
LINE
  5
2B16
330
324B
100
AcDbEntity
  8
0
 62
     0
100
AcDbLine
 10
17.11913334547353
 20
-1132.58430407167
 30
0.0
 11
422.3000000000029
 21
-862.4644160614879
 31
0.0
  0
LINE
  5
2B17
330
324B
100
AcDbEntity
  8
0
 62
     0
100
AcDbLine
 10
12.61917205158897
 20
-1132.58430407167
 30
0.0
 11
422.2999999999991
 21
-859.4644495260745
 31
0.0
  0
LINE
  5
2B18
330
324B
100
AcDbEntity
  8
0
 62
     0
100
AcDbLine
 10
8.119210757704422
 20
-1132.58430407167
 30
0.0
 11
422.2999999999991
 21
-856.4644829906574
 31
0.0
  0
LINE
  5
2B19
330
324B
100
AcDbEntity
  8
0
 62
     0
100
AcDbLine
 10
3.619249463819867
 20
-1132.584304071672
 30
0.0
 11
422.2999999999991
 21
-853.4645164552419
 31
0.0
  0
LINE
  5
2B1A
330
324B
100
AcDbEntity
  8
0
 62
     0
100
AcDbLine
 10
-0.8807118300719594
 20
-1132.58430407167
 30
0.0
 11
422.2999999999991
 21
-850.464549919825
 31
0.0
  0
LINE
  5
2B1B
330
324B
100
AcDbEntity
  8
0
 62
     0
100
AcDbLine
 10
-5.380673123952872
 20
-1132.58430407167
 30
0.0
 11
422.3000000000029
 21
-847.4645833844077
 31
0.0
  0
LINE
  5
2B1C
330
324B
100
AcDbEntity
  8
0
 62
     0
100
AcDbLine
 10
-9.880634417837427
 20
-1132.58430407167
 30
0.0
 11
422.2999999999991
 21
-844.4646168489926
 31
0.0
  0
LINE
  5
2B1D
330
324B
100
AcDbEntity
  8
0
 62
     0
100
AcDbLine
 10
-14.38059571172198
 20
-1132.584304071672
 30
0.0
 11
422.3000000000029
 21
-841.4646503135772
 31
0.0
  0
LINE
  5
2B1E
330
324B
100
AcDbEntity
  8
0
 62
     0
100
AcDbLine
 10
-18.88055700561016
 20
-1132.58430407167
 30
0.0
 11
422.2999999999991
 21
-838.4646837781604
 31
0.0
  0
LINE
  5
2B1F
330
324B
100
AcDbEntity
  8
0
 62
     0
100
AcDbLine
 10
-23.38051829949472
 20
-1132.58430407167
 30
0.0
 11
422.3000000000029
 21
-835.4647172427446
 31
0.0
  0
LINE
  5
2B20
330
324B
100
AcDbEntity
  8
0
 62
     0
100
AcDbLine
 10
-27.88047959337929
 20
-1132.58430407167
 30
0.0
 11
422.2999999999991
 21
-832.4647507073276
 31
0.0
  0
LINE
  5
2B21
330
324B
100
AcDbEntity
  8
0
 62
     0
100
AcDbLine
 10
-32.38044088726747
 20
-1132.584304071672
 30
0.0
 11
422.2999999999991
 21
-829.4647841719124
 31
0.0
  0
LINE
  5
2B22
330
324B
100
AcDbEntity
  8
0
 62
     0
100
AcDbLine
 10
-36.88040218115201
 20
-1132.58430407167
 30
0.0
 11
422.2999999999991
 21
-826.4648176364969
 31
0.0
  0
LINE
  5
2B23
330
324B
100
AcDbEntity
  8
0
 62
     0
100
AcDbLine
 10
-41.38036347503656
 20
-1132.58430407167
 30
0.0
 11
422.2999999999991
 21
-823.4648511010782
 31
0.0
  0
LINE
  5
2B24
330
324B
100
AcDbEntity
  8
0
 62
     0
100
AcDbLine
 10
-45.88032476892112
 20
-1132.58430407167
 30
0.0
 11
422.2999999999991
 21
-820.4648845656645
 31
0.0
  0
LINE
  5
2B25
330
324B
100
AcDbEntity
  8
0
 62
     0
100
AcDbLine
 10
-50.38028606280931
 20
-1132.58430407167
 30
0.0
 11
422.2999999999991
 21
-817.4649180302457
 31
0.0
  0
LINE
  5
2B26
330
324B
100
AcDbEntity
  8
0
 62
     0
100
AcDbLine
 10
-54.88024735669387
 20
-1132.58430407167
 30
0.0
 11
422.3000000000029
 21
-814.4649514948305
 31
0.0
  0
LINE
  5
2B27
330
324B
100
AcDbEntity
  8
0
 62
     0
100
AcDbLine
 10
-59.38020865057842
 20
-1132.58430407167
 30
0.0
 11
422.2999999999991
 21
-811.4649849594155
 31
0.0
  0
LINE
  5
2B28
330
324B
100
AcDbEntity
  8
0
 62
     0
100
AcDbLine
 10
-63.88016994446662
 20
-1132.584304071672
 30
0.0
 11
422.2999999999956
 21
-808.4650184239999
 31
0.0
  0
LINE
  5
2B29
330
324B
100
AcDbEntity
  8
0
 62
     0
100
AcDbLine
 10
-68.38013123835117
 20
-1132.584304071672
 30
0.0
 11
422.2999999999991
 21
-805.4650518885829
 31
0.0
  0
LINE
  5
2B2A
330
324B
100
AcDbEntity
  8
0
 62
     0
100
AcDbLine
 10
-72.88009253223569
 20
-1132.58430407167
 30
0.0
 11
422.3000000000029
 21
-802.4650853531657
 31
0.0
  0
LINE
  5
2B2B
330
324B
100
AcDbEntity
  8
0
 62
     0
100
AcDbLine
 10
-77.3800538261239
 20
-1132.58430407167
 30
0.0
 11
422.2999999999956
 21
-799.4651188177503
 31
0.0
  0
LINE
  5
2B2C
330
324B
100
AcDbEntity
  8
0
 62
     0
100
AcDbLine
 10
-81.88001512000845
 20
-1132.584304071672
 30
0.0
 11
422.2999999999991
 21
-796.4651522823331
 31
0.0
  0
LINE
  5
2B2D
330
324B
100
AcDbEntity
  8
0
 62
     0
100
AcDbLine
 10
-86.37997641388935
 20
-1132.58430407167
 30
0.0
 11
422.3000000000029
 21
-793.4651857469162
 31
0.0
  0
LINE
  5
2B2E
330
324B
100
AcDbEntity
  8
0
 62
     0
100
AcDbLine
 10
-90.87993770777755
 20
-1132.58430407167
 30
0.0
 11
422.3000000000029
 21
-790.4652192115027
 31
0.0
  0
LINE
  5
2B2F
330
324B
100
AcDbEntity
  8
0
 62
     0
100
AcDbLine
 10
-95.37989900166213
 20
-1132.584304071668
 30
0.0
 11
422.2999999999991
 21
-787.4652526760835
 31
0.0
  0
LINE
  5
2B30
330
324B
100
AcDbEntity
  8
0
 62
     0
100
AcDbLine
 10
-99.87986029555031
 20
-1132.58430407167
 30
0.0
 11
422.2999999999991
 21
-784.4652861406683
 31
0.0
  0
LINE
  5
2B31
330
324B
100
AcDbEntity
  8
0
 62
     0
100
AcDbLine
 10
-104.3798215894312
 20
-1132.58430407167
 30
0.0
 11
422.3000000000029
 21
-781.4653196052513
 31
0.0
  0
LINE
  5
2B32
330
324B
100
AcDbEntity
  8
0
 62
     0
100
AcDbLine
 10
-108.879782883323
 20
-1132.58430407167
 30
0.0
 11
422.2999999999991
 21
-778.4653530698358
 31
0.0
  0
LINE
  5
2B33
330
324B
100
AcDbEntity
  8
0
 62
     0
100
AcDbLine
 10
-113.3797441772076
 20
-1132.58430407167
 30
0.0
 11
422.2999999999991
 21
-775.4653865344206
 31
0.0
  0
LINE
  5
2B34
330
324B
100
AcDbEntity
  8
0
 62
     0
100
AcDbLine
 10
-117.879705471092
 20
-1132.58430407167
 30
0.0
 11
422.2999999999991
 21
-772.4654199990034
 31
0.0
  0
LINE
  5
2B35
330
324B
100
AcDbEntity
  8
0
 62
     0
100
AcDbLine
 10
-122.3796667649731
 20
-1132.58430407167
 30
0.0
 11
422.3000000000029
 21
-769.4654534635884
 31
0.0
  0
LINE
  5
2B36
330
324B
100
AcDbEntity
  8
0
 62
     0
100
AcDbLine
 10
-126.8796280588649
 20
-1132.58430407167
 30
0.0
 11
422.2999999999991
 21
-766.4654869281712
 31
0.0
  0
LINE
  5
2B37
330
324B
100
AcDbEntity
  8
0
 62
     0
100
AcDbLine
 10
-131.3795893527494
 20
-1132.584304071672
 30
0.0
 11
422.2999999999956
 21
-763.4655203927577
 31
0.0
  0
LINE
  5
2B38
330
324B
100
AcDbEntity
  8
0
 62
     0
100
AcDbLine
 10
-135.8795506466303
 20
-1132.584304071668
 30
0.0
 11
422.2999999999956
 21
-760.4655538573422
 31
0.0
  0
LINE
  5
2B39
330
324B
100
AcDbEntity
  8
0
 62
     0
100
AcDbLine
 10
-140.3795119405185
 20
-1132.58430407167
 30
0.0
 11
422.2999999999956
 21
-757.4655873219249
 31
0.0
  0
LINE
  5
2B3A
330
324B
100
AcDbEntity
  8
0
 62
     0
100
AcDbLine
 10
-144.8794732344031
 20
-1132.584304071668
 30
0.0
 11
422.2999999999991
 21
-754.4656207865082
 31
0.0
  0
LINE
  5
2B3B
330
324B
100
AcDbEntity
  8
0
 62
     0
100
AcDbLine
 10
-149.3794345282913
 20
-1132.584304071672
 30
0.0
 11
422.2999999999956
 21
-751.4656542510948
 31
0.0
  0
LINE
  5
2B3C
330
324B
100
AcDbEntity
  8
0
 62
     0
100
AcDbLine
 10
-153.8793958221758
 20
-1132.58430407167
 30
0.0
 11
422.2999999999956
 21
-748.4656877156758
 31
0.0
  0
LINE
  5
2B3D
330
324B
100
AcDbEntity
  8
0
 62
     0
100
AcDbLine
 10
-158.3793571160604
 20
-1132.584304071668
 30
0.0
 11
422.2999999999991
 21
-745.4657211802589
 31
0.0
  0
LINE
  5
2B3E
330
324B
100
AcDbEntity
  8
0
 62
     0
100
AcDbLine
 10
-162.879318409945
 20
-1132.584304071668
 30
0.0
 11
422.2999999999991
 21
-742.4657546448433
 31
0.0
  0
LINE
  5
2B3F
330
324B
100
AcDbEntity
  8
0
 62
     0
100
AcDbLine
 10
-167.3792797038331
 20
-1132.58430407167
 30
0.0
 11
422.2999999999956
 21
-739.4657881094281
 31
0.0
  0
LINE
  5
2B40
330
324B
100
AcDbEntity
  8
0
 62
     0
100
AcDbLine
 10
-171.8792409977177
 20
-1132.58430407167
 30
0.0
 11
422.2999999999956
 21
-736.4658215740107
 31
0.0
  0
LINE
  5
2B41
330
324B
100
AcDbEntity
  8
0
 62
     0
100
AcDbLine
 10
-176.3792022916021
 20
-1132.58430407167
 30
0.0
 11
422.2999999999991
 21
-733.4658550385936
 31
0.0
  0
LINE
  5
2B42
330
324B
100
AcDbEntity
  8
0
 62
     0
100
AcDbLine
 10
-180.8791635854868
 20
-1132.584304071668
 30
0.0
 11
422.2999999999991
 21
-730.4658885031805
 31
0.0
  0
LINE
  5
2B43
330
324B
100
AcDbEntity
  8
0
 62
     0
100
AcDbLine
 10
-185.3791248793785
 20
-1132.58430407167
 30
0.0
 11
422.2999999999956
 21
-727.4659219677612
 31
0.0
  0
LINE
  5
2B44
330
324B
100
AcDbEntity
  8
0
 62
     0
100
AcDbLine
 10
-189.8790861732596
 20
-1132.58430407167
 30
0.0
 11
422.2999999999956
 21
-724.4659554323479
 31
0.0
  0
LINE
  5
2B45
330
324B
100
AcDbEntity
  8
0
 62
     0
100
AcDbLine
 10
-194.3790474671441
 20
-1132.58430407167
 30
0.0
 11
422.2999999999991
 21
-721.465988896929
 31
0.0
  0
LINE
  5
2B46
330
324B
100
AcDbEntity
  8
0
 62
     0
100
AcDbLine
 10
-198.8790087610287
 20
-1132.584304071672
 30
0.0
 11
422.2999999999991
 21
-718.4660223615154
 31
0.0
  0
LINE
  5
2B47
330
324B
100
AcDbEntity
  8
0
 62
     0
100
AcDbLine
 10
-203.3789700549168
 20
-1132.584304071668
 30
0.0
 11
422.2999999999956
 21
-715.4660558260984
 31
0.0
  0
LINE
  5
2B48
330
324B
100
AcDbEntity
  8
0
 62
     0
100
AcDbLine
 10
-207.8789313488014
 20
-1132.58430407167
 30
0.0
 11
422.2999999999991
 21
-712.4660892906813
 31
0.0
  0
LINE
  5
2B49
330
324B
100
AcDbEntity
  8
0
 62
     0
100
AcDbLine
 10
-212.3788926426823
 20
-1132.584304071668
 30
0.0
 11
422.2999999999991
 21
-709.4661227552661
 31
0.0
  0
LINE
  5
2B4A
330
324B
100
AcDbEntity
  8
0
 62
     0
100
AcDbLine
 10
-216.8788539365742
 20
-1132.58430407167
 30
0.0
 11
422.2999999999956
 21
-706.4661562198507
 31
0.0
  0
LINE
  5
2B4B
330
324B
100
AcDbEntity
  8
0
 62
     0
100
AcDbLine
 10
-221.3788152304587
 20
-1132.58430407167
 30
0.0
 11
422.2999999999956
 21
-703.4661896844336
 31
0.0
  0
LINE
  5
2B4C
330
324B
100
AcDbEntity
  8
0
 62
     0
100
AcDbLine
 10
-225.8787765243432
 20
-1132.58430407167
 30
0.0
 11
422.2999999999991
 21
-700.4662231490166
 31
0.0
  0
LINE
  5
2B4D
330
324B
100
AcDbEntity
  8
0
 62
     0
100
AcDbLine
 10
-230.3787378182278
 20
-1132.584304071668
 30
0.0
 11
422.2999999999956
 21
-697.4662566136012
 31
0.0
  0
LINE
  5
2B4E
330
324B
100
AcDbEntity
  8
0
 62
     0
100
AcDbLine
 10
-234.878699112116
 20
-1132.58430407167
 30
0.0
 11
422.2999999999956
 21
-694.4662900781841
 31
0.0
  0
LINE
  5
2B4F
330
324B
100
AcDbEntity
  8
0
 62
     0
100
AcDbLine
 10
-239.3786604060005
 20
-1132.58430407167
 30
0.0
 11
422.2999999999956
 21
-691.4663235427687
 31
0.0
  0
LINE
  5
2B50
330
324B
100
AcDbEntity
  8
0
 62
     0
100
AcDbLine
 10
-243.8786216998851
 20
-1132.58430407167
 30
0.0
 11
422.2999999999991
 21
-688.4663570073517
 31
0.0
  0
LINE
  5
2B51
330
324B
100
AcDbEntity
  8
0
 62
     0
100
AcDbLine
 10
-248.3785829937697
 20
-1132.584304071668
 30
0.0
 11
422.2999999999956
 21
-685.4663904719382
 31
0.0
  0
LINE
  5
2B52
330
324B
100
AcDbEntity
  8
0
 62
     0
100
AcDbLine
 10
-252.8785442876579
 20
-1132.584304071668
 30
0.0
 11
422.2999999999956
 21
-682.4664239365192
 31
0.0
  0
LINE
  5
2B53
330
324B
100
AcDbEntity
  8
0
 62
     0
100
AcDbLine
 10
-257.3785055815424
 20
-1132.58430407167
 30
0.0
 11
422.2999999999991
 21
-679.4664574011037
 31
0.0
  0
LINE
  5
2B54
330
324B
100
AcDbEntity
  8
0
 62
     0
100
AcDbLine
 10
-261.8784668754233
 20
-1132.584304071668
 30
0.0
 11
422.2999999999991
 21
-676.4664908656867
 31
0.0
  0
LINE
  5
2B55
330
324B
100
AcDbEntity
  8
0
 62
     0
100
AcDbLine
 10
-266.3784281693152
 20
-1132.584304071672
 30
0.0
 11
422.2999999999956
 21
-673.4665243302734
 31
0.0
  0
LINE
  5
2B56
330
324B
100
AcDbEntity
  8
0
 62
     0
100
AcDbLine
 10
-270.8783894631997
 20
-1132.584304071668
 30
0.0
 11
422.2999999999956
 21
-670.4665577948563
 31
0.0
  0
LINE
  5
2B57
330
324B
100
AcDbEntity
  8
0
 62
     0
100
AcDbLine
 10
-275.3783507570843
 20
-1132.584304071668
 30
0.0
 11
422.2999999999991
 21
-667.4665912594372
 31
0.0
  0
LINE
  5
2B58
330
324B
100
AcDbEntity
  8
0
 62
     0
100
AcDbLine
 10
-279.8783120509688
 20
-1132.584304071668
 30
0.0
 11
422.2999999999956
 21
-664.4666247240238
 31
0.0
  0
LINE
  5
2B59
330
324B
100
AcDbEntity
  8
0
 62
     0
100
AcDbLine
 10
-284.378273344857
 20
-1132.584304071672
 30
0.0
 11
422.2999999999956
 21
-661.4666581886067
 31
0.0
  0
LINE
  5
2B5A
330
324B
100
AcDbEntity
  8
0
 62
     0
100
AcDbLine
 10
-288.8782346387415
 20
-1132.58430407167
 30
0.0
 11
422.2999999999991
 21
-658.4666916531896
 31
0.0
  0
LINE
  5
2B5B
330
324B
100
AcDbEntity
  8
0
 62
     0
100
AcDbLine
 10
-293.3781959326298
 20
-1132.58430407167
 30
0.0
 11
422.2999999999956
 21
-655.4667251177743
 31
0.0
  0
LINE
  5
2B5C
330
324B
100
AcDbEntity
  8
0
 62
     0
100
AcDbLine
 10
-297.8781572265106
 20
-1132.584304071668
 30
0.0
 11
422.2999999999956
 21
-652.466758582359
 31
0.0
  0
LINE
  5
2B5D
330
324B
100
AcDbEntity
  8
0
 62
     0
100
AcDbLine
 10
-302.3781185203989
 20
-1132.58430407167
 30
0.0
 11
422.2999999999956
 21
-649.4667920469419
 31
0.0
  0
LINE
  5
2B5E
330
324B
100
AcDbEntity
  8
0
 62
     0
100
AcDbLine
 10
-306.8780798142833
 20
-1132.58430407167
 30
0.0
 11
422.2999999999991
 21
-646.4668255115245
 31
0.0
  0
LINE
  5
2B5F
330
324B
100
AcDbEntity
  8
0
 62
     0
100
AcDbLine
 10
-311.3780411081716
 20
-1132.58430407167
 30
0.0
 11
422.2999999999956
 21
-643.4668589761095
 31
0.0
  0
LINE
  5
2B60
330
324B
100
AcDbEntity
  8
0
 62
     0
100
AcDbLine
 10
-315.8780024020562
 20
-1132.584304071672
 30
0.0
 11
422.2999999999991
 21
-640.4668924406943
 31
0.0
  0
LINE
  5
2B61
330
324B
100
AcDbEntity
  8
0
 62
     0
100
AcDbLine
 10
-320.3779636959372
 20
-1132.584304071668
 30
0.0
 11
422.2999999999956
 21
-637.466925905277
 31
0.0
  0
LINE
  5
2B62
330
324B
100
AcDbEntity
  8
0
 62
     0
100
AcDbLine
 10
-324.8779249898289
 20
-1132.58430407167
 30
0.0
 11
422.2999999999956
 21
-634.4669593698616
 31
0.0
  0
LINE
  5
2B63
330
324B
100
AcDbEntity
  8
0
 62
     0
100
AcDbLine
 10
-329.3778862837098
 20
-1132.584304071668
 30
0.0
 11
422.2999999999956
 21
-631.4669928344444
 31
0.0
  0
LINE
  5
2B64
330
324B
100
AcDbEntity
  8
0
 62
     0
100
AcDbLine
 10
-333.877847577598
 20
-1132.58430407167
 30
0.0
 11
422.2999999999991
 21
-628.4670262990275
 31
0.0
  0
LINE
  5
2B65
330
324B
100
AcDbEntity
  8
0
 62
     0
100
AcDbLine
 10
-338.3778088714789
 20
-1132.58430407167
 30
0.0
 11
422.2999999999991
 21
-625.4670597636105
 31
0.0
  0
LINE
  5
2B66
330
324B
100
AcDbEntity
  8
0
 62
     0
100
AcDbLine
 10
-342.8777701653671
 20
-1132.58430407167
 30
0.0
 11
422.2999999999956
 21
-622.4670932281967
 31
0.0
  0
LINE
  5
2B67
330
324B
100
AcDbEntity
  8
0
 62
     0
100
AcDbLine
 10
-347.3777314592517
 20
-1132.584304071668
 30
0.0
 11
422.2999999999956
 21
-619.4671266927815
 31
0.0
  0
LINE
  5
2B68
330
324B
100
AcDbEntity
  8
0
 62
     0
100
AcDbLine
 10
-351.87769275314
 20
-1132.58430407167
 30
0.0
 11
422.2999999999991
 21
-616.4671601573627
 31
0.0
  0
LINE
  5
2B69
330
324B
100
AcDbEntity
  8
0
 62
     0
100
AcDbLine
 10
-356.3776540470244
 20
-1132.58430407167
 30
0.0
 11
422.2999999999956
 21
-613.4671936219474
 31
0.0
  0
LINE
  5
2B6A
330
324B
100
AcDbEntity
  8
0
 62
     0
100
AcDbLine
 10
-360.877615340909
 20
-1132.58430407167
 30
0.0
 11
422.2999999999956
 21
-610.4672270865322
 31
0.0
  0
LINE
  5
2B6B
330
324B
100
AcDbEntity
  8
0
 62
     0
100
AcDbLine
 10
-365.3775766347934
 20
-1132.584304071668
 30
0.0
 11
422.2999999999991
 21
-607.467260551115
 31
0.0
  0
LINE
  5
2B6C
330
324B
100
AcDbEntity
  8
0
 62
     0
100
AcDbLine
 10
-369.8775379286817
 20
-1132.584304071668
 30
0.0
 11
422.2999999999956
 21
-604.4672940156979
 31
0.0
  0
LINE
  5
2B6D
330
324B
100
AcDbEntity
  8
0
 62
     0
100
AcDbLine
 10
-374.3774992225663
 20
-1132.58430407167
 30
0.0
 11
422.2999999999956
 21
-601.4673274802825
 31
0.0
  0
LINE
  5
2B6E
330
324B
100
AcDbEntity
  8
0
 62
     0
100
AcDbLine
 10
-378.8774605164508
 20
-1132.584304071668
 30
0.0
 11
422.2999999999956
 21
-598.467360944867
 31
0.0
  0
LINE
  5
2B6F
330
324B
100
AcDbEntity
  8
0
 62
     0
100
AcDbLine
 10
-383.377421810339
 20
-1132.584304071672
 30
0.0
 11
422.2999999999991
 21
-595.46739440945
 31
0.0
  0
LINE
  5
2B70
330
324B
100
AcDbEntity
  8
0
 62
     0
100
AcDbLine
 10
-387.8773831042236
 20
-1132.584304071668
 30
0.0
 11
422.2999999999956
 21
-592.4674278740329
 31
0.0
  0
LINE
  5
2B71
330
324B
100
AcDbEntity
  8
0
 62
     0
100
AcDbLine
 10
-392.377344398108
 20
-1132.584304071668
 30
0.0
 11
422.2999999999956
 21
-589.4674613386178
 31
0.0
  0
LINE
  5
2B72
330
324B
100
AcDbEntity
  8
0
 62
     0
100
AcDbLine
 10
-396.8773056919927
 20
-1132.584304071668
 30
0.0
 11
422.2999999999956
 21
-586.4674948032025
 31
0.0
  0
LINE
  5
2B73
330
324B
100
AcDbEntity
  8
0
 62
     0
100
AcDbLine
 10
-401.3772669858845
 20
-1132.584304071672
 30
0.0
 11
422.2999999999956
 21
-583.4675282677872
 31
0.0
  0
LINE
  5
2B74
330
324B
100
AcDbEntity
  8
0
 62
     0
100
AcDbLine
 10
-405.8772282797654
 20
-1132.58430407167
 30
0.0
 11
422.2999999999956
 21
-580.467561732368
 31
0.0
  0
LINE
  5
2B75
330
324B
100
AcDbEntity
  8
0
 62
     0
100
AcDbLine
 10
-410.3771895736499
 20
-1132.584304071668
 30
0.0
 11
422.2999999999956
 21
-577.467595196953
 31
0.0
  0
LINE
  5
2B76
330
324B
100
AcDbEntity
  8
0
 62
     0
100
AcDbLine
 10
-414.8771508675345
 20
-1132.584304071668
 30
0.0
 11
422.2999999999991
 21
-574.4676286615376
 31
0.0
  0
LINE
  5
2B77
330
324B
100
AcDbEntity
  8
0
 62
     0
100
AcDbLine
 10
-419.3771121614263
 20
-1132.58430407167
 30
0.0
 11
422.2999999999956
 21
-571.4676621261187
 31
0.0
  0
LINE
  5
2B78
330
324B
100
AcDbEntity
  8
0
 62
     0
100
AcDbLine
 10
-422.2999999999956
 20
-1131.53292445286
 30
0.0
 11
422.2999999999956
 21
-568.4676955907052
 31
0.0
  0
LINE
  5
2B79
330
324B
100
AcDbEntity
  8
0
 62
     0
100
AcDbLine
 10
-422.2999999999919
 20
-1128.532957917441
 30
0.0
 11
422.2999999999956
 21
-565.4677290552881
 31
0.0
  0
LINE
  5
2B7A
330
324B
100
AcDbEntity
  8
0
 62
     0
100
AcDbLine
 10
-422.2999999999991
 20
-1125.532991382028
 30
0.0
 11
422.2999999999956
 21
-562.4677625198728
 31
0.0
  0
LINE
  5
2B7B
330
324B
100
AcDbEntity
  8
0
 62
     0
100
AcDbLine
 10
-422.2999999999956
 20
-1122.533024846608
 30
0.0
 11
422.2999999999956
 21
-559.4677959844557
 31
0.0
  0
LINE
  5
2B7C
330
324B
100
AcDbEntity
  8
0
 62
     0
100
AcDbLine
 10
-422.2999999999956
 20
-1119.533058311195
 30
0.0
 11
422.2999999999956
 21
-556.4678294490405
 31
0.0
  0
LINE
  5
2B7D
330
324B
100
AcDbEntity
  8
0
 62
     0
100
AcDbLine
 10
-422.2999999999991
 20
-1116.533091775776
 30
0.0
 11
422.2999999999956
 21
-553.4678629136233
 31
0.0
  0
LINE
  5
2B7E
330
324B
100
AcDbEntity
  8
0
 62
     0
100
AcDbLine
 10
-422.2999999999991
 20
-1113.533125240361
 30
0.0
 11
422.2999999999956
 21
-550.4678963782062
 31
0.0
  0
LINE
  5
2B7F
330
324B
100
AcDbEntity
  8
0
 62
     0
100
AcDbLine
 10
-422.2999999999956
 20
-1110.533158704946
 30
0.0
 11
422.2999999999956
 21
-547.4679298427909
 31
0.0
  0
LINE
  5
2B80
330
324B
100
AcDbEntity
  8
0
 62
     0
100
AcDbLine
 10
-422.2999999999919
 20
-1107.533192169529
 30
0.0
 11
422.2999999999956
 21
-544.4679633073774
 31
0.0
  0
LINE
  5
2B81
330
324B
100
AcDbEntity
  8
0
 62
     0
100
AcDbLine
 10
-422.2999999999991
 20
-1104.533225634113
 30
0.0
 11
422.2999999999956
 21
-541.4679967719584
 31
0.0
  0
LINE
  5
2B82
330
324B
100
AcDbEntity
  8
0
 62
     0
100
AcDbLine
 10
-422.2999999999991
 20
-1101.533259098698
 30
0.0
 11
422.2999999999991
 21
-538.4680302365413
 31
0.0
  0
LINE
  5
2B83
330
324B
100
AcDbEntity
  8
0
 62
     0
100
AcDbLine
 10
-422.2999999999956
 20
-1098.533292563281
 30
0.0
 11
422.2999999999956
 21
-535.4680637011257
 31
0.0
  0
LINE
  5
2B84
330
324B
100
AcDbEntity
  8
0
 62
     0
100
AcDbLine
 10
-422.2999999999956
 20
-1095.533326027864
 30
0.0
 11
422.2999999999919
 21
-532.4680971657108
 31
0.0
  0
LINE
  5
2B85
330
324B
100
AcDbEntity
  8
0
 62
     0
100
AcDbLine
 10
-422.2999999999991
 20
-1092.533359492448
 30
0.0
 11
422.2999999999956
 21
-529.4681306302954
 31
0.0
  0
LINE
  5
2B86
330
324B
100
AcDbEntity
  8
0
 62
     0
100
AcDbLine
 10
-422.2999999999956
 20
-1089.533392957031
 30
0.0
 11
422.2999999999991
 21
-526.4681640948765
 31
0.0
  0
LINE
  5
2B87
330
324B
100
AcDbEntity
  8
0
 62
     0
100
AcDbLine
 10
-422.2999999999956
 20
-1086.533426421616
 30
0.0
 11
422.2999999999956
 21
-523.468197559463
 31
0.0
  0
LINE
  5
2B88
330
324B
100
AcDbEntity
  8
0
 62
     0
100
AcDbLine
 10
-422.2999999999956
 20
-1083.533459886198
 30
0.0
 11
422.2999999999956
 21
-520.4682310240441
 31
0.0
  0
LINE
  5
2B89
330
324B
100
AcDbEntity
  8
0
 62
     0
100
AcDbLine
 10
-422.2999999999991
 20
-1080.533493350785
 30
0.0
 11
422.2999999999991
 21
-517.4682644886288
 31
0.0
  0
LINE
  5
2B8A
330
324B
100
AcDbEntity
  8
0
 62
     0
100
AcDbLine
 10
-422.2999999999956
 20
-1077.533526815366
 30
0.0
 11
422.2999999999991
 21
-514.4682979532136
 31
0.0
  0
LINE
  5
2B8B
330
324B
100
AcDbEntity
  8
0
 62
     0
100
AcDbLine
 10
-422.2999999999956
 20
-1074.533560279951
 30
0.0
 11
422.2999999999919
 21
-511.468331417798
 31
0.0
  0
LINE
  5
2B8C
330
324B
100
AcDbEntity
  8
0
 62
     0
100
AcDbLine
 10
-422.2999999999956
 20
-1071.533593744534
 30
0.0
 11
422.2999999999956
 21
-508.4683648823808
 31
0.0
  0
LINE
  5
2B8D
330
324B
100
AcDbEntity
  8
0
 62
     0
100
AcDbLine
 10
-422.2999999999991
 20
-1068.533627209121
 30
0.0
 11
422.2999999999991
 21
-505.468398346964
 31
0.0
  0
LINE
  5
2B8E
330
324B
100
AcDbEntity
  8
0
 62
     0
100
AcDbLine
 10
-422.2999999999991
 20
-1065.533660673704
 30
0.0
 11
422.2999999999956
 21
-502.4684318115488
 31
0.0
  0
LINE
  5
2B8F
330
324B
100
AcDbEntity
  8
0
 62
     0
100
AcDbLine
 10
-422.2999999999956
 20
-1062.533694138285
 30
0.0
 11
422.2999999999956
 21
-499.4684652761296
 31
0.0
  0
LINE
  5
2B90
330
324B
100
AcDbEntity
  8
0
 62
     0
100
AcDbLine
 10
-422.2999999999956
 20
-1059.533727602871
 30
0.0
 11
422.2999999999956
 21
-496.4684987407163
 31
0.0
  0
LINE
  5
2B91
330
324B
100
AcDbEntity
  8
0
 62
     0
100
AcDbLine
 10
-422.2999999999956
 20
-1056.533761067452
 30
0.0
 11
422.2999999999991
 21
-493.4685322052992
 31
0.0
  0
LINE
  5
2B92
330
324B
100
AcDbEntity
  8
0
 62
     0
100
AcDbLine
 10
-422.2999999999956
 20
-1053.533794532037
 30
0.0
 11
422.2999999999956
 21
-490.4685656698839
 31
0.0
  0
LINE
  5
2B93
330
324B
100
AcDbEntity
  8
0
 62
     0
100
AcDbLine
 10
-422.2999999999956
 20
-1050.533827996622
 30
0.0
 11
422.2999999999956
 21
-487.4685991344668
 31
0.0
  0
LINE
  5
2B94
330
324B
100
AcDbEntity
  8
0
 62
     0
100
AcDbLine
 10
-422.2999999999956
 20
-1047.533861461206
 30
0.0
 11
422.2999999999991
 21
-484.4686325990497
 31
0.0
  0
LINE
  5
2B95
330
324B
100
AcDbEntity
  8
0
 62
     0
100
AcDbLine
 10
-422.2999999999991
 20
-1044.533894925788
 30
0.0
 11
422.2999999999956
 21
-481.4686660636342
 31
0.0
  0
LINE
  5
2B96
330
324B
100
AcDbEntity
  8
0
 62
     0
100
AcDbLine
 10
-422.2999999999956
 20
-1041.533928390372
 30
0.0
 11
422.2999999999956
 21
-478.4686995282209
 31
0.0
  0
LINE
  5
2B97
330
324B
100
AcDbEntity
  8
0
 62
     0
100
AcDbLine
 10
-422.2999999999956
 20
-1038.533961854956
 30
0.0
 11
422.2999999999956
 21
-475.4687329928017
 31
0.0
  0
LINE
  5
2B98
330
324B
100
AcDbEntity
  8
0
 62
     0
100
AcDbLine
 10
-422.2999999999956
 20
-1035.533995319541
 30
0.0
 11
422.2999999999991
 21
-472.4687664573864
 31
0.0
  0
LINE
  5
2B99
330
324B
100
AcDbEntity
  8
0
 62
     0
100
AcDbLine
 10
-422.2999999999991
 20
-1032.534028784124
 30
0.0
 11
422.2999999999956
 21
-469.4687999219695
 31
0.0
  0
LINE
  5
2B9A
330
324B
100
AcDbEntity
  8
0
 62
     0
100
AcDbLine
 10
-422.2999999999956
 20
-1029.534062248709
 30
0.0
 11
422.2999999999956
 21
-466.4688333865542
 31
0.0
  0
LINE
  5
2B9B
330
324B
100
AcDbEntity
  8
0
 62
     0
100
AcDbLine
 10
-422.2999999999956
 20
-1026.534095713292
 30
0.0
 11
422.2999999999956
 21
-463.4688668511388
 31
0.0
  0
LINE
  5
2B9C
330
324B
100
AcDbEntity
  8
0
 62
     0
100
AcDbLine
 10
-422.2999999999991
 20
-1023.534129177875
 30
0.0
 11
422.2999999999956
 21
-460.4689003157199
 31
0.0
  0
LINE
  5
2B9D
330
324B
100
AcDbEntity
  8
0
 62
     0
100
AcDbLine
 10
-422.2999999999956
 20
-1020.534162642458
 30
0.0
 11
422.2999999999956
 21
-457.4689337803063
 31
0.0
  0
LINE
  5
2B9E
330
324B
100
AcDbEntity
  8
0
 62
     0
100
AcDbLine
 10
-422.2999999999956
 20
-1017.534196107042
 30
0.0
 11
422.2999999999956
 21
-454.4689672448876
 31
0.0
  0
LINE
  5
2B9F
330
324B
100
AcDbEntity
  8
0
 62
     0
100
AcDbLine
 10
-422.2999999999956
 20
-1014.534229571629
 30
0.0
 11
422.2999999999991
 21
-451.4690007094722
 31
0.0
  0
LINE
  5
2BA0
330
324B
100
AcDbEntity
  8
0
 62
     0
100
AcDbLine
 10
-422.2999999999991
 20
-1011.53426303621
 30
0.0
 11
422.2999999999956
 21
-448.4690341740568
 31
0.0
  0
LINE
  5
2BA1
330
324B
100
AcDbEntity
  8
0
 62
     0
100
AcDbLine
 10
-422.2999999999956
 20
-1008.534296500795
 30
0.0
 11
422.2999999999956
 21
-445.4690676386416
 31
0.0
  0
LINE
  5
2BA2
330
324B
100
AcDbEntity
  8
0
 62
     0
100
AcDbLine
 10
-422.2999999999956
 20
-1005.534329965379
 30
0.0
 11
422.2999999999956
 21
-442.4691011032246
 31
0.0
  0
LINE
  5
2BA3
330
324B
100
AcDbEntity
  8
0
 62
     0
100
AcDbLine
 10
-422.2999999999956
 20
-1002.534363429962
 30
0.0
 11
422.2999999999956
 21
-439.4691345678075
 31
0.0
  0
LINE
  5
2BA4
330
324B
100
AcDbEntity
  8
0
 62
     0
100
AcDbLine
 10
-422.2999999999991
 20
-999.5343968945467
 30
0.0
 11
422.2999999999956
 21
-436.4691680323922
 31
0.0
  0
LINE
  5
2BA5
330
324B
100
AcDbEntity
  8
0
 62
     0
100
AcDbLine
 10
-422.2999999999956
 20
-996.5344303591299
 30
0.0
 11
422.2999999999956
 21
-433.4692014969768
 31
0.0
  0
LINE
  5
2BA6
330
324B
100
AcDbEntity
  8
0
 62
     0
100
AcDbLine
 10
-422.2999999999956
 20
-993.5344638237143
 30
0.0
 11
422.2999999999991
 21
-430.4692349615577
 31
0.0
  0
LINE
  5
2BA7
330
324B
100
AcDbEntity
  8
0
 62
     0
100
AcDbLine
 10
-422.2999999999991
 20
-990.5344972882993
 30
0.0
 11
422.2999999999956
 21
-427.4692684261444
 31
0.0
  0
LINE
  5
2BA8
330
324B
100
AcDbEntity
  8
0
 62
     0
100
AcDbLine
 10
-422.2999999999956
 20
-987.5345307528803
 30
0.0
 11
422.2999999999956
 21
-424.4693018907271
 31
0.0
  0
LINE
  5
2BA9
330
324B
100
AcDbEntity
  8
0
 62
     0
100
AcDbLine
 10
-422.2999999999956
 20
-984.5345642174653
 30
0.0
 11
422.2999999999956
 21
-421.4693353553101
 31
0.0
  0
LINE
  5
2BAA
330
324B
100
AcDbEntity
  8
0
 62
     0
100
AcDbLine
 10
-422.2999999999991
 20
-981.5345976820495
 30
0.0
 11
422.2999999999956
 21
-418.4693688198947
 31
0.0
  0
LINE
  5
2BAB
330
324B
100
AcDbEntity
  8
0
 62
     0
100
AcDbLine
 10
-422.2999999999991
 20
-978.5346311466327
 30
0.0
 11
422.2999999999956
 21
-415.4694022844776
 31
0.0
  0
LINE
  5
2BAC
330
324B
100
AcDbEntity
  8
0
 62
     0
100
AcDbLine
 10
-422.2999999999956
 20
-975.5346646112158
 30
0.0
 11
422.2999999999991
 21
-412.4694357490623
 31
0.0
  0
LINE
  5
2BAD
330
324B
100
AcDbEntity
  8
0
 62
     0
100
AcDbLine
 10
-422.2999999999991
 20
-972.5346980758001
 30
0.0
 11
422.2999999999919
 21
-409.4694692136454
 31
0.0
  0
LINE
  5
2BAE
330
324B
100
AcDbEntity
  8
0
 62
     0
100
AcDbLine
 10
-422.2999999999956
 20
-969.534731540385
 30
0.0
 11
422.2999999999956
 21
-406.4695026782301
 31
0.0
  0
LINE
  5
2BAF
330
324B
100
AcDbEntity
  8
0
 62
     0
100
AcDbLine
 10
-422.2999999999991
 20
-966.534765004968
 30
0.0
 11
422.2999999999956
 21
-403.4695361428147
 31
0.0
  0
LINE
  5
2BB0
330
324B
100
AcDbEntity
  8
0
 62
     0
100
AcDbLine
 10
-422.2999999999956
 20
-963.5347984695524
 30
0.0
 11
422.2999999999991
 21
-400.4695696073977
 31
0.0
  0
LINE
  5
2BB1
330
324B
100
AcDbEntity
  8
0
 62
     0
100
AcDbLine
 10
-422.2999999999991
 20
-960.5348319341374
 30
0.0
 11
422.2999999999956
 21
-397.4696030719806
 31
0.0
  0
LINE
  5
2BB2
330
324B
100
AcDbEntity
  8
0
 62
     0
100
AcDbLine
 10
-422.2999999999956
 20
-957.5348653987203
 30
0.0
 11
422.2999999999956
 21
-394.4696365365653
 31
0.0
  0
LINE
  5
2BB3
330
324B
100
AcDbEntity
  8
0
 62
     0
100
AcDbLine
 10
-422.2999999999956
 20
-954.5348988633032
 30
0.0
 11
422.2999999999956
 21
-391.46967000115
 31
0.0
  0
LINE
  5
2BB4
330
324B
100
AcDbEntity
  8
0
 62
     0
100
AcDbLine
 10
-422.2999999999991
 20
-951.5349323278879
 30
0.0
 11
422.2999999999956
 21
-388.4697034657348
 31
0.0
  0
LINE
  5
2BB5
330
324B
100
AcDbEntity
  8
0
 62
     0
100
AcDbLine
 10
418.9591133252361
 20
-387.6969890261335
 30
0.0
 11
422.3000000000029
 21
-385.4697369303122
 31
0.0
  0
LINE
  5
2BB6
330
324B
100
AcDbEntity
  8
0
 62
     0
100
AcDbLine
 10
-422.2999999999991
 20
-948.5349657924723
 30
0.0
 11
418.9591133252288
 21
-387.6969890261371
 31
0.0
  0
LINE
  5
2BB7
330
324B
100
AcDbEntity
  8
0
 62
     0
100
AcDbLine
 10
414.4591520313479
 20
-387.6969890261335
 30
0.0
 11
422.3000000000029
 21
-382.4697703948968
 31
0.0
  0
LINE
  5
2BB8
330
324B
100
AcDbEntity
  8
0
 62
     0
100
AcDbLine
 10
-422.2999999999956
 20
-945.5349992570535
 30
0.0
 11
414.4591520313479
 21
-387.6969890261353
 31
0.0
  0
LINE
  5
2BB9
330
324B
100
AcDbEntity
  8
0
 62
     0
100
AcDbLine
 10
409.9591907374633
 20
-387.6969890261353
 30
0.0
 11
422.3000000000029
 21
-379.4698038594817
 31
0.0
  0
LINE
  5
2BBA
330
324B
100
AcDbEntity
  8
0
 62
     0
100
AcDbLine
 10
-422.2999999999956
 20
-942.5350327216383
 30
0.0
 11
409.9591907374596
 21
-387.6969890261371
 31
0.0
  0
LINE
  5
2BBB
330
324B
100
AcDbEntity
  8
0
 62
     0
100
AcDbLine
 10
405.4592294435749
 20
-387.6969890261335
 30
0.0
 11
422.2999999999991
 21
-376.4698373240644
 31
0.0
  0
LINE
  5
2BBC
330
324B
100
AcDbEntity
  8
0
 62
     0
100
AcDbLine
 10
-422.2999999999991
 20
-939.5350661862231
 30
0.0
 11
405.4592294435749
 21
-387.6969890261335
 31
0.0
  0
LINE
  5
2BBD
330
324B
100
AcDbEntity
  8
0
 62
     0
100
AcDbLine
 10
400.9592681496904
 20
-387.6969890261353
 30
0.0
 11
422.3000000000029
 21
-373.4698707886473
 31
0.0
  0
LINE
  5
2BBE
330
324B
100
AcDbEntity
  8
0
 62
     0
100
AcDbLine
 10
-422.2999999999956
 20
-936.5350996508061
 30
0.0
 11
400.9592681496904
 21
-387.6969890261353
 31
0.0
  0
LINE
  5
2BBF
330
324B
100
AcDbEntity
  8
0
 62
     0
100
AcDbLine
 10
396.4593068558061
 20
-387.6969890261335
 30
0.0
 11
422.3000000000029
 21
-370.469904253232
 31
0.0
  0
LINE
  5
2BC0
330
324B
100
AcDbEntity
  8
0
 62
     0
100
AcDbLine
 10
-422.2999999999956
 20
-933.5351331153887
 30
0.0
 11
396.4593068558061
 21
-387.6969890261353
 31
0.0
  0
LINE
  5
2BC1
330
324B
100
AcDbEntity
  8
0
 62
     0
100
AcDbLine
 10
391.9593455619179
 20
-387.6969890261353
 30
0.0
 11
422.2999999999991
 21
-367.4699377178185
 31
0.0
  0
LINE
  5
2BC2
330
324B
100
AcDbEntity
  8
0
 62
     0
100
AcDbLine
 10
-422.2999999999991
 20
-930.5351665799737
 30
0.0
 11
391.9593455619179
 21
-387.6969890261353
 31
0.0
  0
LINE
  5
2BC3
330
324B
100
AcDbEntity
  8
0
 62
     0
100
AcDbLine
 10
387.4593842680369
 20
-387.6969890261316
 30
0.0
 11
422.2999999999991
 21
-364.4699711823996
 31
0.0
  0
LINE
  5
2BC4
330
324B
100
AcDbEntity
  8
0
 62
     0
100
AcDbLine
 10
-422.2999999999991
 20
-927.5352000445582
 30
0.0
 11
387.4593842680332
 21
-387.6969890261353
 31
0.0
  0
LINE
  5
2BC5
330
324B
100
AcDbEntity
  8
0
 62
     0
100
AcDbLine
 10
382.9594229741524
 20
-387.6969890261335
 30
0.0
 11
422.3000000000029
 21
-361.4700046469843
 31
0.0
  0
LINE
  5
2BC6
330
324B
100
AcDbEntity
  8
0
 62
     0
100
AcDbLine
 10
-422.2999999999956
 20
-924.5352335091428
 30
0.0
 11
382.9594229741488
 21
-387.6969890261353
 31
0.0
  0
LINE
  5
2BC7
330
324B
100
AcDbEntity
  8
0
 62
     0
100
AcDbLine
 10
378.4594616802605
 20
-387.6969890261335
 30
0.0
 11
422.2999999999991
 21
-358.4700381115671
 31
0.0
  0
LINE
  5
2BC8
330
324B
100
AcDbEntity
  8
0
 62
     0
100
AcDbLine
 10
-422.2999999999991
 20
-921.535266973724
 30
0.0
 11
378.4594616802605
 21
-387.6969890261353
 31
0.0
  0
LINE
  5
2BC9
330
324B
100
AcDbEntity
  8
0
 62
     0
100
AcDbLine
 10
373.959500386376
 20
-387.6969890261353
 30
0.0
 11
422.2999999999991
 21
-355.4700715761519
 31
0.0
  0
LINE
  5
2BCA
330
324B
100
AcDbEntity
  8
0
 62
     0
100
AcDbLine
 10
-422.2999999999991
 20
-918.5353004383104
 30
0.0
 11
373.959500386376
 21
-387.6969890261353
 31
0.0
  0
LINE
  5
2BCB
330
324B
100
AcDbEntity
  8
0
 62
     0
100
AcDbLine
 10
369.4595390924915
 20
-387.6969890261353
 30
0.0
 11
422.3000000000029
 21
-352.470105040733
 31
0.0
  0
LINE
  5
2BCC
330
324B
100
AcDbEntity
  8
0
 62
     0
100
AcDbLine
 10
-422.2999999999991
 20
-915.5353339028934
 30
0.0
 11
369.4595390924915
 21
-387.6969890261353
 31
0.0
  0
LINE
  5
2BCD
330
324B
100
AcDbEntity
  8
0
 62
     0
100
AcDbLine
 10
364.9595777986105
 20
-387.6969890261353
 30
0.0
 11
422.3000000000029
 21
-349.4701385053196
 31
0.0
  0
LINE
  5
2BCE
330
324B
100
AcDbEntity
  8
0
 62
     0
100
AcDbLine
 10
-422.2999999999956
 20
-912.5353673674782
 30
0.0
 11
364.9595777986069
 21
-387.6969890261371
 31
0.0
  0
LINE
  5
2BCF
330
324B
100
AcDbEntity
  8
0
 62
     0
100
AcDbLine
 10
360.4596165047188
 20
-387.6969890261353
 30
0.0
 11
422.2999999999991
 21
-346.4701719699042
 31
0.0
  0
LINE
  5
2BD0
330
324B
100
AcDbEntity
  8
0
 62
     0
100
AcDbLine
 10
-422.2999999999991
 20
-909.535400832061
 30
0.0
 11
360.4596165047188
 21
-387.6969890261353
 31
0.0
  0
LINE
  5
2BD1
330
324B
100
AcDbEntity
  8
0
 62
     0
100
AcDbLine
 10
355.9596552108343
 20
-387.6969890261335
 30
0.0
 11
422.2999999999991
 21
-343.4702054344853
 31
0.0
  0
LINE
  5
2BD2
330
324B
100
AcDbEntity
  8
0
 62
     0
100
AcDbLine
 10
-422.2999999999991
 20
-906.5354342966434
 30
0.0
 11
355.9596552108343
 21
-387.6969890261335
 31
0.0
  0
LINE
  5
2BD3
330
324B
100
AcDbEntity
  8
0
 62
     0
100
AcDbLine
 10
351.4596939169532
 20
-387.6969890261335
 30
0.0
 11
422.3000000000029
 21
-340.4702388990699
 31
0.0
  0
LINE
  5
2BD4
330
324B
100
AcDbEntity
  8
0
 62
     0
100
AcDbLine
 10
-422.2999999999956
 20
-903.5354677612284
 30
0.0
 11
351.4596939169532
 21
-387.6969890261335
 31
0.0
  0
LINE
  5
2BD5
330
324B
100
AcDbEntity
  8
0
 62
     0
100
AcDbLine
 10
346.9597326230614
 20
-387.6969890261353
 30
0.0
 11
422.2999999999991
 21
-337.4702723636529
 31
0.0
  0
LINE
  5
2BD6
330
324B
100
AcDbEntity
  8
0
 62
     0
100
AcDbLine
 10
-422.2999999999956
 20
-900.5355012258096
 30
0.0
 11
346.9597326230614
 21
-387.6969890261353
 31
0.0
  0
LINE
  5
2BD7
330
324B
100
AcDbEntity
  8
0
 62
     0
100
AcDbLine
 10
342.4597713291805
 20
-387.6969890261353
 30
0.0
 11
422.2999999999991
 21
-334.4703058282375
 31
0.0
  0
LINE
  5
2BD8
330
324B
100
AcDbEntity
  8
0
 62
     0
100
AcDbLine
 10
-422.2999999999991
 20
-897.535534690396
 30
0.0
 11
342.4597713291805
 21
-387.6969890261353
 31
0.0
  0
LINE
  5
2BD9
330
324B
100
AcDbEntity
  8
0
 62
     0
100
AcDbLine
 10
337.9598100352923
 20
-387.6969890261335
 30
0.0
 11
422.2999999999991
 21
-331.4703392928223
 31
0.0
  0
LINE
  5
2BDA
330
324B
100
AcDbEntity
  8
0
 62
     0
100
AcDbLine
 10
-422.2999999999991
 20
-894.5355681549806
 30
0.0
 11
337.9598100352923
 21
-387.6969890261335
 31
0.0
  0
LINE
  5
2BDB
330
324B
100
AcDbEntity
  8
0
 62
     0
100
AcDbLine
 10
333.4598487414114
 20
-387.6969890261335
 30
0.0
 11
422.3000000000029
 21
-328.4703727574051
 31
0.0
  0
LINE
  5
2BDC
330
324B
100
AcDbEntity
  8
0
 62
     0
100
AcDbLine
 10
-422.2999999999956
 20
-891.5356016195634
 30
0.0
 11
333.4598487414078
 21
-387.6969890261353
 31
0.0
  0
LINE
  5
2BDD
330
324B
100
AcDbEntity
  8
0
 62
     0
100
AcDbLine
 10
328.9598874475232
 20
-387.6969890261335
 30
0.0
 11
422.3000000000029
 21
-325.470406221988
 31
0.0
  0
LINE
  5
2BDE
330
324B
100
AcDbEntity
  8
0
 62
     0
100
AcDbLine
 10
-422.2999999999956
 20
-888.5356350841465
 30
0.0
 11
328.9598874475196
 21
-387.6969890261353
 31
0.0
  0
LINE
  5
2BDF
330
324B
100
AcDbEntity
  8
0
 62
     0
100
AcDbLine
 10
324.4599261536388
 20
-387.6969890261353
 30
0.0
 11
422.2999999999991
 21
-322.4704396865728
 31
0.0
  0
LINE
  5
2BE0
330
324B
100
AcDbEntity
  8
0
 62
     0
100
AcDbLine
 10
-422.2999999999991
 20
-885.5356685487313
 30
0.0
 11
324.4599261536388
 21
-387.6969890261353
 31
0.0
  0
LINE
  5
2BE1
330
324B
100
AcDbEntity
  8
0
 62
     0
100
AcDbLine
 10
319.9599648597506
 20
-387.6969890261353
 30
0.0
 11
422.3000000000029
 21
-319.4704731511556
 31
0.0
  0
LINE
  5
2BE2
330
324B
100
AcDbEntity
  8
0
 62
     0
100
AcDbLine
 10
-422.2999999999956
 20
-882.5357020133141
 30
0.0
 11
319.9599648597506
 21
-387.6969890261353
 31
0.0
  0
LINE
  5
2BE3
330
324B
100
AcDbEntity
  8
0
 62
     0
100
AcDbLine
 10
315.4600035658659
 20
-387.6969890261335
 30
0.0
 11
422.2999999999991
 21
-316.470506615742
 31
0.0
  0
LINE
  5
2BE4
330
324B
100
AcDbEntity
  8
0
 62
     0
100
AcDbLine
 10
-422.2999999999991
 20
-879.5357354779007
 30
0.0
 11
315.4600035658622
 21
-387.6969890261353
 31
0.0
  0
LINE
  5
2BE5
330
324B
100
AcDbEntity
  8
0
 62
     0
100
AcDbLine
 10
310.9600422719814
 20
-387.6969890261335
 30
0.0
 11
422.3000000000029
 21
-313.4705400803232
 31
0.0
  0
LINE
  5
2BE6
330
324B
100
AcDbEntity
  8
0
 62
     0
100
AcDbLine
 10
-422.2999999999991
 20
-876.5357689424817
 30
0.0
 11
310.9600422719814
 21
-387.6969890261335
 31
0.0
  0
LINE
  5
2BE7
330
324B
100
AcDbEntity
  8
0
 62
     0
100
AcDbLine
 10
306.4600809780968
 20
-387.6969890261353
 30
0.0
 11
422.2999999999991
 21
-310.4705735449097
 31
0.0
  0
LINE
  5
2BE8
330
324B
100
AcDbEntity
  8
0
 62
     0
100
AcDbLine
 10
-422.2999999999991
 20
-873.5358024070682
 30
0.0
 11
306.4600809780968
 21
-387.6969890261353
 31
0.0
  0
LINE
  5
2BE9
330
324B
100
AcDbEntity
  8
0
 62
     0
100
AcDbLine
 10
301.9601196842049
 20
-387.6969890261353
 30
0.0
 11
422.2999999999991
 21
-307.4706070094908
 31
0.0
  0
LINE
  5
2BEA
330
324B
100
AcDbEntity
  8
0
 62
     0
100
AcDbLine
 10
-422.2999999999991
 20
-870.5358358716493
 30
0.0
 11
301.9601196842049
 21
-387.6969890261353
 31
0.0
  0
LINE
  5
2BEB
330
324B
100
AcDbEntity
  8
0
 62
     0
100
AcDbLine
 10
297.4601583903241
 20
-387.6969890261335
 30
0.0
 11
422.2999999999991
 21
-304.4706404740755
 31
0.0
  0
LINE
  5
2BEC
330
324B
100
AcDbEntity
  8
0
 62
     0
100
AcDbLine
 10
-422.2999999999956
 20
-867.5358693362323
 30
0.0
 11
297.4601583903204
 21
-387.6969890261353
 31
0.0
  0
LINE
  5
2BED
330
324B
100
AcDbEntity
  8
0
 62
     0
100
AcDbLine
 10
292.9601970964395
 20
-387.6969890261335
 30
0.0
 11
422.3000000000029
 21
-301.4706739386602
 31
0.0
  0
LINE
  5
2BEE
330
324B
100
AcDbEntity
  8
0
 62
     0
100
AcDbLine
 10
-422.2999999999991
 20
-864.5359028008188
 30
0.0
 11
292.9601970964395
 21
-387.6969890261335
 31
0.0
  0
LINE
  5
2BEF
330
324B
100
AcDbEntity
  8
0
 62
     0
100
AcDbLine
 10
288.460235802555
 20
-387.6969890261335
 30
0.0
 11
422.3000000000029
 21
-298.4707074032412
 31
0.0
  0
LINE
  5
2BF0
330
324B
100
AcDbEntity
  8
0
 62
     0
100
AcDbLine
 10
-422.2999999999991
 20
-861.5359362654015
 30
0.0
 11
288.460235802555
 21
-387.6969890261335
 31
0.0
  0
LINE
  5
2BF1
330
324B
100
AcDbEntity
  8
0
 62
     0
100
AcDbLine
 10
283.9602745086668
 20
-387.6969890261335
 30
0.0
 11
422.2999999999991
 21
-295.4707408678278
 31
0.0
  0
LINE
  5
2BF2
330
324B
100
AcDbEntity
  8
0
 62
     0
100
AcDbLine
 10
-422.2999999999991
 20
-858.5359697299864
 30
0.0
 11
283.9602745086631
 21
-387.6969890261353
 31
0.0
  0
LINE
  5
2BF3
330
324B
100
AcDbEntity
  8
0
 62
     0
100
AcDbLine
 10
279.4603132147823
 20
-387.6969890261335
 30
0.0
 11
422.3000000000029
 21
-292.4707743324088
 31
0.0
  0
LINE
  5
2BF4
330
324B
100
AcDbEntity
  8
0
 62
     0
100
AcDbLine
 10
-422.2999999999956
 20
-855.5360031945674
 30
0.0
 11
279.4603132147786
 21
-387.6969890261353
 31
0.0
  0
LINE
  5
2BF5
330
324B
100
AcDbEntity
  8
0
 62
     0
100
AcDbLine
 10
274.9603519209013
 20
-387.6969890261316
 30
0.0
 11
422.3000000000029
 21
-289.4708077969954
 31
0.0
  0
LINE
  5
2BF6
330
324B
100
AcDbEntity
  8
0
 62
     0
100
AcDbLine
 10
-422.2999999999991
 20
-852.5360366591538
 30
0.0
 11
274.9603519208977
 21
-387.6969890261353
 31
0.0
  0
LINE
  5
2BF7
330
324B
100
AcDbEntity
  8
0
 62
     0
100
AcDbLine
 10
270.4603906270095
 20
-387.6969890261335
 30
0.0
 11
422.2999999999991
 21
-286.4708412615783
 31
0.0
  0
LINE
  5
2BF8
330
324B
100
AcDbEntity
  8
0
 62
     0
100
AcDbLine
 10
-422.2999999999991
 20
-849.536070123735
 30
0.0
 11
270.4603906270058
 21
-387.6969890261371
 31
0.0
  0
LINE
  5
2BF9
330
324B
100
AcDbEntity
  8
0
 62
     0
100
AcDbLine
 10
265.9604293331248
 20
-387.6969890261335
 30
0.0
 11
422.2999999999991
 21
-283.4708747261629
 31
0.0
  0
LINE
  5
2BFA
330
324B
100
AcDbEntity
  8
0
 62
     0
100
AcDbLine
 10
-422.2999999999956
 20
-846.5361035883194
 30
0.0
 11
265.9604293331213
 21
-387.6969890261353
 31
0.0
  0
LINE
  5
2BFB
330
324B
100
AcDbEntity
  8
0
 62
     0
100
AcDbLine
 10
261.4604680392404
 20
-387.6969890261335
 30
0.0
 11
422.3000000000029
 21
-280.4709081907459
 31
0.0
  0
LINE
  5
2BFC
330
324B
100
AcDbEntity
  8
0
 62
     0
100
AcDbLine
 10
-422.2999999999956
 20
-843.5361370529044
 30
0.0
 11
261.4604680392367
 21
-387.6969890261353
 31
0.0
  0
LINE
  5
2BFD
330
324B
100
AcDbEntity
  8
0
 62
     0
100
AcDbLine
 10
256.9605067453594
 20
-387.6969890261335
 30
0.0
 11
422.3000000000029
 21
-277.4709416553287
 31
0.0
  0
LINE
  5
2BFE
330
324B
100
AcDbEntity
  8
0
 62
     0
100
AcDbLine
 10
-422.2999999999991
 20
-840.5361705174891
 30
0.0
 11
256.9605067453558
 21
-387.6969890261353
 31
0.0
  0
LINE
  5
2BFF
330
324B
100
AcDbEntity
  8
0
 62
     0
100
AcDbLine
 10
252.4605454514676
 20
-387.6969890261353
 30
0.0
 11
422.2999999999991
 21
-274.4709751199134
 31
0.0
  0
LINE
  5
2C00
330
324B
100
AcDbEntity
  8
0
 62
     0
100
AcDbLine
 10
-422.2999999999991
 20
-837.536203982072
 30
0.0
 11
252.4605454514676
 21
-387.6969890261353
 31
0.0
  0
LINE
  5
2C01
330
324B
100
AcDbEntity
  8
0
 62
     0
100
AcDbLine
 10
247.9605841575831
 20
-387.6969890261335
 30
0.0
 11
422.3000000000029
 21
-271.4710085844963
 31
0.0
  0
LINE
  5
2C02
330
324B
100
AcDbEntity
  8
0
 62
     0
100
AcDbLine
 10
-422.2999999999956
 20
-834.5362374466548
 30
0.0
 11
247.9605841575794
 21
-387.6969890261353
 31
0.0
  0
LINE
  5
2C03
330
324B
100
AcDbEntity
  8
0
 62
     0
100
AcDbLine
 10
243.4606228636984
 20
-387.6969890261335
 30
0.0
 11
422.3000000000029
 21
-268.471042049081
 31
0.0
  0
LINE
  5
2C04
330
324B
100
AcDbEntity
  8
0
 62
     0
100
AcDbLine
 10
-422.2999999999956
 20
-831.5362709112395
 30
0.0
 11
243.4606228636984
 21
-387.6969890261335
 31
0.0
  0
LINE
  5
2C05
330
324B
100
AcDbEntity
  8
0
 62
     0
100
AcDbLine
 10
238.960661569814
 20
-387.6969890261316
 30
0.0
 11
422.2999999999991
 21
-265.4710755136639
 31
0.0
  0
LINE
  5
2C06
330
324B
100
AcDbEntity
  8
0
 62
     0
100
AcDbLine
 10
-422.3000000000029
 20
-828.5363043758245
 30
0.0
 11
238.9606615698067
 21
-387.6969890261353
 31
0.0
  0
LINE
  5
2C07
330
324B
100
AcDbEntity
  8
0
 62
     0
100
AcDbLine
 10
234.4607002759258
 20
-387.6969890261335
 30
0.0
 11
422.2999999999991
 21
-262.4711089782485
 31
0.0
  0
LINE
  5
2C08
330
324B
100
AcDbEntity
  8
0
 62
     0
100
AcDbLine
 10
-422.2999999999991
 20
-825.5363378404071
 30
0.0
 11
234.4607002759258
 21
-387.6969890261353
 31
0.0
  0
LINE
  5
2C09
330
324B
100
AcDbEntity
  8
0
 62
     0
100
AcDbLine
 10
229.9607389820412
 20
-387.6969890261335
 30
0.0
 11
422.3000000000029
 21
-259.4711424428315
 31
0.0
  0
LINE
  5
2C0A
330
324B
100
AcDbEntity
  8
0
 62
     0
100
AcDbLine
 10
-422.2999999999956
 20
-822.5363713049901
 30
0.0
 11
229.9607389820376
 21
-387.6969890261353
 31
0.0
  0
LINE
  5
2C0B
330
324B
100
AcDbEntity
  8
0
 62
     0
100
AcDbLine
 10
225.4607776881567
 20
-387.6969890261316
 30
0.0
 11
422.2999999999991
 21
-256.471175907418
 31
0.0
  0
LINE
  5
2C0C
330
324B
100
AcDbEntity
  8
0
 62
     0
100
AcDbLine
 10
-422.2999999999991
 20
-819.5364047695747
 30
0.0
 11
225.460777688153
 21
-387.6969890261335
 31
0.0
  0
LINE
  5
2C0D
330
324B
100
AcDbEntity
  8
0
 62
     0
100
AcDbLine
 10
220.9608163942721
 20
-387.6969890261316
 30
0.0
 11
422.2999999999991
 21
-253.4712093719991
 31
0.0
  0
LINE
  5
2C0E
330
324B
100
AcDbEntity
  8
0
 62
     0
100
AcDbLine
 10
-422.2999999999991
 20
-816.5364382341577
 30
0.0
 11
220.9608163942649
 21
-387.6969890261353
 31
0.0
  0
LINE
  5
2C0F
330
324B
100
AcDbEntity
  8
0
 62
     0
100
AcDbLine
 10
216.4608551003839
 20
-387.6969890261335
 30
0.0
 11
422.2999999999991
 21
-250.4712428365856
 31
0.0
  0
LINE
  5
2C10
330
324B
100
AcDbEntity
  8
0
 62
     0
100
AcDbLine
 10
-422.2999999999956
 20
-813.5364716987423
 30
0.0
 11
216.4608551003839
 21
-387.6969890261353
 31
0.0
  0
LINE
  5
2C11
330
324B
100
AcDbEntity
  8
0
 62
     0
100
AcDbLine
 10
211.9608938064994
 20
-387.6969890261335
 30
0.0
 11
422.3000000000029
 21
-247.4712763011666
 31
0.0
  0
LINE
  5
2C12
330
324B
100
AcDbEntity
  8
0
 62
     0
100
AcDbLine
 10
-422.2999999999956
 20
-810.5365051633251
 30
0.0
 11
211.9608938064957
 21
-387.6969890261353
 31
0.0
  0
LINE
  5
2C13
330
324B
100
AcDbEntity
  8
0
 62
     0
100
AcDbLine
 10
207.4609325126148
 20
-387.6969890261335
 30
0.0
 11
422.3000000000029
 21
-244.4713097657514
 31
0.0
  0
LINE
  5
2C14
330
324B
100
AcDbEntity
  8
0
 62
     0
100
AcDbLine
 10
-422.2999999999991
 20
-807.5365386279115
 30
0.0
 11
207.4609325126075
 21
-387.6969890261371
 31
0.0
  0
LINE
  5
2C15
330
324B
100
AcDbEntity
  8
0
 62
     0
100
AcDbLine
 10
206.5
 20
-385.3376425299484
 30
0.0
 11
422.2999999999991
 21
-241.471343230336
 31
0.0
  0
LINE
  5
2C16
330
324B
100
AcDbEntity
  8
0
 62
     0
100
AcDbLine
 10
-422.2999999999991
 20
-804.5365720924927
 30
0.0
 11
206.4999999999963
 21
-385.3376425299521
 31
0.0
  0
LINE
  5
2C17
330
324B
100
AcDbEntity
  8
0
 62
     0
100
AcDbLine
 10
206.5
 20
-382.3376759945349
 30
0.0
 11
422.3000000000029
 21
-238.471376694919
 31
0.0
  0
LINE
  5
2C18
330
324B
100
AcDbEntity
  8
0
 62
     0
100
AcDbLine
 10
-422.2999999999956
 20
-801.5366055570774
 30
0.0
 11
206.4999999999963
 21
-382.3376759945368
 31
0.0
  0
LINE
  5
2C19
330
324B
100
AcDbEntity
  8
0
 62
     0
100
AcDbLine
 10
206.5
 20
-379.337709459116
 30
0.0
 11
422.2999999999991
 21
-235.4714101595036
 31
0.0
  0
LINE
  5
2C1A
330
324B
100
AcDbEntity
  8
0
 62
     0
100
AcDbLine
 10
-422.2999999999991
 20
-798.5366390216621
 30
0.0
 11
206.4999999999963
 21
-379.3377094591197
 31
0.0
  0
LINE
  5
2C1B
330
324B
100
AcDbEntity
  8
0
 62
     0
100
AcDbLine
 10
206.5
 20
-376.3377429237025
 30
0.0
 11
422.3000000000029
 21
-232.4714436240865
 31
0.0
  0
LINE
  5
2C1C
330
324B
100
AcDbEntity
  8
0
 62
     0
100
AcDbLine
 10
-422.2999999999991
 20
-795.5366724862451
 30
0.0
 11
206.4999999999963
 21
-376.3377429237043
 31
0.0
  0
LINE
  5
2C1D
330
324B
100
AcDbEntity
  8
0
 62
     0
100
AcDbLine
 10
206.5
 20
-373.3377763882854
 30
0.0
 11
422.2999999999991
 21
-229.4714770886713
 31
0.0
  0
LINE
  5
2C1E
330
324B
100
AcDbEntity
  8
0
 62
     0
100
AcDbLine
 10
-422.2999999999991
 20
-792.5367059508297
 30
0.0
 11
206.4999999999963
 21
-373.3377763882872
 31
0.0
  0
LINE
  5
2C1F
330
324B
100
AcDbEntity
  8
0
 62
     0
100
AcDbLine
 10
206.5
 20
-370.3378098528684
 30
0.0
 11
422.3000000000029
 21
-226.4715105532523
 31
0.0
  0
LINE
  5
2C20
330
324B
100
AcDbEntity
  8
0
 62
     0
100
AcDbLine
 10
-422.2999999999956
 20
-789.5367394154109
 30
0.0
 11
206.4999999999963
 21
-370.33780985287
 31
0.0
  0
LINE
  5
2C21
330
324B
100
AcDbEntity
  8
0
 62
     0
100
AcDbLine
 10
206.5
 20
-367.337843317453
 30
0.0
 11
422.3000000000029
 21
-223.471544017837
 31
0.0
  0
LINE
  5
2C22
330
324B
100
AcDbEntity
  8
0
 62
     0
100
AcDbLine
 10
-422.2999999999991
 20
-786.5367728799975
 30
0.0
 11
206.4999999999963
 21
-367.3378433174548
 31
0.0
  0
LINE
  5
2C23
330
324B
100
AcDbEntity
  8
0
 62
     0
100
AcDbLine
 10
206.5
 20
-364.3378767820341
 30
0.0
 11
422.2999999999991
 21
-220.4715774824217
 31
0.0
  0
LINE
  5
2C24
330
324B
100
AcDbEntity
  8
0
 62
     0
100
AcDbLine
 10
-422.2999999999991
 20
-783.5368063445803
 30
0.0
 11
206.4999999999963
 21
-364.3378767820394
 31
0.0
  0
LINE
  5
2C25
330
324B
100
AcDbEntity
  8
0
 62
     0
100
AcDbLine
 10
206.5
 20
-361.3379102466205
 30
0.0
 11
422.3000000000029
 21
-217.4716109470046
 31
0.0
  0
LINE
  5
2C26
330
324B
100
AcDbEntity
  8
0
 62
     0
100
AcDbLine
 10
-422.2999999999956
 20
-780.5368398091632
 30
0.0
 11
206.4999999999963
 21
-361.3379102466224
 31
0.0
  0
LINE
  5
2C27
330
324B
100
AcDbEntity
  8
0
 62
     0
100
AcDbLine
 10
206.5
 20
-358.3379437112035
 30
0.0
 11
422.2999999999991
 21
-214.4716444115893
 31
0.0
  0
LINE
  5
2C28
330
324B
100
AcDbEntity
  8
0
 62
     0
100
AcDbLine
 10
-422.2999999999991
 20
-777.5368732737476
 30
0.0
 11
206.4999999999963
 21
-358.3379437112053
 31
0.0
  0
LINE
  5
2C29
330
324B
100
AcDbEntity
  8
0
 62
     0
100
AcDbLine
 10
206.5000000000036
 20
-355.3379771757864
 30
0.0
 11
422.3000000000029
 21
-211.4716778761722
 31
0.0
  0
LINE
  5
2C2A
330
324B
100
AcDbEntity
  8
0
 62
     0
100
AcDbLine
 10
-422.2999999999991
 20
-774.5369067383326
 30
0.0
 11
206.4999999999963
 21
-355.33797717579
 31
0.0
  0
LINE
  5
2C2B
330
324B
100
AcDbEntity
  8
0
 62
     0
100
AcDbLine
 10
206.5
 20
-352.3380106403711
 30
0.0
 11
422.2999999999991
 21
-208.4717113407569
 31
0.0
  0
LINE
  5
2C2C
330
324B
100
AcDbEntity
  8
0
 62
     0
100
AcDbLine
 10
-422.2999999999991
 20
-771.5369402029154
 30
0.0
 11
206.4999999999963
 21
-352.3380106403747
 31
0.0
  0
LINE
  5
2C2D
330
324B
100
AcDbEntity
  8
0
 62
     0
100
AcDbLine
 10
206.5
 20
-349.3380441049558
 30
0.0
 11
422.3000000000029
 21
-205.4717448053416
 31
0.0
  0
LINE
  5
2C2E
330
324B
100
AcDbEntity
  8
0
 62
     0
100
AcDbLine
 10
-422.2999999999956
 20
-768.5369736675002
 30
0.0
 11
206.4999999999963
 21
-349.3380441049594
 31
0.0
  0
LINE
  5
2C2F
330
324B
100
AcDbEntity
  8
0
 62
     0
100
AcDbLine
 10
206.5
 20
-346.3380775695386
 30
0.0
 11
422.2999999999991
 21
-202.4717782699245
 31
0.0
  0
LINE
  5
2C30
330
324B
100
AcDbEntity
  8
0
 62
     0
100
AcDbLine
 10
-422.2999999999991
 20
-765.5370071320834
 30
0.0
 11
206.4999999999963
 21
-346.3380775695405
 31
0.0
  0
LINE
  5
2C31
330
324B
100
AcDbEntity
  8
0
 62
     0
100
AcDbLine
 10
206.5000000000036
 20
-343.3381110341234
 30
0.0
 11
422.3000000000029
 21
-199.4718117345092
 31
0.0
  0
LINE
  5
2C32
330
324B
100
AcDbEntity
  8
0
 62
     0
100
AcDbLine
 10
-422.2999999999956
 20
-762.5370405966679
 30
0.0
 11
206.4999999999963
 21
-343.338111034127
 31
0.0
  0
LINE
  5
2C33
330
324B
100
AcDbEntity
  8
0
 62
     0
100
AcDbLine
 10
206.5
 20
-340.3381444987062
 30
0.0
 11
422.2999999999991
 21
-196.471845199092
 31
0.0
  0
LINE
  5
2C34
330
324B
100
AcDbEntity
  8
0
 62
     0
100
AcDbLine
 10
-422.2999999999991
 20
-759.5370740612503
 30
0.0
 11
206.5
 21
-340.338144498708
 31
0.0
  0
LINE
  5
2C35
330
324B
100
AcDbEntity
  8
0
 62
     0
100
AcDbLine
 10
206.5
 20
-337.3381779632909
 30
0.0
 11
421.6623328280148
 21
-193.8969890261342
 31
0.0
  0
LINE
  5
2C36
330
324B
100
AcDbEntity
  8
0
 62
     0
100
AcDbLine
 10
-422.2999999999991
 20
-756.5371075258355
 30
0.0
 11
206.4999999999963
 21
-337.3381779632928
 31
0.0
  0
LINE
  5
2C37
330
324B
100
AcDbEntity
  8
0
 62
     0
100
AcDbLine
 10
206.5
 20
-334.3382114278738
 30
0.0
 11
417.1623715341338
 21
-193.8969890261324
 31
0.0
  0
LINE
  5
2C38
330
324B
100
AcDbEntity
  8
0
 62
     0
100
AcDbLine
 10
-422.2999999999991
 20
-753.5371409904199
 30
0.0
 11
206.4999999999963
 21
-334.3382114278775
 31
0.0
  0
LINE
  5
2C39
330
324B
100
AcDbEntity
  8
0
 62
     0
100
AcDbLine
 10
206.5000000000036
 20
-331.3382448924567
 30
0.0
 11
412.6624102402493
 21
-193.8969890261305
 31
0.0
  0
LINE
  5
2C3A
330
324B
100
AcDbEntity
  8
0
 62
     0
100
AcDbLine
 10
-422.2999999999991
 20
-750.537174455001
 30
0.0
 11
206.4999999999963
 21
-331.3382448924603
 31
0.0
  0
LINE
  5
2C3B
330
324B
100
AcDbEntity
  8
0
 62
     0
100
AcDbLine
 10
206.5
 20
-328.3382783570433
 30
0.0
 11
408.1624489463611
 21
-193.8969890261324
 31
0.0
  0
LINE
  5
2C3C
330
324B
100
AcDbEntity
  8
0
 62
     0
100
AcDbLine
 10
-422.2999999999956
 20
-747.5372079195857
 30
0.0
 11
206.5
 21
-328.3382783570451
 31
0.0
  0
LINE
  5
2C3D
330
324B
100
AcDbEntity
  8
0
 62
     0
100
AcDbLine
 10
206.5
 20
-325.3383118216243
 30
0.0
 11
403.6624876524729
 21
-193.8969890261324
 31
0.0
  0
LINE
  5
2C3E
330
324B
100
AcDbEntity
  8
0
 62
     0
100
AcDbLine
 10
-422.2999999999991
 20
-744.5372413841687
 30
0.0
 11
206.4999999999963
 21
-325.3383118216261
 31
0.0
  0
LINE
  5
2C3F
330
324B
100
AcDbEntity
  8
0
 62
     0
100
AcDbLine
 10
206.5
 20
-322.3383452862108
 30
0.0
 11
399.1625263585884
 21
-193.8969890261342
 31
0.0
  0
LINE
  5
2C40
330
324B
100
AcDbEntity
  8
0
 62
     0
100
AcDbLine
 10
-422.2999999999991
 20
-741.537274848755
 30
0.0
 11
206.4999999999963
 21
-322.3383452862127
 31
0.0
  0
LINE
  5
2C41
330
324B
100
AcDbEntity
  8
0
 62
     0
100
AcDbLine
 10
206.5
 20
-319.3383787507919
 30
0.0
 11
394.6625650647074
 21
-193.8969890261324
 31
0.0
  0
LINE
  5
2C42
330
324B
100
AcDbEntity
  8
0
 62
     0
100
AcDbLine
 10
-422.2999999999991
 20
-738.5373083133381
 30
0.0
 11
206.5
 21
-319.3383787507937
 31
0.0
  0
LINE
  5
2C43
330
324B
100
AcDbEntity
  8
0
 62
     0
100
AcDbLine
 10
206.4999999999963
 20
-316.3384122153784
 30
0.0
 11
390.1626037708157
 21
-193.896989026136
 31
0.0
  0
LINE
  5
2C44
330
324B
100
AcDbEntity
  8
0
 62
     0
100
AcDbLine
 10
-422.2999999999991
 20
-735.537341777921
 30
0.0
 11
206.4999999999927
 21
-316.3384122153802
 31
0.0
  0
LINE
  5
2C45
330
324B
100
AcDbEntity
  8
0
 62
     0
100
AcDbLine
 10
206.5
 20
-313.3384456799613
 30
0.0
 11
385.6626424769311
 21
-193.8969890261324
 31
0.0
  0
LINE
  5
2C46
330
324B
100
AcDbEntity
  8
0
 62
     0
100
AcDbLine
 10
-422.2999999999991
 20
-732.5373752425058
 30
0.0
 11
206.4999999999963
 21
-313.3384456799631
 31
0.0
  0
LINE
  5
2C47
330
324B
100
AcDbEntity
  8
0
 62
     0
100
AcDbLine
 10
206.5000000000036
 20
-310.3384791445442
 30
0.0
 11
381.1626811830501
 21
-193.8969890261324
 31
0.0
  0
LINE
  5
2C48
330
324B
100
AcDbEntity
  8
0
 62
     0
100
AcDbLine
 10
-422.2999999999956
 20
-729.5374087070886
 30
0.0
 11
206.4999999999963
 21
-310.3384791445478
 31
0.0
  0
LINE
  5
2C49
330
324B
100
AcDbEntity
  8
0
 62
     0
100
AcDbLine
 10
206.4999999999963
 20
-307.3385126091289
 30
0.0
 11
376.662719889162
 21
-193.8969890261324
 31
0.0
  0
LINE
  5
2C4A
330
324B
100
AcDbEntity
  8
0
 62
     0
100
AcDbLine
 10
-422.2999999999991
 20
-726.5374421716715
 30
0.0
 11
206.4999999999963
 21
-307.3385126091305
 31
0.0
  0
LINE
  5
2C4B
330
324B
100
AcDbEntity
  8
0
 62
     0
100
AcDbLine
 10
206.5
 20
-304.3385460737118
 30
0.0
 11
372.1627585952737
 21
-193.8969890261342
 31
0.0
  0
LINE
  5
2C4C
330
324B
100
AcDbEntity
  8
0
 62
     0
100
AcDbLine
 10
-422.2999999999991
 20
-723.5374756362578
 30
0.0
 11
206.4999999999963
 21
-304.3385460737136
 31
0.0
  0
LINE
  5
2C4D
330
324B
100
AcDbEntity
  8
0
 62
     0
100
AcDbLine
 10
206.5000000000036
 20
-301.3385795382948
 30
0.0
 11
367.6627973013891
 21
-193.8969890261342
 31
0.0
  0
LINE
  5
2C4E
330
324B
100
AcDbEntity
  8
0
 62
     0
100
AcDbLine
 10
-422.2999999999991
 20
-720.5375091008408
 30
0.0
 11
206.4999999999963
 21
-301.3385795382983
 31
0.0
  0
LINE
  5
2C4F
330
324B
100
AcDbEntity
  8
0
 62
     0
100
AcDbLine
 10
206.5000000000036
 20
-298.3386130028812
 30
0.0
 11
363.1628360075083
 21
-193.8969890261324
 31
0.0
  0
LINE
  5
2C50
330
324B
100
AcDbEntity
  8
0
 62
     0
100
AcDbLine
 10
-422.2999999999956
 20
-717.5375425654256
 30
0.0
 11
206.5
 21
-298.3386130028829
 31
0.0
  0
LINE
  5
2C51
330
324B
100
AcDbEntity
  8
0
 62
     0
100
AcDbLine
 10
206.4999999999963
 20
-295.3386464674641
 30
0.0
 11
358.6628747136201
 21
-193.8969890261305
 31
0.0
  0
LINE
  5
2C52
330
324B
100
AcDbEntity
  8
0
 62
     0
100
AcDbLine
 10
-422.2999999999991
 20
-714.5375760300066
 30
0.0
 11
206.4999999999963
 21
-295.3386464674659
 31
0.0
  0
LINE
  5
2C53
330
324B
100
AcDbEntity
  8
0
 62
     0
100
AcDbLine
 10
206.5
 20
-292.338679932047
 30
0.0
 11
354.1629134197319
 21
-193.8969890261324
 31
0.0
  0
LINE
  5
2C54
330
324B
100
AcDbEntity
  8
0
 62
     0
100
AcDbLine
 10
-422.2999999999991
 20
-711.5376094945912
 30
0.0
 11
206.5
 21
-292.338679932047
 31
0.0
  0
LINE
  5
2C55
330
324B
100
AcDbEntity
  8
0
 62
     0
100
AcDbLine
 10
206.5000000000036
 20
-289.3387133966298
 30
0.0
 11
349.6629521258475
 21
-193.8969890261342
 31
0.0
  0
LINE
  5
2C56
330
324B
100
AcDbEntity
  8
0
 62
     0
100
AcDbLine
 10
-422.2999999999956
 20
-708.5376429591741
 30
0.0
 11
206.5
 21
-289.3387133966316
 31
0.0
  0
LINE
  5
2C57
330
324B
100
AcDbEntity
  8
0
 62
     0
100
AcDbLine
 10
206.5
 20
-286.3387468612162
 30
0.0
 11
345.1629908319628
 21
-193.8969890261324
 31
0.0
  0
LINE
  5
2C58
330
324B
100
AcDbEntity
  8
0
 62
     0
100
AcDbLine
 10
-422.2999999999991
 20
-705.5376764237607
 30
0.0
 11
206.5
 21
-286.3387468612162
 31
0.0
  0
LINE
  5
2C59
330
324B
100
AcDbEntity
  8
0
 62
     0
100
AcDbLine
 10
206.5
 20
-283.3387803257974
 30
0.0
 11
340.6630295380783
 21
-193.8969890261324
 31
0.0
  0
LINE
  5
2C5A
330
324B
100
AcDbEntity
  8
0
 62
     0
100
AcDbLine
 10
-422.2999999999991
 20
-702.5377098883437
 30
0.0
 11
206.4999999999963
 21
-283.338780325801
 31
0.0
  0
LINE
  5
2C5B
330
324B
100
AcDbEntity
  8
0
 62
     0
100
AcDbLine
 10
206.5
 20
-280.3388137903821
 30
0.0
 11
336.1630682441901
 21
-193.8969890261324
 31
0.0
  0
LINE
  5
2C5C
330
324B
100
AcDbEntity
  8
0
 62
     0
100
AcDbLine
 10
-422.2999999999991
 20
-699.5377433529263
 30
0.0
 11
206.5
 21
-280.3388137903821
 31
0.0
  0
LINE
  5
2C5D
330
324B
100
AcDbEntity
  8
0
 62
     0
100
AcDbLine
 10
206.5000000000036
 20
-277.3388472549668
 30
0.0
 11
331.6631069503092
 21
-193.8969890261324
 31
0.0
  0
LINE
  5
2C5E
330
324B
100
AcDbEntity
  8
0
 62
     0
100
AcDbLine
 10
-422.2999999999956
 20
-696.5377768175113
 30
0.0
 11
206.5000000000036
 21
-277.3388472549668
 31
0.0
  0
LINE
  5
2C5F
330
324B
100
AcDbEntity
  8
0
 62
     0
100
AcDbLine
 10
206.5
 20
-274.3388807195497
 30
0.0
 11
327.1631456564211
 21
-193.8969890261324
 31
0.0
  0
LINE
  5
2C60
330
324B
100
AcDbEntity
  8
0
 62
     0
100
AcDbLine
 10
-422.2999999999991
 20
-693.5378102820924
 30
0.0
 11
206.5
 21
-274.3388807195497
 31
0.0
  0
LINE
  5
2C61
330
324B
100
AcDbEntity
  8
0
 62
     0
100
AcDbLine
 10
206.5
 20
-271.3389141841344
 30
0.0
 11
322.66318436254
 21
-193.8969890261305
 31
0.0
  0
LINE
  5
2C62
330
324B
100
AcDbEntity
  8
0
 62
     0
100
AcDbLine
 10
-422.2999999999991
 20
-690.5378437466789
 30
0.0
 11
206.5
 21
-271.3389141841344
 31
0.0
  0
LINE
  5
2C63
330
324B
100
AcDbEntity
  8
0
 62
     0
100
AcDbLine
 10
206.5000000000036
 20
-268.3389476487155
 30
0.0
 11
318.1632230686483
 21
-193.8969890261324
 31
0.0
  0
LINE
  5
2C64
330
324B
100
AcDbEntity
  8
0
 62
     0
100
AcDbLine
 10
-422.2999999999991
 20
-687.5378772112635
 30
0.0
 11
206.5000000000036
 21
-268.3389476487155
 31
0.0
  0
LINE
  5
2C65
330
324B
100
AcDbEntity
  8
0
 62
     0
100
AcDbLine
 10
206.5
 20
-265.338981113302
 30
0.0
 11
313.6632617747638
 21
-193.8969890261324
 31
0.0
  0
LINE
  5
2C66
330
324B
100
AcDbEntity
  8
0
 62
     0
100
AcDbLine
 10
-422.2999999999991
 20
-684.5379106758464
 30
0.0
 11
206.5
 21
-265.338981113302
 31
0.0
  0
LINE
  5
2C67
330
324B
100
AcDbEntity
  8
0
 62
     0
100
AcDbLine
 10
206.5
 20
-262.3390145778867
 30
0.0
 11
309.1633004808791
 21
-193.8969890261324
 31
0.0
  0
LINE
  5
2C68
330
324B
100
AcDbEntity
  8
0
 62
     0
100
AcDbLine
 10
-422.2999999999991
 20
-681.537944140429
 30
0.0
 11
206.5
 21
-262.3390145778867
 31
0.0
  0
LINE
  5
2C69
330
324B
100
AcDbEntity
  8
0
 62
     0
100
AcDbLine
 10
206.5
 20
-259.3390480424696
 30
0.0
 11
304.6633391869982
 21
-193.8969890261324
 31
0.0
  0
LINE
  5
2C6A
330
324B
100
AcDbEntity
  8
0
 62
     0
100
AcDbLine
 10
-422.2999999999991
 20
-678.537977605014
 30
0.0
 11
206.5
 21
-259.3390480424696
 31
0.0
  0
LINE
  5
2C6B
330
324B
100
AcDbEntity
  8
0
 62
     0
100
AcDbLine
 10
206.5
 20
-256.3390815070525
 30
0.0
 11
300.1633778931064
 21
-193.8969890261342
 31
0.0
  0
LINE
  5
2C6C
330
324B
100
AcDbEntity
  8
0
 62
     0
100
AcDbLine
 10
-422.2999999999991
 20
-675.5380110695969
 30
0.0
 11
206.5
 21
-256.3390815070525
 31
0.0
  0
LINE
  5
2C6D
330
324B
100
AcDbEntity
  8
0
 62
     0
100
AcDbLine
 10
206.5
 20
-253.3391149716353
 30
0.0
 11
295.6634165992218
 21
-193.8969890261305
 31
0.0
  0
LINE
  5
2C6E
330
324B
100
AcDbEntity
  8
0
 62
     0
100
AcDbLine
 10
-422.2999999999991
 20
-672.5380445341816
 30
0.0
 11
206.5
 21
-253.3391149716353
 31
0.0
  0
LINE
  5
2C6F
330
324B
100
AcDbEntity
  8
0
 62
     0
100
AcDbLine
 10
206.5
 20
-250.3391484362201
 30
0.0
 11
291.1634553053373
 21
-193.8969890261324
 31
0.0
  0
LINE
  5
2C70
330
324B
100
AcDbEntity
  8
0
 62
     0
100
AcDbLine
 10
-422.2999999999991
 20
-669.5380779987645
 30
0.0
 11
206.5
 21
-250.3391484362201
 31
0.0
  0
LINE
  5
2C71
330
324B
100
AcDbEntity
  8
0
 62
     0
100
AcDbLine
 10
206.5000000000036
 20
-247.3391819008047
 30
0.0
 11
286.6634940114563
 21
-193.8969890261324
 31
0.0
  0
LINE
  5
2C72
330
324B
100
AcDbEntity
  8
0
 62
     0
100
AcDbLine
 10
-422.2999999999991
 20
-666.538111463351
 30
0.0
 11
206.5
 21
-247.3391819008066
 31
0.0
  0
LINE
  5
2C73
330
324B
100
AcDbEntity
  8
0
 62
     0
100
AcDbLine
 10
206.5
 20
-244.3392153653876
 30
0.0
 11
282.1635327175645
 21
-193.8969890261324
 31
0.0
  0
LINE
  5
2C74
330
324B
100
AcDbEntity
  8
0
 62
     0
100
AcDbLine
 10
-422.2999999999991
 20
-663.5381449279321
 30
0.0
 11
206.5
 21
-244.3392153653876
 31
0.0
  0
LINE
  5
2C75
330
324B
100
AcDbEntity
  8
0
 62
     0
100
AcDbLine
 10
206.5
 20
-241.3392488299724
 30
0.0
 11
277.66357142368
 21
-193.8969890261305
 31
0.0
  0
LINE
  5
2C76
330
324B
100
AcDbEntity
  8
0
 62
     0
100
AcDbLine
 10
-422.2999999999956
 20
-660.538178392515
 30
0.0
 11
206.5
 21
-241.3392488299724
 31
0.0
  0
LINE
  5
2C77
330
324B
100
AcDbEntity
  8
0
 62
     0
100
AcDbLine
 10
206.5
 20
-238.3392822945552
 30
0.0
 11
273.163610129799
 21
-193.8969890261305
 31
0.0
  0
LINE
  5
2C78
330
324B
100
AcDbEntity
  8
0
 62
     0
100
AcDbLine
 10
-422.2999999999991
 20
-657.5382118571012
 30
0.0
 11
206.5
 21
-238.3392822945552
 31
0.0
  0
LINE
  5
2C79
330
324B
100
AcDbEntity
  8
0
 62
     0
100
AcDbLine
 10
206.5
 20
-235.3393157591381
 30
0.0
 11
268.6636488359072
 21
-193.8969890261324
 31
0.0
  0
LINE
  5
2C7A
330
324B
100
AcDbEntity
  8
0
 62
     0
100
AcDbLine
 10
-422.3000000000029
 20
-654.5382453216841
 30
0.0
 11
206.4999999999963
 21
-235.3393157591399
 31
0.0
  0
LINE
  5
2C7B
330
324B
100
AcDbEntity
  8
0
 62
     0
100
AcDbLine
 10
206.5
 20
-232.3393492237246
 30
0.0
 11
264.1636875420227
 21
-193.8969890261324
 31
0.0
  0
LINE
  5
2C7C
330
324B
100
AcDbEntity
  8
0
 62
     0
100
AcDbLine
 10
-422.3000000000029
 20
-651.5382787862709
 30
0.0
 11
206.5
 21
-232.3393492237246
 31
0.0
  0
LINE
  5
2C7D
330
324B
100
AcDbEntity
  8
0
 62
     0
100
AcDbLine
 10
206.5000000000036
 20
-229.3393826883057
 30
0.0
 11
259.663726248138
 21
-193.8969890261324
 31
0.0
  0
LINE
  5
2C7E
330
324B
100
AcDbEntity
  8
0
 62
     0
100
AcDbLine
 10
-422.2999999999991
 20
-648.5383122508518
 30
0.0
 11
206.5
 21
-229.3393826883075
 31
0.0
  0
LINE
  5
2C7F
330
324B
100
AcDbEntity
  8
0
 62
     0
100
AcDbLine
 10
206.5
 20
-226.3394161528922
 30
0.0
 11
255.1637649542572
 21
-193.8969890261305
 31
0.0
  0
LINE
  5
2C80
330
324B
100
AcDbEntity
  8
0
 62
     0
100
AcDbLine
 10
-422.2999999999991
 20
-645.5383457154383
 30
0.0
 11
206.5
 21
-226.3394161528922
 31
0.0
  0
LINE
  5
2C81
330
324B
100
AcDbEntity
  8
0
 62
     0
100
AcDbLine
 10
206.5
 20
-223.3394496174733
 30
0.0
 11
250.6638036603654
 21
-193.8969890261324
 31
0.0
  0
LINE
  5
2C82
330
324B
100
AcDbEntity
  8
0
 62
     0
100
AcDbLine
 10
-422.3000000000029
 20
-642.5383791800213
 30
0.0
 11
206.5
 21
-223.3394496174733
 31
0.0
  0
LINE
  5
2C83
330
324B
100
AcDbEntity
  8
0
 62
     0
100
AcDbLine
 10
206.5
 20
-220.3394830820597
 30
0.0
 11
246.1638423664808
 21
-193.8969890261324
 31
0.0
  0
LINE
  5
2C84
330
324B
100
AcDbEntity
  8
0
 62
     0
100
AcDbLine
 10
-422.3000000000029
 20
-639.538412644606
 30
0.0
 11
206.5
 21
-220.3394830820597
 31
0.0
  0
LINE
  5
2C85
330
324B
100
AcDbEntity
  8
0
 62
     0
100
AcDbLine
 10
206.5000000000036
 20
-217.3395165466427
 30
0.0
 11
241.6638810725963
 21
-193.8969890261324
 31
0.0
  0
LINE
  5
2C86
330
324B
100
AcDbEntity
  8
0
 62
     0
100
AcDbLine
 10
-422.2999999999991
 20
-636.5384461091889
 30
0.0
 11
206.5000000000036
 21
-217.3395165466427
 31
0.0
  0
LINE
  5
2C87
330
324B
100
AcDbEntity
  8
0
 62
     0
100
AcDbLine
 10
206.5
 20
-214.3395500112238
 30
0.0
 11
237.1639197787117
 21
-193.8969890261305
 31
0.0
  0
LINE
  5
2C88
330
324B
100
AcDbEntity
  8
0
 62
     0
100
AcDbLine
 10
-422.3000000000029
 20
-633.53847957377
 30
0.0
 11
206.5
 21
-214.3395500112238
 31
0.0
  0
LINE
  5
2C89
330
324B
100
AcDbEntity
  8
0
 62
     0
100
AcDbLine
 10
206.5
 20
-211.3395834758103
 30
0.0
 11
232.6639584848235
 21
-193.8969890261342
 31
0.0
  0
LINE
  5
2C8A
330
324B
100
AcDbEntity
  8
0
 62
     0
100
AcDbLine
 10
-422.3000000000029
 20
-630.5385130383564
 30
0.0
 11
206.5
 21
-211.3395834758103
 31
0.0
  0
LINE
  5
2C8B
330
324B
100
AcDbEntity
  8
0
 62
     0
100
AcDbLine
 10
206.5
 20
-208.339616940395
 30
0.0
 11
228.163997190939
 21
-193.8969890261324
 31
0.0
  0
LINE
  5
2C8C
330
324B
100
AcDbEntity
  8
0
 62
     0
100
AcDbLine
 10
-422.2999999999991
 20
-627.5385465029412
 30
0.0
 11
206.5
 21
-208.339616940395
 31
0.0
  0
LINE
  5
2C8D
330
324B
100
AcDbEntity
  8
0
 62
     0
100
AcDbLine
 10
206.4999999999963
 20
-205.3396504049779
 30
0.0
 11
223.6640358970508
 21
-193.8969890261324
 31
0.0
  0
LINE
  5
2C8E
330
324B
100
AcDbEntity
  8
0
 62
     0
100
AcDbLine
 10
-422.3000000000029
 20
-624.5385799675241
 30
0.0
 11
206.4999999999963
 21
-205.3396504049779
 31
0.0
  0
LINE
  5
2C8F
330
324B
100
AcDbEntity
  8
0
 62
     0
100
AcDbLine
 10
206.5
 20
-202.3396838695608
 30
0.0
 11
219.1640746031699
 21
-193.8969890261305
 31
0.0
  0
LINE
  5
2C90
330
324B
100
AcDbEntity
  8
0
 62
     0
100
AcDbLine
 10
-422.3000000000029
 20
-621.538613432107
 30
0.0
 11
206.5
 21
-202.3396838695608
 31
0.0
  0
LINE
  5
2C91
330
324B
100
AcDbEntity
  8
0
 62
     0
100
AcDbLine
 10
206.5
 20
-199.3397173341454
 30
0.0
 11
214.6641133092853
 21
-193.8969890261324
 31
0.0
  0
LINE
  5
2C92
330
324B
100
AcDbEntity
  8
0
 62
     0
100
AcDbLine
 10
-422.3000000000029
 20
-618.5386468966916
 30
0.0
 11
206.5
 21
-199.3397173341454
 31
0.0
  0
LINE
  5
2C93
330
324B
100
AcDbEntity
  8
0
 62
     0
100
AcDbLine
 10
206.5000000000036
 20
-196.3397507987283
 30
0.0
 11
210.1641520153971
 21
-193.8969890261324
 31
0.0
  0
LINE
  5
2C94
330
324B
100
AcDbEntity
  8
0
 62
     0
100
AcDbLine
 10
-422.2999999999991
 20
-615.5386803612746
 30
0.0
 11
206.5000000000036
 21
-196.3397507987283
 31
0.0
  0
LINE
  5
2C95
330
324B
100
AcDbEntity
  8
0
 62
     0
100
AcDbLine
 10
-422.3000000000029
 20
-612.5387138258611
 30
0.0
 11
205.6641907215089
 21
-193.8969890261324
 31
0.0
  0
LINE
  5
2C96
330
324B
100
AcDbEntity
  8
0
 62
     0
100
AcDbLine
 10
-422.3000000000029
 20
-609.5387472904421
 30
0.0
 11
201.1642294276244
 21
-193.8969890261324
 31
0.0
  0
LINE
  5
2C97
330
324B
100
AcDbEntity
  8
0
 62
     0
100
AcDbLine
 10
-422.3000000000029
 20
-606.5387807550287
 30
0.0
 11
196.6642681337434
 21
-193.8969890261324
 31
0.0
  0
LINE
  5
2C98
330
324B
100
AcDbEntity
  8
0
 62
     0
100
AcDbLine
 10
-422.3000000000029
 20
-603.5388142196095
 30
0.0
 11
192.1643068398516
 21
-193.8969890261342
 31
0.0
  0
LINE
  5
2C99
330
324B
100
AcDbEntity
  8
0
 62
     0
100
AcDbLine
 10
-422.3000000000029
 20
-600.5388476841943
 30
0.0
 11
187.6643455459671
 21
-193.8969890261342
 31
0.0
  0
LINE
  5
2C9A
330
324B
100
AcDbEntity
  8
0
 62
     0
100
AcDbLine
 10
-422.3000000000029
 20
-597.5388811487792
 30
0.0
 11
183.1643842520825
 21
-193.8969890261324
 31
0.0
  0
LINE
  5
2C9B
330
324B
100
AcDbEntity
  8
0
 62
     0
100
AcDbLine
 10
-422.2999999999991
 20
-594.5389146133602
 30
0.0
 11
178.6644229582016
 21
-193.8969890261305
 31
0.0
  0
LINE
  5
2C9C
330
324B
100
AcDbEntity
  8
0
 62
     0
100
AcDbLine
 10
-422.3000000000029
 20
-591.5389480779468
 30
0.0
 11
174.1644616643134
 21
-193.8969890261324
 31
0.0
  0
LINE
  5
2C9D
330
324B
100
AcDbEntity
  8
0
 62
     0
100
AcDbLine
 10
-422.3000000000029
 20
-588.5389815425297
 30
0.0
 11
169.6645003704252
 21
-193.8969890261342
 31
0.0
  0
LINE
  5
2C9E
330
324B
100
AcDbEntity
  8
0
 62
     0
100
AcDbLine
 10
-422.3000000000029
 20
-585.5390150071142
 30
0.0
 11
165.1645390765443
 21
-193.8969890261305
 31
0.0
  0
LINE
  5
2C9F
330
324B
100
AcDbEntity
  8
0
 62
     0
100
AcDbLine
 10
-422.3000000000029
 20
-582.5390484716972
 30
0.0
 11
160.6645777826525
 21
-193.8969890261324
 31
0.0
  0
LINE
  5
2CA0
330
324B
100
AcDbEntity
  8
0
 62
     0
100
AcDbLine
 10
-422.2999999999991
 20
-579.53908193628
 30
0.0
 11
156.1646164887716
 21
-193.8969890261324
 31
0.0
  0
LINE
  5
2CA1
330
324B
100
AcDbEntity
  8
0
 62
     0
100
AcDbLine
 10
-422.3000000000029
 20
-576.5391154008645
 30
0.0
 11
151.6646551948834
 21
-193.8969890261324
 31
0.0
  0
LINE
  5
2CA2
330
324B
100
AcDbEntity
  8
0
 62
     0
100
AcDbLine
 10
-422.3000000000029
 20
-573.5391488654475
 30
0.0
 11
147.1646939009988
 21
-193.8969890261324
 31
0.0
  0
LINE
  5
2CA3
330
324B
100
AcDbEntity
  8
0
 62
     0
100
AcDbLine
 10
-422.3000000000029
 20
-570.5391823300323
 30
0.0
 11
142.6647326071106
 21
-193.8969890261342
 31
0.0
  0
LINE
  5
2CA4
330
324B
100
AcDbEntity
  8
0
 62
     0
100
AcDbLine
 10
-422.2999999999991
 20
-567.5392157946171
 30
0.0
 11
138.1647713132297
 21
-193.8969890261324
 31
0.0
  0
LINE
  5
2CA5
330
324B
100
AcDbEntity
  8
0
 62
     0
100
AcDbLine
 10
-422.3000000000029
 20
-564.5392492592
 30
0.0
 11
133.6648100193415
 21
-193.8969890261324
 31
0.0
  0
LINE
  5
2CA6
330
324B
100
AcDbEntity
  8
0
 62
     0
100
AcDbLine
 10
-422.3000000000029
 20
-561.5392827237847
 30
0.0
 11
129.1648487254567
 21
-193.8969890261324
 31
0.0
  0
LINE
  5
2CA7
330
324B
100
AcDbEntity
  8
0
 62
     0
100
AcDbLine
 10
-422.3000000000029
 20
-558.5393161883676
 30
0.0
 11
124.6648874315688
 21
-193.8969890261342
 31
0.0
  0
LINE
  5
2CA8
330
324B
100
AcDbEntity
  8
0
 62
     0
100
AcDbLine
 10
-422.2999999999991
 20
-555.5393496529505
 30
0.0
 11
120.1649261376878
 21
-193.8969890261324
 31
0.0
  0
LINE
  5
2CA9
330
324B
100
AcDbEntity
  8
0
 62
     0
100
AcDbLine
 10
-422.3000000000029
 20
-552.539383117537
 30
0.0
 11
115.6649648437997
 21
-193.8969890261324
 31
0.0
  0
LINE
  5
2CAA
330
324B
100
AcDbEntity
  8
0
 62
     0
100
AcDbLine
 10
-422.3000000000029
 20
-549.5394165821196
 30
0.0
 11
111.1650035499115
 21
-193.8969890261342
 31
0.0
  0
LINE
  5
2CAB
330
324B
100
AcDbEntity
  8
0
 62
     0
100
AcDbLine
 10
-422.2999999999991
 20
-546.5394500467026
 30
0.0
 11
106.6650422560305
 21
-193.8969890261324
 31
0.0
  0
LINE
  5
2CAC
330
324B
100
AcDbEntity
  8
0
 62
     0
100
AcDbLine
 10
-422.2999999999991
 20
-543.5394835112856
 30
0.0
 11
102.165080962146
 21
-193.8969890261324
 31
0.0
  0
LINE
  5
2CAD
330
324B
100
AcDbEntity
  8
0
 62
     0
100
AcDbLine
 10
-422.3000000000029
 20
-540.5395169758703
 30
0.0
 11
97.66511966825785
 21
-193.8969890261324
 31
0.0
  0
LINE
  5
2CAE
330
324B
100
AcDbEntity
  8
0
 62
     0
100
AcDbLine
 10
-422.2999999999991
 20
-537.5395504404512
 30
0.0
 11
93.16515837436964
 21
-193.8969890261324
 31
0.0
  0
LINE
  5
2CAF
330
324B
100
AcDbEntity
  8
0
 62
     0
100
AcDbLine
 10
-422.2999999999991
 20
-534.5395839050379
 30
0.0
 11
88.66519708048873
 21
-193.8969890261324
 31
0.0
  0
LINE
  5
2CB0
330
324B
100
AcDbEntity
  8
0
 62
     0
100
AcDbLine
 10
-422.3000000000029
 20
-531.5396173696226
 30
0.0
 11
84.16523578660052
 21
-193.8969890261324
 31
0.0
  0
LINE
  5
2CB1
330
324B
100
AcDbEntity
  8
0
 62
     0
100
AcDbLine
 10
-422.3000000000029
 20
-528.5396508342055
 30
0.0
 11
79.66527449271599
 21
-193.8969890261324
 31
0.0
  0
LINE
  5
2CB2
330
324B
100
AcDbEntity
  8
0
 62
     0
100
AcDbLine
 10
-422.2999999999991
 20
-525.5396842987884
 30
0.0
 11
75.1653131988278
 21
-193.8969890261342
 31
0.0
  0
LINE
  5
2CB3
330
324B
100
AcDbEntity
  8
0
 62
     0
100
AcDbLine
 10
-422.2999999999991
 20
-522.539717763373
 30
0.0
 11
70.66535190494687
 21
-193.8969890261324
 31
0.0
  0
LINE
  5
2CB4
330
324B
100
AcDbEntity
  8
0
 62
     0
100
AcDbLine
 10
-422.3000000000029
 20
-519.5397512279559
 30
0.0
 11
66.16539061105868
 21
-193.8969890261324
 31
0.0
  0
LINE
  5
2CB5
330
324B
100
AcDbEntity
  8
0
 62
     0
100
AcDbLine
 10
-422.2999999999991
 20
-516.5397846925388
 30
0.0
 11
61.66542931717049
 21
-193.8969890261324
 31
0.0
  0
LINE
  5
2CB6
330
324B
100
AcDbEntity
  8
0
 62
     0
100
AcDbLine
 10
-422.2999999999991
 20
-513.5398181571232
 30
0.0
 11
57.16546802328958
 21
-193.8969890261324
 31
0.0
  0
LINE
  5
2CB7
330
324B
100
AcDbEntity
  8
0
 62
     0
100
AcDbLine
 10
-422.3000000000029
 20
-510.53985162171
 30
0.0
 11
52.66550672940137
 21
-193.8969890261342
 31
0.0
  0
LINE
  5
2CB8
330
324B
100
AcDbEntity
  8
0
 62
     0
100
AcDbLine
 10
-422.3000000000029
 20
-507.5398850862911
 30
0.0
 11
48.16554543551682
 21
-193.8969890261305
 31
0.0
  0
LINE
  5
2CB9
330
324B
100
AcDbEntity
  8
0
 62
     0
100
AcDbLine
 10
-422.2999999999991
 20
-504.539918550874
 30
0.0
 11
43.66558414162863
 21
-193.8969890261324
 31
0.0
  0
LINE
  5
2CBA
330
324B
100
AcDbEntity
  8
0
 62
     0
100
AcDbLine
 10
-422.2999999999991
 20
-501.5399520154605
 30
0.0
 11
39.16562284774773
 21
-193.8969890261324
 31
0.0
  0
LINE
  5
2CBB
330
324B
100
AcDbEntity
  8
0
 62
     0
100
AcDbLine
 10
-422.3000000000029
 20
-498.5399854800435
 30
0.0
 11
34.66566155385955
 21
-193.8969890261324
 31
0.0
  0
LINE
  5
2CBC
330
324B
100
AcDbEntity
  8
0
 62
     0
100
AcDbLine
 10
-422.3000000000029
 20
-495.540018944628
 30
0.0
 11
30.16570025997863
 21
-193.8969890261324
 31
0.0
  0
LINE
  5
2CBD
330
324B
100
AcDbEntity
  8
0
 62
     0
100
AcDbLine
 10
-422.2999999999991
 20
-492.5400524092092
 30
0.0
 11
25.66573896608679
 21
-193.8969890261324
 31
0.0
  0
LINE
  5
2CBE
330
324B
100
AcDbEntity
  8
0
 62
     0
100
AcDbLine
 10
-422.3000000000029
 20
-489.5400858737956
 30
0.0
 11
21.16577767220224
 21
-193.8969890261324
 31
0.0
  0
LINE
  5
2CBF
330
324B
100
AcDbEntity
  8
0
 62
     0
100
AcDbLine
 10
-422.3000000000029
 20
-486.5401193383785
 30
0.0
 11
16.66581637831768
 21
-193.8969890261324
 31
0.0
  0
LINE
  5
2CC0
330
324B
100
AcDbEntity
  8
0
 62
     0
100
AcDbLine
 10
-422.2999999999991
 20
-483.5401528029615
 30
0.0
 11
12.16585508443312
 21
-193.8969890261342
 31
0.0
  0
LINE
  5
2CC1
330
324B
100
AcDbEntity
  8
0
 62
     0
100
AcDbLine
 10
-422.3000000000029
 20
-480.540186267546
 30
0.0
 11
7.665893790544942
 21
-193.8969890261342
 31
0.0
  0
LINE
  5
2CC2
330
324B
100
AcDbEntity
  8
0
 62
     0
100
AcDbLine
 10
-422.3000000000029
 20
-477.5402197321291
 30
0.0
 11
3.165932496660388
 21
-193.8969890261305
 31
0.0
  0
LINE
  5
2CC3
330
324B
100
AcDbEntity
  8
0
 62
     0
100
AcDbLine
 10
-422.3000000000029
 20
-474.5402531967137
 30
0.0
 11
-1.334028797224164
 21
-193.8969890261324
 31
0.0
  0
LINE
  5
2CC4
330
324B
100
AcDbEntity
  8
0
 62
     0
100
AcDbLine
 10
-422.2999999999991
 20
-471.5402866612985
 30
0.0
 11
-5.833990091108717
 21
-193.8969890261342
 31
0.0
  0
LINE
  5
2CC5
330
324B
100
AcDbEntity
  8
0
 62
     0
100
AcDbLine
 10
-422.3000000000029
 20
-468.5403201258814
 30
0.0
 11
-10.33395138499691
 21
-193.8969890261324
 31
0.0
  0
LINE
  5
2CC6
330
324B
100
AcDbEntity
  8
0
 62
     0
100
AcDbLine
 10
-422.2999999999991
 20
-465.5403535904642
 30
0.0
 11
-14.83391267888146
 21
-193.8969890261324
 31
0.0
  0
LINE
  5
2CC7
330
324B
100
AcDbEntity
  8
0
 62
     0
100
AcDbLine
 10
-422.2999999999991
 20
-462.5403870550472
 30
0.0
 11
-19.33387397276237
 21
-193.8969890261305
 31
0.0
  0
LINE
  5
2CC8
330
324B
100
AcDbEntity
  8
0
 62
     0
100
AcDbLine
 10
-422.3000000000029
 20
-459.5404205196316
 30
0.0
 11
-23.8338352666542
 21
-193.8969890261324
 31
0.0
  0
LINE
  5
2CC9
330
324B
100
AcDbEntity
  8
0
 62
     0
100
AcDbLine
 10
-422.3000000000029
 20
-456.5404539842183
 30
0.0
 11
-28.33379656053877
 21
-193.8969890261324
 31
0.0
  0
LINE
  5
2CCA
330
324B
100
AcDbEntity
  8
0
 62
     0
100
AcDbLine
 10
-422.2999999999991
 20
-453.5404874487992
 30
0.0
 11
-32.83375785442331
 21
-193.8969890261324
 31
0.0
  0
LINE
  5
2CCB
330
324B
100
AcDbEntity
  8
0
 62
     0
100
AcDbLine
 10
-422.2999999999991
 20
-450.5405209133841
 30
0.0
 11
-37.33371914830787
 21
-193.8969890261342
 31
0.0
  0
LINE
  5
2CCC
330
324B
100
AcDbEntity
  8
0
 62
     0
100
AcDbLine
 10
-422.3000000000029
 20
-447.540554377967
 30
0.0
 11
-41.83368044219604
 21
-193.8969890261342
 31
0.0
  0
LINE
  5
2CCD
330
324B
100
AcDbEntity
  8
0
 62
     0
100
AcDbLine
 10
-422.2999999999991
 20
-444.5405878425516
 30
0.0
 11
-46.3336417360806
 21
-193.8969890261324
 31
0.0
  0
LINE
  5
2CCE
330
324B
100
AcDbEntity
  8
0
 62
     0
100
AcDbLine
 10
-422.2999999999991
 20
-441.5406213071364
 30
0.0
 11
-50.83360302996513
 21
-193.8969890261324
 31
0.0
  0
LINE
  5
2CCF
330
324B
100
AcDbEntity
  8
0
 62
     0
100
AcDbLine
 10
-422.3000000000029
 20
-438.5406547717175
 30
0.0
 11
-55.33356432385335
 21
-193.8969890261324
 31
0.0
  0
LINE
  5
2CD0
330
324B
100
AcDbEntity
  8
0
 62
     0
100
AcDbLine
 10
-422.3000000000029
 20
-435.5406882363039
 30
0.0
 11
-59.83352561773426
 21
-193.8969890261324
 31
0.0
  0
LINE
  5
2CD1
330
324B
100
AcDbEntity
  8
0
 62
     0
100
AcDbLine
 10
-422.2999999999991
 20
-432.5407217008867
 30
0.0
 11
-64.33348691162246
 21
-193.8969890261324
 31
0.0
  0
LINE
  5
2CD2
330
324B
100
AcDbEntity
  8
0
 62
     0
100
AcDbLine
 10
-422.3000000000029
 20
-429.5407551654697
 30
0.0
 11
-68.83344820550701
 21
-193.8969890261305
 31
0.0
  0
LINE
  5
2CD3
330
324B
100
AcDbEntity
  8
0
 62
     0
100
AcDbLine
 10
-422.3000000000029
 20
-426.5407886300543
 30
0.0
 11
-73.3334094993952
 21
-193.8969890261324
 31
0.0
  0
LINE
  5
2CD4
330
324B
100
AcDbEntity
  8
0
 62
     0
100
AcDbLine
 10
-422.3000000000029
 20
-423.5408220946392
 30
0.0
 11
-77.83337079327608
 21
-193.8969890261324
 31
0.0
  0
LINE
  5
2CD5
330
324B
100
AcDbEntity
  8
0
 62
     0
100
AcDbLine
 10
-422.2999999999991
 20
-420.540855559222
 30
0.0
 11
-82.33333208716429
 21
-193.8969890261324
 31
0.0
  0
LINE
  5
2CD6
330
324B
100
AcDbEntity
  8
0
 62
     0
100
AcDbLine
 10
-422.3000000000029
 20
-417.5408890238048
 30
0.0
 11
-86.8332933810525
 21
-193.8969890261342
 31
0.0
  0
LINE
  5
2CD7
330
324B
100
AcDbEntity
  8
0
 62
     0
100
AcDbLine
 10
-422.3000000000029
 20
-414.5409224883896
 30
0.0
 11
-91.33325467493703
 21
-193.8969890261324
 31
0.0
  0
LINE
  5
2CD8
330
324B
100
AcDbEntity
  8
0
 62
     0
100
AcDbLine
 10
-422.2999999999991
 20
-411.5409559529726
 30
0.0
 11
-95.83321596881795
 21
-193.8969890261324
 31
0.0
  0
LINE
  5
2CD9
330
324B
100
AcDbEntity
  8
0
 62
     0
100
AcDbLine
 10
-422.2999999999991
 20
-408.5409894175554
 30
0.0
 11
-100.3331772627098
 21
-193.8969890261324
 31
0.0
  0
LINE
  5
2CDA
330
324B
100
AcDbEntity
  8
0
 62
     0
100
AcDbLine
 10
-422.3000000000029
 20
-405.5410228821417
 30
0.0
 11
-104.8331385565943
 21
-193.8969890261342
 31
0.0
  0
LINE
  5
2CDB
330
324B
100
AcDbEntity
  8
0
 62
     0
100
AcDbLine
 10
-422.3000000000029
 20
-402.5410563467247
 30
0.0
 11
-109.3330998504789
 21
-193.8969890261342
 31
0.0
  0
LINE
  5
2CDC
330
324B
100
AcDbEntity
  8
0
 62
     0
100
AcDbLine
 10
-422.2999999999991
 20
-399.5410898113078
 30
0.0
 11
-113.8330611443598
 21
-193.8969890261305
 31
0.0
  0
LINE
  5
2CDD
330
324B
100
AcDbEntity
  8
0
 62
     0
100
AcDbLine
 10
-422.3000000000029
 20
-396.5411232758906
 30
0.0
 11
-118.333022438248
 21
-193.8969890261324
 31
0.0
  0
LINE
  5
2CDE
330
324B
100
AcDbEntity
  8
0
 62
     0
100
AcDbLine
 10
-422.3000000000029
 20
-393.5411567404772
 30
0.0
 11
-122.8329837321362
 21
-193.8969890261342
 31
0.0
  0
LINE
  5
2CDF
330
324B
100
AcDbEntity
  8
0
 62
     0
100
AcDbLine
 10
-422.2999999999991
 20
-390.54119020506
 30
0.0
 11
-127.3329450260171
 21
-193.8969890261324
 31
0.0
  0
LINE
  5
2CE0
330
324B
100
AcDbEntity
  8
0
 62
     0
100
AcDbLine
 10
-422.3000000000029
 20
-387.5412236696429
 30
0.0
 11
-131.8329063199053
 21
-193.8969890261305
 31
0.0
  0
LINE
  5
2CE1
330
324B
100
AcDbEntity
  8
0
 62
     0
100
AcDbLine
 10
-422.3000000000029
 20
-384.5412571342277
 30
0.0
 11
-136.3328676137898
 21
-193.8969890261324
 31
0.0
  0
LINE
  5
2CE2
330
324B
100
AcDbEntity
  8
0
 62
     0
100
AcDbLine
 10
-422.3000000000029
 20
-381.5412905988123
 30
0.0
 11
-140.832828907678
 21
-193.8969890261342
 31
0.0
  0
LINE
  5
2CE3
330
324B
100
AcDbEntity
  8
0
 62
     0
100
AcDbLine
 10
-422.3000000000029
 20
-378.5413240633952
 30
0.0
 11
-145.3327902015626
 21
-193.8969890261324
 31
0.0
  0
LINE
  5
2CE4
330
324B
100
AcDbEntity
  8
0
 62
     0
100
AcDbLine
 10
-422.2999999999991
 20
-375.5413575279781
 30
0.0
 11
-149.8327514954471
 21
-193.8969890261324
 31
0.0
  0
LINE
  5
2CE5
330
324B
100
AcDbEntity
  8
0
 62
     0
100
AcDbLine
 10
-422.3000000000029
 20
-372.5413909925628
 30
0.0
 11
-154.3327127893317
 21
-193.8969890261342
 31
0.0
  0
LINE
  5
2CE6
330
324B
100
AcDbEntity
  8
0
 62
     0
100
AcDbLine
 10
-422.3000000000029
 20
-369.5414244571475
 30
0.0
 11
-158.8326740832199
 21
-193.8969890261324
 31
0.0
  0
LINE
  5
2CE7
330
324B
100
AcDbEntity
  8
0
 62
     0
100
AcDbLine
 10
-422.3000000000029
 20
-366.5414579217304
 30
0.0
 11
-163.3326353771044
 21
-193.8969890261324
 31
0.0
  0
LINE
  5
2CE8
330
324B
100
AcDbEntity
  8
0
 62
     0
100
AcDbLine
 10
-422.2999999999991
 20
-363.5414913863132
 30
0.0
 11
-167.832596670989
 21
-193.8969890261324
 31
0.0
  0
LINE
  5
2CE9
330
324B
100
AcDbEntity
  8
0
 62
     0
100
AcDbLine
 10
-422.3000000000029
 20
-360.541524850898
 30
0.0
 11
-172.3325579648735
 21
-193.8969890261324
 31
0.0
  0
LINE
  5
2CEA
330
324B
100
AcDbEntity
  8
0
 62
     0
100
AcDbLine
 10
-422.3000000000029
 20
-357.541558315481
 30
0.0
 11
-176.8325192587616
 21
-193.8969890261305
 31
0.0
  0
LINE
  5
2CEB
330
324B
100
AcDbEntity
  8
0
 62
     0
100
AcDbLine
 10
-422.3000000000029
 20
-354.5415917800674
 30
0.0
 11
-181.3324805526463
 21
-193.8969890261324
 31
0.0
  0
LINE
  5
2CEC
330
324B
100
AcDbEntity
  8
0
 62
     0
100
AcDbLine
 10
-422.2999999999991
 20
-351.5416252446485
 30
0.0
 11
-185.8324418465308
 21
-193.8969890261324
 31
0.0
  0
LINE
  5
2CED
330
324B
100
AcDbEntity
  8
0
 62
     0
100
AcDbLine
 10
-422.3000000000029
 20
-348.5416587092331
 30
0.0
 11
-190.3324031404154
 21
-193.8969890261324
 31
0.0
  0
LINE
  5
2CEE
330
324B
100
AcDbEntity
  8
0
 62
     0
100
AcDbLine
 10
-422.3000000000029
 20
-345.5416921738179
 30
0.0
 11
-194.8323644343036
 21
-193.8969890261324
 31
0.0
  0
LINE
  5
2CEF
330
324B
100
AcDbEntity
  8
0
 62
     0
100
AcDbLine
 10
-422.2999999999991
 20
-342.5417256384008
 30
0.0
 11
-199.3323257281917
 21
-193.896989026136
 31
0.0
  0
LINE
  5
2CF0
330
324B
100
AcDbEntity
  8
0
 62
     0
100
AcDbLine
 10
-422.2999999999991
 20
-339.5417591029854
 30
0.0
 11
-203.8322870220727
 21
-193.8969890261324
 31
0.0
  0
LINE
  5
2CF1
330
324B
100
AcDbEntity
  8
0
 62
     0
100
AcDbLine
 10
-422.3000000000064
 20
-336.5417925675682
 30
0.0
 11
-208.3322483159609
 21
-193.8969890261324
 31
0.0
  0
LINE
  5
2CF2
330
324B
100
AcDbEntity
  8
0
 62
     0
100
AcDbLine
 10
-422.3000000000029
 20
-333.5418260321529
 30
0.0
 11
-212.8322096098454
 21
-193.8969890261324
 31
0.0
  0
LINE
  5
2CF3
330
324B
100
AcDbEntity
  8
0
 62
     0
100
AcDbLine
 10
-422.2999999999991
 20
-330.541859496736
 30
0.0
 11
-217.3321709037336
 21
-193.8969890261342
 31
0.0
  0
LINE
  5
2CF4
330
324B
100
AcDbEntity
  8
0
 62
     0
100
AcDbLine
 10
-422.3000000000029
 20
-327.5418929613206
 30
0.0
 11
-221.8321321976181
 21
-193.8969890261342
 31
0.0
  0
LINE
  5
2CF5
330
324B
100
AcDbEntity
  8
0
 62
     0
100
AcDbLine
 10
-422.3000000000029
 20
-324.5419264259035
 30
0.0
 11
-226.3320934915027
 21
-193.8969890261324
 31
0.0
  0
LINE
  5
2CF6
330
324B
100
AcDbEntity
  8
0
 62
     0
100
AcDbLine
 10
-422.2999999999991
 20
-321.5419598904864
 30
0.0
 11
-230.8320547853873
 21
-193.8969890261324
 31
0.0
  0
LINE
  5
2CF7
330
324B
100
AcDbEntity
  8
0
 62
     0
100
AcDbLine
 10
-422.2999999999991
 20
-318.5419933550711
 30
0.0
 11
-235.3320160792719
 21
-193.8969890261324
 31
0.0
  0
LINE
  5
2CF8
330
324B
100
AcDbEntity
  8
0
 62
     0
100
AcDbLine
 10
-422.3000000000029
 20
-315.5420268196576
 30
0.0
 11
-239.83197737316
 21
-193.8969890261342
 31
0.0
  0
LINE
  5
2CF9
330
324B
100
AcDbEntity
  8
0
 62
     0
100
AcDbLine
 10
-422.3000000000029
 20
-312.5420602842387
 30
0.0
 11
-244.331938667041
 21
-193.8969890261324
 31
0.0
  0
LINE
  5
2CFA
330
324B
100
AcDbEntity
  8
0
 62
     0
100
AcDbLine
 10
-422.2999999999991
 20
-309.5420937488216
 30
0.0
 11
-248.8318999609328
 21
-193.8969890261324
 31
0.0
  0
LINE
  5
2CFB
330
324B
100
AcDbEntity
  8
0
 62
     0
100
AcDbLine
 10
-422.2999999999991
 20
-306.5421272134063
 30
0.0
 11
-253.3318612548137
 21
-193.8969890261324
 31
0.0
  0
LINE
  5
2CFC
330
324B
100
AcDbEntity
  8
0
 62
     0
100
AcDbLine
 10
-422.3000000000029
 20
-303.542160677991
 30
0.0
 11
-257.8318225487017
 21
-193.8969890261342
 31
0.0
  0
LINE
  5
2CFD
330
324B
100
AcDbEntity
  8
0
 62
     0
100
AcDbLine
 10
-422.3000000000029
 20
-300.5421941425757
 30
0.0
 11
-262.3317838425828
 21
-193.8969890261324
 31
0.0
  0
LINE
  5
2CFE
330
324B
100
AcDbEntity
  8
0
 62
     0
100
AcDbLine
 10
-422.2999999999991
 20
-297.5422276071567
 30
0.0
 11
-266.8317451364746
 21
-193.8969890261342
 31
0.0
  0
LINE
  5
2CFF
330
324B
100
AcDbEntity
  8
0
 62
     0
100
AcDbLine
 10
-422.3000000000029
 20
-294.5422610717433
 30
0.0
 11
-271.3317064303592
 21
-193.8969890261324
 31
0.0
  0
LINE
  5
2D00
330
324B
100
AcDbEntity
  8
0
 62
     0
100
AcDbLine
 10
-422.3000000000029
 20
-291.5422945363242
 30
0.0
 11
-275.8316677242437
 21
-193.8969890261324
 31
0.0
  0
LINE
  5
2D01
330
324B
100
AcDbEntity
  8
0
 62
     0
100
AcDbLine
 10
-422.2999999999991
 20
-288.5423280009089
 30
0.0
 11
-280.3316290181283
 21
-193.8969890261342
 31
0.0
  0
LINE
  5
2D02
330
324B
100
AcDbEntity
  8
0
 62
     0
100
AcDbLine
 10
-422.3000000000029
 20
-285.5423614654919
 30
0.0
 11
-284.8315903120165
 21
-193.8969890261324
 31
0.0
  0
LINE
  5
2D03
330
324B
100
AcDbEntity
  8
0
 62
     0
100
AcDbLine
 10
-422.3000000000029
 20
-282.5423949300784
 30
0.0
 11
-289.3315516059009
 21
-193.8969890261342
 31
0.0
  0
LINE
  5
2D04
330
324B
100
AcDbEntity
  8
0
 62
     0
100
AcDbLine
 10
-422.3000000000029
 20
-279.5424283946613
 30
0.0
 11
-293.8315128997856
 21
-193.8969890261324
 31
0.0
  0
LINE
  5
2D05
330
324B
100
AcDbEntity
  8
0
 62
     0
100
AcDbLine
 10
-422.2999999999991
 20
-276.5424618592442
 30
0.0
 11
-298.33147419367
 21
-193.8969890261342
 31
0.0
  0
LINE
  5
2D06
330
324B
100
AcDbEntity
  8
0
 62
     0
100
AcDbLine
 10
-422.3000000000029
 20
-273.5424953238289
 30
0.0
 11
-302.8314354875582
 21
-193.8969890261324
 31
0.0
  0
LINE
  5
2D07
330
324B
100
AcDbEntity
  8
0
 62
     0
100
AcDbLine
 10
-422.3000000000029
 20
-270.54252878841
 30
0.0
 11
-307.3313967814429
 21
-193.8969890261324
 31
0.0
  0
LINE
  5
2D08
330
324B
100
AcDbEntity
  8
0
 62
     0
100
AcDbLine
 10
-422.2999999999991
 20
-267.5425622529947
 30
0.0
 11
-311.8313580753274
 21
-193.8969890261342
 31
0.0
  0
LINE
  5
2D09
330
324B
100
AcDbEntity
  8
0
 62
     0
100
AcDbLine
 10
-422.3000000000029
 20
-264.5425957175811
 30
0.0
 11
-316.3313193692157
 21
-193.8969890261342
 31
0.0
  0
LINE
  5
2D0A
330
324B
100
AcDbEntity
  8
0
 62
     0
100
AcDbLine
 10
-422.3000000000029
 20
-261.5426291821641
 30
0.0
 11
-320.8312806631002
 21
-193.8969890261324
 31
0.0
  0
LINE
  5
2D0B
330
324B
100
AcDbEntity
  8
0
 62
     0
100
AcDbLine
 10
-422.3000000000029
 20
-258.542662646747
 30
0.0
 11
-325.3312419569847
 21
-193.8969890261324
 31
0.0
  0
LINE
  5
2D0C
330
324B
100
AcDbEntity
  8
0
 62
     0
100
AcDbLine
 10
-422.2999999999991
 20
-255.5426961113298
 30
0.0
 11
-329.8312032508692
 21
-193.8969890261342
 31
0.0
  0
LINE
  5
2D0D
330
324B
100
AcDbEntity
  8
0
 62
     0
100
AcDbLine
 10
-422.3000000000029
 20
-252.5427295759146
 30
0.0
 11
-334.3311645447575
 21
-193.8969890261342
 31
0.0
  0
LINE
  5
2D0E
330
324B
100
AcDbEntity
  8
0
 62
     0
100
AcDbLine
 10
-422.2999999999991
 20
-249.5427630404993
 30
0.0
 11
-338.831125838642
 21
-193.8969890261324
 31
0.0
  0
LINE
  5
2D0F
330
324B
100
AcDbEntity
  8
0
 62
     0
100
AcDbLine
 10
-422.3000000000029
 20
-246.5427965050821
 30
0.0
 11
-343.3310871325265
 21
-193.8969890261324
 31
0.0
  0
LINE
  5
2D10
330
324B
100
AcDbEntity
  8
0
 62
     0
100
AcDbLine
 10
-422.3000000000029
 20
-243.5428299696669
 30
0.0
 11
-347.8310484264148
 21
-193.8969890261342
 31
0.0
  0
LINE
  5
2D11
330
324B
100
AcDbEntity
  8
0
 62
     0
100
AcDbLine
 10
-422.3000000000029
 20
-240.5428634342497
 30
0.0
 11
-352.3310097202957
 21
-193.8969890261324
 31
0.0
  0
LINE
  5
2D12
330
324B
100
AcDbEntity
  8
0
 62
     0
100
AcDbLine
 10
-422.2999999999991
 20
-237.5428968988344
 30
0.0
 11
-356.8309710141839
 21
-193.8969890261342
 31
0.0
  0
LINE
  5
2D13
330
324B
100
AcDbEntity
  8
0
 62
     0
100
AcDbLine
 10
-422.3000000000029
 20
-234.5429303634173
 30
0.0
 11
-361.3309323080721
 21
-193.8969890261324
 31
0.0
  0
LINE
  5
2D14
330
324B
100
AcDbEntity
  8
0
 62
     0
100
AcDbLine
 10
-422.3000000000029
 20
-231.5429638280002
 30
0.0
 11
-365.8308936019566
 21
-193.8969890261324
 31
0.0
  0
LINE
  5
2D15
330
324B
100
AcDbEntity
  8
0
 62
     0
100
AcDbLine
 10
-422.3000000000029
 20
-228.5429972925868
 30
0.0
 11
-370.3308548958375
 21
-193.8969890261324
 31
0.0
  0
LINE
  5
2D16
330
324B
100
AcDbEntity
  8
0
 62
     0
100
AcDbLine
 10
-422.2999999999991
 20
-225.5430307571696
 30
0.0
 11
-374.8308161897258
 21
-193.8969890261342
 31
0.0
  0
LINE
  5
2D17
330
324B
100
AcDbEntity
  8
0
 62
     0
100
AcDbLine
 10
-422.3000000000029
 20
-222.5430642217525
 30
0.0
 11
-379.3307774836137
 21
-193.8969890261342
 31
0.0
  0
LINE
  5
2D18
330
324B
100
AcDbEntity
  8
0
 62
     0
100
AcDbLine
 10
-422.3000000000029
 20
-219.5430976863372
 30
0.0
 11
-383.8307387774985
 21
-193.8969890261342
 31
0.0
  0
LINE
  5
2D19
330
324B
100
AcDbEntity
  8
0
 62
     0
100
AcDbLine
 10
-422.2999999999991
 20
-216.5431311509201
 30
0.0
 11
-388.3307000713794
 21
-193.8969890261324
 31
0.0
  0
LINE
  5
2D1A
330
324B
100
AcDbEntity
  8
0
 62
     0
100
AcDbLine
 10
-422.3000000000029
 20
-213.543164615503
 30
0.0
 11
-392.8306613652712
 21
-193.8969890261324
 31
0.0
  0
LINE
  5
2D1B
330
324B
100
AcDbEntity
  8
0
 62
     0
100
AcDbLine
 10
-422.3000000000029
 20
-210.5431980800877
 30
0.0
 11
-397.3306226591557
 21
-193.8969890261342
 31
0.0
  0
LINE
  5
2D1C
330
324B
100
AcDbEntity
  8
0
 62
     0
100
AcDbLine
 10
-422.3000000000029
 20
-207.5432315446724
 30
0.0
 11
-401.8305839530401
 21
-193.8969890261342
 31
0.0
  0
LINE
  5
2D1D
330
324B
100
AcDbEntity
  8
0
 62
     0
100
AcDbLine
 10
-422.2999999999991
 20
-204.5432650092571
 30
0.0
 11
-406.3305452469211
 21
-193.8969890261324
 31
0.0
  0
LINE
  5
2D1E
330
324B
100
AcDbEntity
  8
0
 62
     0
100
AcDbLine
 10
-422.3000000000029
 20
-201.5432984738382
 30
0.0
 11
-410.8305065408092
 21
-193.8969890261324
 31
0.0
  0
LINE
  5
2D1F
330
324B
100
AcDbEntity
  8
0
 62
     0
100
AcDbLine
 10
-422.3000000000029
 20
-198.5433319384247
 30
0.0
 11
-415.3304678346976
 21
-193.8969890261342
 31
0.0
  0
LINE
  5
2D20
330
324B
100
AcDbEntity
  8
0
 62
     0
100
AcDbLine
 10
-422.2999999999991
 20
-195.5433654030056
 30
0.0
 11
-419.8304291285785
 21
-193.8969890261324
 31
0.0
  0
ENDBLK
  5
2D21
330
324B
100
AcDbEntity
  8
0
100
AcDbBlockEnd
  0
BLOCK
  5
324E
330
324D
100
AcDbEntity
  8
0
100
AcDbBlockBegin
  2
*X23
 70
     1
 10
0.0
 20
0.0
 30
0.0
  3
*X23
  1

  0
LINE
  5
2D24
330
324D
100
AcDbEntity
  8
0
 62
     0
100
AcDbLine
 10
-422.2999999999936
 20
-1130.140255207142
 30
0.0
 11
-418.6339173417763
 21
-1132.584304071665
 31
0.0
  0
LINE
  5
2D25
330
324D
100
AcDbEntity
  8
0
 62
     0
100
AcDbLine
 10
-422.2999999999919
 20
-1127.140288671729
 30
0.0
 11
-414.1339560478862
 21
-1132.584304071671
 31
0.0
  0
LINE
  5
2D26
330
324D
100
AcDbEntity
  8
0
 62
     0
100
AcDbLine
 10
-422.2999999999936
 20
-1124.140322136311
 30
0.0
 11
-409.6339947540053
 21
-1132.584304071668
 31
0.0
  0
LINE
  5
2D27
330
324D
100
AcDbEntity
  8
0
 62
     0
100
AcDbLine
 10
-422.2999999999936
 20
-1121.140355600895
 30
0.0
 11
-405.1340334601173
 21
-1132.584304071668
 31
0.0
  0
LINE
  5
2D28
330
324D
100
AcDbEntity
  8
0
 62
     0
100
AcDbLine
 10
-422.2999999999936
 20
-1118.140389065478
 30
0.0
 11
-400.6340721662363
 21
-1132.584304071666
 31
0.0
  0
LINE
  5
2D29
330
324D
100
AcDbEntity
  8
0
 62
     0
100
AcDbLine
 10
-422.2999999999936
 20
-1115.140422530065
 30
0.0
 11
-396.1341108723482
 21
-1132.584304071669
 31
0.0
  0
LINE
  5
2D2A
330
324D
100
AcDbEntity
  8
0
 62
     0
100
AcDbLine
 10
-422.2999999999936
 20
-1112.140455994647
 30
0.0
 11
-391.6341495784636
 21
-1132.584304071669
 31
0.0
  0
LINE
  5
2D2B
330
324D
100
AcDbEntity
  8
0
 62
     0
100
AcDbLine
 10
-422.2999999999936
 20
-1109.14048945923
 30
0.0
 11
-387.1341882845792
 21
-1132.584304071666
 31
0.0
  0
LINE
  5
2D2C
330
324D
100
AcDbEntity
  8
0
 62
     0
100
AcDbLine
 10
-422.2999999999919
 20
-1106.140522923814
 30
0.0
 11
-382.634226990689
 21
-1132.584304071668
 31
0.0
  0
LINE
  5
2D2D
330
324D
100
AcDbEntity
  8
0
 62
     0
100
AcDbLine
 10
-422.2999999999936
 20
-1103.140556388396
 30
0.0
 11
-378.1342656968063
 21
-1132.584304071666
 31
0.0
  0
LINE
  5
2D2E
330
324D
100
AcDbEntity
  8
0
 62
     0
100
AcDbLine
 10
-422.2999999999919
 20
-1100.140589852983
 30
0.0
 11
-373.63430440292
 21
-1132.584304071669
 31
0.0
  0
LINE
  5
2D2F
330
324D
100
AcDbEntity
  8
0
 62
     0
100
AcDbLine
 10
-422.2999999999936
 20
-1097.140623317566
 30
0.0
 11
-369.1343431090372
 21
-1132.584304071667
 31
0.0
  0
LINE
  5
2D30
330
324D
100
AcDbEntity
  8
0
 62
     0
100
AcDbLine
 10
-422.2999999999936
 20
-1094.140656782149
 30
0.0
 11
-364.6343818151472
 21
-1132.584304071669
 31
0.0
  0
LINE
  5
2D31
330
324D
100
AcDbEntity
  8
0
 62
     0
100
AcDbLine
 10
-422.2999999999919
 20
-1091.140690246731
 30
0.0
 11
-360.1344205212626
 21
-1132.584304071666
 31
0.0
  0
LINE
  5
2D32
330
324D
100
AcDbEntity
  8
0
 62
     0
100
AcDbLine
 10
-422.2999999999936
 20
-1088.140723711319
 30
0.0
 11
-355.6344592273782
 21
-1132.58430407167
 31
0.0
  0
LINE
  5
2D33
330
324D
100
AcDbEntity
  8
0
 62
     0
100
AcDbLine
 10
-422.2999999999919
 20
-1085.140757175902
 30
0.0
 11
-351.1344979334899
 21
-1132.584304071669
 31
0.0
  0
LINE
  5
2D34
330
324D
100
AcDbEntity
  8
0
 62
     0
100
AcDbLine
 10
-422.2999999999936
 20
-1082.140790640484
 30
0.0
 11
-346.634536639609
 21
-1132.584304071667
 31
0.0
  0
LINE
  5
2D35
330
324D
100
AcDbEntity
  8
0
 62
     0
100
AcDbLine
 10
-422.2999999999919
 20
-1079.140824105067
 30
0.0
 11
-342.1345753457208
 21
-1132.584304071667
 31
0.0
  0
LINE
  5
2D36
330
324D
100
AcDbEntity
  8
0
 62
     0
100
AcDbLine
 10
-422.2999999999956
 20
-1076.140857569653
 30
0.0
 11
-337.6346140518399
 21
-1132.584304071668
 31
0.0
  0
LINE
  5
2D37
330
324D
100
AcDbEntity
  8
0
 62
     0
100
AcDbLine
 10
-422.2999999999919
 20
-1073.140891034238
 30
0.0
 11
-333.134652757948
 21
-1132.58430407167
 31
0.0
  0
LINE
  5
2D38
330
324D
100
AcDbEntity
  8
0
 62
     0
100
AcDbLine
 10
-422.2999999999936
 20
-1070.14092449882
 30
0.0
 11
-328.6346914640653
 21
-1132.584304071667
 31
0.0
  0
LINE
  5
2D39
330
324D
100
AcDbEntity
  8
0
 62
     0
100
AcDbLine
 10
-422.2999999999936
 20
-1067.140957963403
 30
0.0
 11
-324.1347301701789
 21
-1132.584304071667
 31
0.0
  0
LINE
  5
2D3A
330
324D
100
AcDbEntity
  8
0
 62
     0
100
AcDbLine
 10
-422.2999999999936
 20
-1064.140991427989
 30
0.0
 11
-319.6347688762926
 21
-1132.584304071671
 31
0.0
  0
LINE
  5
2D3B
330
324D
100
AcDbEntity
  8
0
 62
     0
100
AcDbLine
 10
-422.2999999999936
 20
-1061.141024892572
 30
0.0
 11
-315.134807582408
 21
-1132.58430407167
 31
0.0
  0
LINE
  5
2D3C
330
324D
100
AcDbEntity
  8
0
 62
     0
100
AcDbLine
 10
-422.2999999999936
 20
-1058.141058357156
 30
0.0
 11
-310.6348462885235
 21
-1132.584304071668
 31
0.0
  0
LINE
  5
2D3D
330
324D
100
AcDbEntity
  8
0
 62
     0
100
AcDbLine
 10
-422.2999999999936
 20
-1055.141091821738
 30
0.0
 11
-306.1348849946352
 21
-1132.584304071667
 31
0.0
  0
LINE
  5
2D3E
330
324D
100
AcDbEntity
  8
0
 62
     0
100
AcDbLine
 10
-422.2999999999936
 20
-1052.141125286321
 30
0.0
 11
-301.6349237007507
 21
-1132.584304071667
 31
0.0
  0
LINE
  5
2D3F
330
324D
100
AcDbEntity
  8
0
 62
     0
100
AcDbLine
 10
-422.2999999999936
 20
-1049.141158750906
 30
0.0
 11
-297.1349624068643
 21
-1132.584304071671
 31
0.0
  0
LINE
  5
2D40
330
324D
100
AcDbEntity
  8
0
 62
     0
100
AcDbLine
 10
-422.2999999999936
 20
-1046.141192215491
 30
0.0
 11
-292.6350011129816
 21
-1132.584304071668
 31
0.0
  0
LINE
  5
2D41
330
324D
100
AcDbEntity
  8
0
 62
     0
100
AcDbLine
 10
-422.2999999999936
 20
-1043.141225680072
 30
0.0
 11
-288.1350398190934
 21
-1132.584304071668
 31
0.0
  0
LINE
  5
2D42
330
324D
100
AcDbEntity
  8
0
 62
     0
100
AcDbLine
 10
-422.2999999999936
 20
-1040.141259144658
 30
0.0
 11
-283.6350785252089
 21
-1132.584304071668
 31
0.0
  0
LINE
  5
2D43
330
324D
100
AcDbEntity
  8
0
 62
     0
100
AcDbLine
 10
-422.2999999999936
 20
-1037.141292609243
 30
0.0
 11
-279.1351172313243
 21
-1132.584304071669
 31
0.0
  0
LINE
  5
2D44
330
324D
100
AcDbEntity
  8
0
 62
     0
100
AcDbLine
 10
-422.2999999999919
 20
-1034.141326073826
 30
0.0
 11
-274.6351559374379
 21
-1132.584304071669
 31
0.0
  0
LINE
  5
2D45
330
324D
100
AcDbEntity
  8
0
 62
     0
100
AcDbLine
 10
-422.2999999999936
 20
-1031.141359538409
 30
0.0
 11
-270.1351946435516
 21
-1132.584304071668
 31
0.0
  0
LINE
  5
2D46
330
324D
100
AcDbEntity
  8
0
 62
     0
100
AcDbLine
 10
-422.2999999999919
 20
-1028.141393002992
 30
0.0
 11
-265.6352333496652
 21
-1132.584304071668
 31
0.0
  0
LINE
  5
2D47
330
324D
100
AcDbEntity
  8
0
 62
     0
100
AcDbLine
 10
-422.2999999999936
 20
-1025.141426467579
 30
0.0
 11
-261.1352720557825
 21
-1132.584304071669
 31
0.0
  0
LINE
  5
2D48
330
324D
100
AcDbEntity
  8
0
 62
     0
100
AcDbLine
 10
-422.2999999999936
 20
-1022.141459932161
 30
0.0
 11
-256.6353107618925
 21
-1132.584304071671
 31
0.0
  0
LINE
  5
2D49
330
324D
100
AcDbEntity
  8
0
 62
     0
100
AcDbLine
 10
-422.2999999999919
 20
-1019.141493396745
 30
0.0
 11
-252.1353494680097
 21
-1132.584304071669
 31
0.0
  0
LINE
  5
2D4A
330
324D
100
AcDbEntity
  8
0
 62
     0
100
AcDbLine
 10
-422.2999999999936
 20
-1016.141526861327
 30
0.0
 11
-247.6353881741234
 21
-1132.584304071668
 31
0.0
  0
LINE
  5
2D4B
330
324D
100
AcDbEntity
  8
0
 62
     0
100
AcDbLine
 10
-422.2999999999919
 20
-1013.141560325912
 30
0.0
 11
-243.1354268802388
 21
-1132.584304071666
 31
0.0
  0
LINE
  5
2D4C
330
324D
100
AcDbEntity
  8
0
 62
     0
100
AcDbLine
 10
-422.2999999999936
 20
-1010.141593790497
 30
0.0
 11
-238.6354655863542
 21
-1132.584304071669
 31
0.0
  0
LINE
  5
2D4D
330
324D
100
AcDbEntity
  8
0
 62
     0
100
AcDbLine
 10
-422.2999999999919
 20
-1007.141627255081
 30
0.0
 11
-234.1355042924679
 21
-1132.584304071669
 31
0.0
  0
LINE
  5
2D4E
330
324D
100
AcDbEntity
  8
0
 62
     0
100
AcDbLine
 10
-422.2999999999936
 20
-1004.141660719663
 30
0.0
 11
-229.6355429985851
 21
-1132.584304071667
 31
0.0
  0
LINE
  5
2D4F
330
324D
100
AcDbEntity
  8
0
 62
     0
100
AcDbLine
 10
-422.2999999999936
 20
-1001.141694184246
 30
0.0
 11
-225.135581704697
 21
-1132.584304071666
 31
0.0
  0
LINE
  5
2D50
330
324D
100
AcDbEntity
  8
0
 62
     0
100
AcDbLine
 10
-422.2999999999919
 20
-998.1417276488324
 30
0.0
 11
-220.6356204108105
 21
-1132.58430407167
 31
0.0
  0
LINE
  5
2D51
330
324D
100
AcDbEntity
  8
0
 62
     0
100
AcDbLine
 10
-422.2999999999936
 20
-995.1417611134164
 30
0.0
 11
-216.135659116926
 21
-1132.58430407167
 31
0.0
  0
LINE
  5
2D52
330
324D
100
AcDbEntity
  8
0
 62
     0
100
AcDbLine
 10
-422.2999999999919
 20
-992.1417945779992
 30
0.0
 11
-211.6356978230415
 21
-1132.584304071667
 31
0.0
  0
LINE
  5
2D53
330
324D
100
AcDbEntity
  8
0
 62
     0
100
AcDbLine
 10
-422.2999999999936
 20
-989.1418280425812
 30
0.0
 11
-207.1357365291533
 21
-1132.584304071669
 31
0.0
  0
LINE
  5
2D54
330
324D
100
AcDbEntity
  8
0
 62
     0
100
AcDbLine
 10
-422.2999999999919
 20
-986.1418615071688
 30
0.0
 11
-202.6357752352687
 21
-1132.58430407167
 31
0.0
  0
LINE
  5
2D55
330
324D
100
AcDbEntity
  8
0
 62
     0
100
AcDbLine
 10
-422.2999999999919
 20
-983.1418949717509
 30
0.0
 11
-198.1358139413823
 21
-1132.58430407167
 31
0.0
  0
LINE
  5
2D56
330
324D
100
AcDbEntity
  8
0
 62
     0
100
AcDbLine
 10
-422.2999999999936
 20
-980.1419284363346
 30
0.0
 11
-193.6358526474996
 21
-1132.584304071667
 31
0.0
  0
LINE
  5
2D57
330
324D
100
AcDbEntity
  8
0
 62
     0
100
AcDbLine
 10
-422.2999999999919
 20
-977.1419619009176
 30
0.0
 11
-189.1358913536096
 21
-1132.584304071669
 31
0.0
  0
LINE
  5
2D58
330
324D
100
AcDbEntity
  8
0
 62
     0
100
AcDbLine
 10
-422.2999999999936
 20
-974.1419953655006
 30
0.0
 11
-184.6359300597269
 21
-1132.584304071667
 31
0.0
  0
LINE
  5
2D59
330
324D
100
AcDbEntity
  8
0
 62
     0
100
AcDbLine
 10
-422.2999999999919
 20
-971.1420288300868
 30
0.0
 11
-180.1359687658404
 21
-1132.58430407167
 31
0.0
  0
LINE
  5
2D5A
330
324D
100
AcDbEntity
  8
0
 62
     0
100
AcDbLine
 10
-422.2999999999936
 20
-968.1420622946687
 30
0.0
 11
-175.6360074719523
 21
-1132.58430407167
 31
0.0
  0
LINE
  5
2D5B
330
324D
100
AcDbEntity
  8
0
 62
     0
100
AcDbLine
 10
-422.2999999999919
 20
-965.1420957592536
 30
0.0
 11
-171.1360461780714
 21
-1132.584304071668
 31
0.0
  0
LINE
  5
2D5C
330
324D
100
AcDbEntity
  8
0
 62
     0
100
AcDbLine
 10
-422.2999999999919
 20
-962.1421292238364
 30
0.0
 11
-166.6360848841832
 21
-1132.584304071667
 31
0.0
  0
LINE
  5
2D5D
330
324D
100
AcDbEntity
  8
0
 62
     0
100
AcDbLine
 10
-422.2999999999919
 20
-959.142162688423
 30
0.0
 11
-162.1361235903005
 21
-1132.584304071669
 31
0.0
  0
LINE
  5
2D5E
330
324D
100
AcDbEntity
  8
0
 62
     0
100
AcDbLine
 10
-422.2999999999936
 20
-956.1421961530045
 30
0.0
 11
-157.6361622964105
 21
-1132.584304071671
 31
0.0
  0
LINE
  5
2D5F
330
324D
100
AcDbEntity
  8
0
 62
     0
100
AcDbLine
 10
-422.2999999999919
 20
-953.1422296175888
 30
0.0
 11
-153.1362010025295
 21
-1132.584304071668
 31
0.0
  0
LINE
  5
2D60
330
324D
100
AcDbEntity
  8
0
 62
     0
100
AcDbLine
 10
-422.2999999999936
 20
-950.1422630821704
 30
0.0
 11
-148.6362397086413
 21
-1132.584304071668
 31
0.0
  0
LINE
  5
2D61
330
324D
100
AcDbEntity
  8
0
 62
     0
100
AcDbLine
 10
-422.2999999999919
 20
-947.142296546758
 30
0.0
 11
-144.136278414755
 21
-1132.584304071671
 31
0.0
  0
LINE
  5
2D62
330
324D
100
AcDbEntity
  8
0
 62
     0
100
AcDbLine
 10
-422.2999999999936
 20
-944.1423300113408
 30
0.0
 11
-139.6363171208686
 21
-1132.584304071671
 31
0.0
  0
LINE
  5
2D63
330
324D
100
AcDbEntity
  8
0
 62
     0
100
AcDbLine
 10
-422.2999999999919
 20
-941.1423634759239
 30
0.0
 11
-135.1363558269858
 21
-1132.584304071668
 31
0.0
  0
LINE
  5
2D64
330
324D
100
AcDbEntity
  8
0
 62
     0
100
AcDbLine
 10
-422.2999999999936
 20
-938.1423969405068
 30
0.0
 11
-130.6363945330995
 21
-1132.584304071668
 31
0.0
  0
LINE
  5
2D65
330
324D
100
AcDbEntity
  8
0
 62
     0
100
AcDbLine
 10
-422.2999999999936
 20
-935.1424304050889
 30
0.0
 11
-126.1364332392131
 21
-1132.584304071668
 31
0.0
  0
LINE
  5
2D66
330
324D
100
AcDbEntity
  8
0
 62
     0
100
AcDbLine
 10
-422.2999999999919
 20
-932.1424638696772
 30
0.0
 11
-121.6364719453286
 21
-1132.584304071669
 31
0.0
  0
LINE
  5
2D67
330
324D
100
AcDbEntity
  8
0
 62
     0
100
AcDbLine
 10
-422.2999999999936
 20
-929.1424973342591
 30
0.0
 11
-117.136510651444
 21
-1132.584304071669
 31
0.0
  0
LINE
  5
2D68
330
324D
100
AcDbEntity
  8
0
 62
     0
100
AcDbLine
 10
-422.2999999999919
 20
-926.142530798843
 30
0.0
 11
-112.6365493575595
 21
-1132.584304071666
 31
0.0
  0
LINE
  5
2D69
330
324D
100
AcDbEntity
  8
0
 62
     0
100
AcDbLine
 10
-422.2999999999936
 20
-923.1425642634247
 30
0.0
 11
-108.1365880636713
 21
-1132.584304071668
 31
0.0
  0
LINE
  5
2D6A
330
324D
100
AcDbEntity
  8
0
 62
     0
100
AcDbLine
 10
-422.2999999999919
 20
-920.1425977280125
 30
0.0
 11
-103.6366267697867
 21
-1132.58430407167
 31
0.0
  0
LINE
  5
2D6B
330
324D
100
AcDbEntity
  8
0
 62
     0
100
AcDbLine
 10
-422.2999999999936
 20
-917.1426311925952
 30
0.0
 11
-99.13666547590219
 21
-1132.584304071669
 31
0.0
  0
LINE
  5
2D6C
330
324D
100
AcDbEntity
  8
0
 62
     0
100
AcDbLine
 10
-422.2999999999919
 20
-914.1426646571781
 30
0.0
 11
-94.63670418201401
 21
-1132.584304071669
 31
0.0
  0
LINE
  5
2D6D
330
324D
100
AcDbEntity
  8
0
 62
     0
100
AcDbLine
 10
-422.2999999999919
 20
-911.142698121761
 30
0.0
 11
-90.13674288812763
 21
-1132.584304071669
 31
0.0
  0
LINE
  5
2D6E
330
324D
100
AcDbEntity
  8
0
 62
     0
100
AcDbLine
 10
-422.2999999999919
 20
-908.1427315863475
 30
0.0
 11
-85.6367815942449
 21
-1132.58430407167
 31
0.0
  0
LINE
  5
2D6F
330
324D
100
AcDbEntity
  8
0
 62
     0
100
AcDbLine
 10
-422.2999999999919
 20
-905.1427650509298
 30
0.0
 11
-81.1368203003585
 21
-1132.58430407167
 31
0.0
  0
LINE
  5
2D70
330
324D
100
AcDbEntity
  8
0
 62
     0
100
AcDbLine
 10
-422.2999999999936
 20
-902.1427985155124
 30
0.0
 11
-76.63685900647216
 21
-1132.584304071669
 31
0.0
  0
LINE
  5
2D71
330
324D
100
AcDbEntity
  8
0
 62
     0
100
AcDbLine
 10
-422.2999999999919
 20
-899.142831980097
 30
0.0
 11
-72.13689771258579
 21
-1132.584304071669
 31
0.0
  0
LINE
  5
2D72
330
324D
100
AcDbEntity
  8
0
 62
     0
100
AcDbLine
 10
-422.2999999999919
 20
-896.1428654446788
 30
0.0
 11
-67.63693641870123
 21
-1132.584304071666
 31
0.0
  0
LINE
  5
2D73
330
324D
100
AcDbEntity
  8
0
 62
     0
100
AcDbLine
 10
-422.2999999999936
 20
-893.1428989092655
 30
0.0
 11
-63.13697512481667
 21
-1132.58430407167
 31
0.0
  0
LINE
  5
2D74
330
324D
100
AcDbEntity
  8
0
 62
     0
100
AcDbLine
 10
-422.2999999999919
 20
-890.1429323738485
 30
0.0
 11
-58.63701383092848
 21
-1132.58430407167
 31
0.0
  0
LINE
  5
2D75
330
324D
100
AcDbEntity
  8
0
 62
     0
100
AcDbLine
 10
-422.2999999999919
 20
-887.1429658384331
 30
0.0
 11
-54.13705253704756
 21
-1132.584304071667
 31
0.0
  0
LINE
  5
2D76
330
324D
100
AcDbEntity
  8
0
 62
     0
100
AcDbLine
 10
-422.2999999999919
 20
-884.1429993030152
 30
0.0
 11
-49.63709124315936
 21
-1132.584304071667
 31
0.0
  0
LINE
  5
2D77
330
324D
100
AcDbEntity
  8
0
 62
     0
100
AcDbLine
 10
-422.2999999999936
 20
-881.1430327676017
 30
0.0
 11
-45.13712994927481
 21
-1132.584304071671
 31
0.0
  0
LINE
  5
2D78
330
324D
100
AcDbEntity
  8
0
 62
     0
100
AcDbLine
 10
-422.2999999999919
 20
-878.1430662321843
 30
0.0
 11
-40.63716865538663
 21
-1132.58430407167
 31
0.0
  0
LINE
  5
2D79
330
324D
100
AcDbEntity
  8
0
 62
     0
100
AcDbLine
 10
-422.2999999999919
 20
-875.1430996967673
 30
0.0
 11
-36.1372073615039
 21
-1132.584304071668
 31
0.0
  0
LINE
  5
2D7A
330
324D
100
AcDbEntity
  8
0
 62
     0
100
AcDbLine
 10
-422.2999999999919
 20
-872.1431331613503
 30
0.0
 11
-31.63724606761753
 21
-1132.584304071667
 31
0.0
  0
LINE
  5
2D7B
330
324D
100
AcDbEntity
  8
0
 62
     0
100
AcDbLine
 10
-422.2999999999919
 20
-869.143166625937
 30
0.0
 11
-27.13728477373115
 21
-1132.584304071671
 31
0.0
  0
LINE
  5
2D7C
330
324D
100
AcDbEntity
  8
0
 62
     0
100
AcDbLine
 10
-422.2999999999919
 20
-866.1432000905206
 30
0.0
 11
-22.6373234798466
 21
-1132.584304071671
 31
0.0
  0
LINE
  5
2D7D
330
324D
100
AcDbEntity
  8
0
 62
     0
100
AcDbLine
 10
-422.2999999999919
 20
-863.1432335551023
 30
0.0
 11
-18.13736218596203
 21
-1132.584304071668
 31
0.0
  0
LINE
  5
2D7E
330
324D
100
AcDbEntity
  8
0
 62
     0
100
AcDbLine
 10
-422.2999999999919
 20
-860.1432670196855
 30
0.0
 11
-13.63740089207385
 21
-1132.584304071668
 31
0.0
  0
LINE
  5
2D7F
330
324D
100
AcDbEntity
  8
0
 62
     0
100
AcDbLine
 10
-422.2999999999919
 20
-857.1433004842681
 30
0.0
 11
-9.137439598189304
 21
-1132.584304071667
 31
0.0
  0
LINE
  5
2D80
330
324D
100
AcDbEntity
  8
0
 62
     0
100
AcDbLine
 10
-422.2999999999919
 20
-854.1433339488554
 30
0.0
 11
-4.63747830430475
 21
-1132.584304071669
 31
0.0
  0
LINE
  5
2D81
330
324D
100
AcDbEntity
  8
0
 62
     0
100
AcDbLine
 10
-422.2999999999919
 20
-851.1433674134387
 30
0.0
 11
-0.137517010420197
 21
-1132.584304071669
 31
0.0
  0
LINE
  5
2D82
330
324D
100
AcDbEntity
  8
0
 62
     0
100
AcDbLine
 10
-422.2999999999936
 20
-848.1434008780206
 30
0.0
 11
4.362444283467993
 21
-1132.584304071668
 31
0.0
  0
LINE
  5
2D83
330
324D
100
AcDbEntity
  8
0
 62
     0
100
AcDbLine
 10
-422.2999999999902
 20
-845.1434343426043
 30
0.0
 11
8.862405577354364
 21
-1132.584304071668
 31
0.0
  0
LINE
  5
2D84
330
324D
100
AcDbEntity
  8
0
 62
     0
100
AcDbLine
 10
-422.2999999999936
 20
-842.14346780719
 30
0.0
 11
13.3623668712371
 21
-1132.584304071669
 31
0.0
  0
LINE
  5
2D85
330
324D
100
AcDbEntity
  8
0
 62
     0
100
AcDbLine
 10
-422.2999999999902
 20
-839.1435012717748
 30
0.0
 11
17.86232816512347
 21
-1132.584304071669
 31
0.0
  0
LINE
  5
2D86
330
324D
100
AcDbEntity
  8
0
 62
     0
100
AcDbLine
 10
-422.2999999999919
 20
-836.1435347363576
 30
0.0
 11
22.36228945900984
 21
-1132.584304071669
 31
0.0
  0
LINE
  5
2D87
330
324D
100
AcDbEntity
  8
0
 62
     0
100
AcDbLine
 10
-422.2999999999902
 20
-833.1435682009406
 30
0.0
 11
26.86225075289622
 21
-1132.584304071668
 31
0.0
  0
LINE
  5
2D88
330
324D
100
AcDbEntity
  8
0
 62
     0
100
AcDbLine
 10
-422.2999999999936
 20
-830.143601665526
 30
0.0
 11
31.36221204677895
 21
-1132.58430407167
 31
0.0
  0
LINE
  5
2D89
330
324D
100
AcDbEntity
  8
0
 62
     0
100
AcDbLine
 10
-422.2999999999919
 20
-827.1436351301089
 30
0.0
 11
35.86217334066896
 21
-1132.584304071672
 31
0.0
  0
LINE
  5
2D8A
330
324D
100
AcDbEntity
  8
0
 62
     0
100
AcDbLine
 10
-422.2999999999919
 20
-824.1436685946919
 30
0.0
 11
40.36213463455168
 21
-1132.584304071669
 31
0.0
  0
LINE
  5
2D8B
330
324D
100
AcDbEntity
  8
0
 62
     0
100
AcDbLine
 10
-422.2999999999919
 20
-821.1437020592757
 30
0.0
 11
44.86209592843804
 21
-1132.584304071669
 31
0.0
  0
LINE
  5
2D8C
330
324D
100
AcDbEntity
  8
0
 62
     0
100
AcDbLine
 10
-422.2999999999919
 20
-818.1437355238582
 30
0.0
 11
49.36205722232443
 21
-1132.584304071668
 31
0.0
  0
LINE
  5
2D8D
330
324D
100
AcDbEntity
  8
0
 62
     0
100
AcDbLine
 10
-422.2999999999936
 20
-815.1437689884438
 30
0.0
 11
53.86201851620717
 21
-1132.58430407167
 31
0.0
  0
LINE
  5
2D8E
330
324D
100
AcDbEntity
  8
0
 62
     0
100
AcDbLine
 10
-422.2999999999919
 20
-812.1438024530279
 30
0.0
 11
58.36197981009354
 21
-1132.584304071669
 31
0.0
  0
LINE
  5
2D8F
330
324D
100
AcDbEntity
  8
0
 62
     0
100
AcDbLine
 10
-422.2999999999919
 20
-809.1438359176096
 30
0.0
 11
62.8619411039781
 21
-1132.584304071667
 31
0.0
  0
LINE
  5
2D90
330
324D
100
AcDbEntity
  8
0
 62
     0
100
AcDbLine
 10
-422.2999999999919
 20
-806.1438693821946
 30
0.0
 11
67.36190239786629
 21
-1132.584304071669
 31
0.0
  0
LINE
  5
2D91
330
324D
100
AcDbEntity
  8
0
 62
     0
100
AcDbLine
 10
-422.2999999999919
 20
-803.1439028467799
 30
0.0
 11
71.86186369175084
 21
-1132.58430407167
 31
0.0
  0
LINE
  5
2D92
330
324D
100
AcDbEntity
  8
0
 62
     0
100
AcDbLine
 10
-422.2999999999919
 20
-800.1439363113641
 30
0.0
 11
76.36182498563539
 21
-1132.58430407167
 31
0.0
  0
LINE
  5
2D93
330
324D
100
AcDbEntity
  8
0
 62
     0
100
AcDbLine
 10
-422.2999999999919
 20
-797.1439697759459
 30
0.0
 11
80.86178627952358
 21
-1132.58430407167
 31
0.0
  0
LINE
  5
2D94
330
324D
100
AcDbEntity
  8
0
 62
     0
100
AcDbLine
 10
-422.2999999999919
 20
-794.144003240529
 30
0.0
 11
85.36174757340813
 21
-1132.584304071669
 31
0.0
  0
LINE
  5
2D95
330
324D
100
AcDbEntity
  8
0
 62
     0
100
AcDbLine
 10
-422.2999999999919
 20
-791.1440367051164
 30
0.0
 11
89.86170886729269
 21
-1132.584304071671
 31
0.0
  0
LINE
  5
2D96
330
324D
100
AcDbEntity
  8
0
 62
     0
100
AcDbLine
 10
-422.2999999999902
 20
-788.1440701696988
 30
0.0
 11
94.36167016117906
 21
-1132.58430407167
 31
0.0
  0
LINE
  5
2D97
330
324D
100
AcDbEntity
  8
0
 62
     0
100
AcDbLine
 10
-422.2999999999919
 20
-785.1441036342819
 30
0.0
 11
98.86163145506543
 21
-1132.58430407167
 31
0.0
  0
LINE
  5
2D98
330
324D
100
AcDbEntity
  8
0
 62
     0
100
AcDbLine
 10
-422.2999999999919
 20
-782.1441370988641
 30
0.0
 11
103.3615927489481
 21
-1132.584304071667
 31
0.0
  0
LINE
  5
2D99
330
324D
100
AcDbEntity
  8
0
 62
     0
100
AcDbLine
 10
-422.2999999999919
 20
-779.1441705634479
 30
0.0
 11
107.8615540428345
 21
-1132.584304071667
 31
0.0
  0
LINE
  5
2D9A
330
324D
100
AcDbEntity
  8
0
 62
     0
100
AcDbLine
 10
-422.2999999999919
 20
-776.1442040280334
 30
0.0
 11
112.3615153367209
 21
-1132.584304071671
 31
0.0
  0
LINE
  5
2D9B
330
324D
100
AcDbEntity
  8
0
 62
     0
100
AcDbLine
 10
-422.2999999999919
 20
-773.1442374926172
 30
0.0
 11
116.8614766306091
 21
-1132.58430407167
 31
0.0
  0
LINE
  5
2D9C
330
324D
100
AcDbEntity
  8
0
 62
     0
100
AcDbLine
 10
-422.2999999999919
 20
-770.1442709572002
 30
0.0
 11
121.36143792449
 21
-1132.584304071668
 31
0.0
  0
LINE
  5
2D9D
330
324D
100
AcDbEntity
  8
0
 62
     0
100
AcDbLine
 10
-422.2999999999919
 20
-767.1443044217832
 30
0.0
 11
125.8613992183782
 21
-1132.584304071668
 31
0.0
  0
LINE
  5
2D9E
330
324D
100
AcDbEntity
  8
0
 62
     0
100
AcDbLine
 10
-422.2999999999919
 20
-764.1443378863696
 30
0.0
 11
130.3613605122627
 21
-1132.584304071671
 31
0.0
  0
LINE
  5
2D9F
330
324D
100
AcDbEntity
  8
0
 62
     0
100
AcDbLine
 10
-422.2999999999919
 20
-761.1443713509522
 30
0.0
 11
134.8613218061509
 21
-1132.584304071671
 31
0.0
  0
LINE
  5
2DA0
330
324D
100
AcDbEntity
  8
0
 62
     0
100
AcDbLine
 10
-422.2999999999919
 20
-758.1444048155362
 30
0.0
 11
139.3612831000318
 21
-1132.584304071668
 31
0.0
  0
LINE
  5
2DA1
330
324D
100
AcDbEntity
  8
0
 62
     0
100
AcDbLine
 10
-422.2999999999919
 20
-755.1444382801188
 30
0.0
 11
143.8612443939218
 21
-1132.58430407167
 31
0.0
  0
LINE
  5
2DA2
330
324D
100
AcDbEntity
  8
0
 62
     0
100
AcDbLine
 10
-422.2999999999902
 20
-752.1444717447058
 30
0.0
 11
148.3612056878064
 21
-1132.584304071672
 31
0.0
  0
LINE
  5
2DA3
330
324D
100
AcDbEntity
  8
0
 62
     0
100
AcDbLine
 10
-422.2999999999919
 20
-749.1445052092874
 30
0.0
 11
152.8611669816928
 21
-1132.584304071671
 31
0.0
  0
LINE
  5
2DA4
330
324D
100
AcDbEntity
  8
0
 62
     0
100
AcDbLine
 10
-422.2999999999902
 20
-746.1445386738724
 30
0.0
 11
157.3611282755755
 21
-1132.584304071669
 31
0.0
  0
LINE
  5
2DA5
330
324D
100
AcDbEntity
  8
0
 62
     0
100
AcDbLine
 10
-422.2999999999919
 20
-743.1445721384542
 30
0.0
 11
161.8610895694619
 21
-1132.584304071668
 31
0.0
  0
LINE
  5
2DA6
330
324D
100
AcDbEntity
  8
0
 62
     0
100
AcDbLine
 10
-422.2999999999919
 20
-740.1446056030371
 30
0.0
 11
166.3610508633483
 21
-1132.584304071668
 31
0.0
  0
LINE
  5
2DA7
330
324D
100
AcDbEntity
  8
0
 62
     0
100
AcDbLine
 10
-422.2999999999902
 20
-737.1446390676236
 30
0.0
 11
170.8610121572328
 21
-1132.58430407167
 31
0.0
  0
LINE
  5
2DA8
330
324D
100
AcDbEntity
  8
0
 62
     0
100
AcDbLine
 10
-422.2999999999919
 20
-734.1446725322064
 30
0.0
 11
175.360973451121
 21
-1132.584304071671
 31
0.0
  0
LINE
  5
2DA9
330
324D
100
AcDbEntity
  8
0
 62
     0
100
AcDbLine
 10
-422.2999999999902
 20
-731.1447059967895
 30
0.0
 11
179.8609347450056
 21
-1132.584304071669
 31
0.0
  0
LINE
  5
2DAA
330
324D
100
AcDbEntity
  8
0
 62
     0
100
AcDbLine
 10
-422.2999999999936
 20
-728.1447394613715
 30
0.0
 11
184.36089603889
 21
-1132.584304071668
 31
0.0
  0
LINE
  5
2DAB
330
324D
100
AcDbEntity
  8
0
 62
     0
100
AcDbLine
 10
-422.2999999999902
 20
-725.14477292596
 30
0.0
 11
188.8608573327747
 21
-1132.58430407167
 31
0.0
  0
LINE
  5
2DAC
330
324D
100
AcDbEntity
  8
0
 62
     0
100
AcDbLine
 10
-422.2999999999919
 20
-722.1448063905417
 30
0.0
 11
193.3608186266647
 21
-1132.584304071672
 31
0.0
  0
LINE
  5
2DAD
330
324D
100
AcDbEntity
  8
0
 62
     0
100
AcDbLine
 10
-422.2999999999902
 20
-719.1448398551256
 30
0.0
 11
197.8607799205474
 21
-1132.584304071669
 31
0.0
  0
LINE
  5
2DAE
330
324D
100
AcDbEntity
  8
0
 62
     0
100
AcDbLine
 10
-422.2999999999919
 20
-716.1448733197076
 30
0.0
 11
202.3607412144338
 21
-1132.584304071669
 31
0.0
  0
LINE
  5
2DAF
330
324D
100
AcDbEntity
  8
0
 62
     0
100
AcDbLine
 10
-422.2999999999902
 20
-713.1449067842957
 30
0.0
 11
206.8607025083184
 21
-1132.584304071672
 31
0.0
  0
LINE
  5
2DB0
330
324D
100
AcDbEntity
  8
0
 62
     0
100
AcDbLine
 10
-422.2999999999919
 20
-710.1449402488775
 30
0.0
 11
211.3606638022029
 21
-1132.58430407167
 31
0.0
  0
LINE
  5
2DB1
330
324D
100
AcDbEntity
  8
0
 62
     0
100
AcDbLine
 10
-422.2999999999919
 20
-707.1449737134607
 30
0.0
 11
215.8606250960893
 21
-1132.58430407167
 31
0.0
  0
LINE
  5
2DB2
330
324D
100
AcDbEntity
  8
0
 62
     0
100
AcDbLine
 10
-422.2999999999919
 20
-704.1450071780436
 30
0.0
 11
220.360586389972
 21
-1132.584304071667
 31
0.0
  0
LINE
  5
2DB3
330
324D
100
AcDbEntity
  8
0
 62
     0
100
AcDbLine
 10
-422.2999999999902
 20
-701.1450406426263
 30
0.0
 11
224.860547683862
 21
-1132.584304071669
 31
0.0
  0
LINE
  5
2DB4
330
324D
100
AcDbEntity
  8
0
 62
     0
100
AcDbLine
 10
-422.2999999999919
 20
-698.1450741072141
 30
0.0
 11
229.3605089777448
 21
-1132.58430407167
 31
0.0
  0
LINE
  5
2DB5
330
324D
100
AcDbEntity
  8
0
 62
     0
100
AcDbLine
 10
-422.2999999999919
 20
-695.1451075717958
 30
0.0
 11
233.860470271633
 21
-1132.58430407167
 31
0.0
  0
LINE
  5
2DB6
330
324D
100
AcDbEntity
  8
0
 62
     0
100
AcDbLine
 10
-422.2999999999919
 20
-692.1451410363797
 30
0.0
 11
238.3604315655175
 21
-1132.58430407167
 31
0.0
  0
LINE
  5
2DB7
330
324D
100
AcDbEntity
  8
0
 62
     0
100
AcDbLine
 10
-422.2999999999919
 20
-689.1451745009616
 30
0.0
 11
242.8603928594039
 21
-1132.584304071669
 31
0.0
  0
LINE
  5
2DB8
330
324D
100
AcDbEntity
  8
0
 62
     0
100
AcDbLine
 10
-422.2999999999902
 20
-686.145207965549
 30
0.0
 11
247.3603541532884
 21
-1132.584304071671
 31
0.0
  0
LINE
  5
2DB9
330
324D
100
AcDbEntity
  8
0
 62
     0
100
AcDbLine
 10
-422.2999999999919
 20
-683.1452414301312
 30
0.0
 11
251.8603154471766
 21
-1132.584304071672
 31
0.0
  0
LINE
  5
2DBA
330
324D
100
AcDbEntity
  8
0
 62
     0
100
AcDbLine
 10
-422.2999999999902
 20
-680.1452748947158
 30
0.0
 11
256.3602767410612
 21
-1132.58430407167
 31
0.0
  0
LINE
  5
2DBB
330
324D
100
AcDbEntity
  8
0
 62
     0
100
AcDbLine
 10
-422.2999999999919
 20
-677.1453083592977
 30
0.0
 11
260.8602380349457
 21
-1132.58430407167
 31
0.0
  0
LINE
  5
2DBC
330
324D
100
AcDbEntity
  8
0
 62
     0
100
AcDbLine
 10
-422.2999999999902
 20
-674.1453418238843
 30
0.0
 11
265.3601993288303
 21
-1132.584304071671
 31
0.0
  0
LINE
  5
2DBD
330
324D
100
AcDbEntity
  8
0
 62
     0
100
AcDbLine
 10
-422.2999999999919
 20
-671.1453752884672
 30
0.0
 11
269.8601606227148
 21
-1132.584304071671
 31
0.0
  0
LINE
  5
2DBE
330
324D
100
AcDbEntity
  8
0
 62
     0
100
AcDbLine
 10
-422.2999999999902
 20
-668.1454087530501
 30
0.0
 11
274.3601219166031
 21
-1132.584304071671
 31
0.0
  0
LINE
  5
2DBF
330
324D
100
AcDbEntity
  8
0
 62
     0
100
AcDbLine
 10
-422.2999999999902
 20
-665.1454422176339
 30
0.0
 11
278.8600832104876
 21
-1132.584304071668
 31
0.0
  0
LINE
  5
2DC0
330
324D
100
AcDbEntity
  8
0
 62
     0
100
AcDbLine
 10
-422.2999999999919
 20
-662.1454756822156
 30
0.0
 11
283.3600445043757
 21
-1132.58430407167
 31
0.0
  0
LINE
  5
2DC1
330
324D
100
AcDbEntity
  8
0
 62
     0
100
AcDbLine
 10
-422.2999999999902
 20
-659.1455091468032
 30
0.0
 11
287.8600057982585
 21
-1132.584304071671
 31
0.0
  0
LINE
  5
2DC2
330
324D
100
AcDbEntity
  8
0
 62
     0
100
AcDbLine
 10
-422.2999999999919
 20
-656.1455426113853
 30
0.0
 11
292.3599670921449
 21
-1132.584304071671
 31
0.0
  0
LINE
  5
2DC3
330
324D
100
AcDbEntity
  8
0
 62
     0
100
AcDbLine
 10
-422.2999999999936
 20
-653.1455760759663
 30
0.0
 11
296.8599283860294
 21
-1132.584304071669
 31
0.0
  0
LINE
  5
2DC4
330
324D
100
AcDbEntity
  8
0
 62
     0
100
AcDbLine
 10
-422.2999999999936
 20
-650.1456095405492
 30
0.0
 11
301.3598896799194
 21
-1132.58430407167
 31
0.0
  0
LINE
  5
2DC5
330
324D
100
AcDbEntity
  8
0
 62
     0
100
AcDbLine
 10
-422.2999999999936
 20
-647.1456430051364
 30
0.0
 11
305.8598509738004
 21
-1132.584304071672
 31
0.0
  0
LINE
  5
2DC6
330
324D
100
AcDbEntity
  8
0
 62
     0
100
AcDbLine
 10
-422.2999999999936
 20
-644.1456764697196
 30
0.0
 11
310.3598122676885
 21
-1132.584304071672
 31
0.0
  0
LINE
  5
2DC7
330
324D
100
AcDbEntity
  8
0
 62
     0
100
AcDbLine
 10
-422.2999999999956
 20
-641.1457099343015
 30
0.0
 11
314.8597735615731
 21
-1132.584304071671
 31
0.0
  0
LINE
  5
2DC8
330
324D
100
AcDbEntity
  8
0
 62
     0
100
AcDbLine
 10
-422.2999999999936
 20
-638.1457433988853
 30
0.0
 11
319.3597348554576
 21
-1132.584304071669
 31
0.0
  0
LINE
  5
2DC9
330
324D
100
AcDbEntity
  8
0
 62
     0
100
AcDbLine
 10
-422.2999999999956
 20
-635.1457768634708
 30
0.0
 11
323.8596961493422
 21
-1132.584304071672
 31
0.0
  0
LINE
  5
2DCA
330
324D
100
AcDbEntity
  8
0
 62
     0
100
AcDbLine
 10
-422.2999999999936
 20
-632.1458103280556
 30
0.0
 11
328.3596574432268
 21
-1132.58430407167
 31
0.0
  0
LINE
  5
2DCB
330
324D
100
AcDbEntity
  8
0
 62
     0
100
AcDbLine
 10
-422.2999999999936
 20
-629.1458437926376
 30
0.0
 11
332.8596187371168
 21
-1132.584304071672
 31
0.0
  0
LINE
  5
2DCC
330
324D
100
AcDbEntity
  8
0
 62
     0
100
AcDbLine
 10
-422.2999999999936
 20
-626.1458772572214
 30
0.0
 11
337.3595800309995
 21
-1132.584304071669
 31
0.0
  0
LINE
  5
2DCD
330
324D
100
AcDbEntity
  8
0
 62
     0
100
AcDbLine
 10
-422.2999999999936
 20
-623.145910721807
 30
0.0
 11
341.8595413248859
 21
-1132.584304071672
 31
0.0
  0
LINE
  5
2DCE
330
324D
100
AcDbEntity
  8
0
 62
     0
100
AcDbLine
 10
-422.2999999999956
 20
-620.1459441863899
 30
0.0
 11
346.3595026187722
 21
-1132.584304071672
 31
0.0
  0
LINE
  5
2DCF
330
324D
100
AcDbEntity
  8
0
 62
     0
100
AcDbLine
 10
-422.2999999999936
 20
-617.1459776509728
 30
0.0
 11
350.8594639126586
 21
-1132.584304071672
 31
0.0
  0
LINE
  5
2DD0
330
324D
100
AcDbEntity
  8
0
 62
     0
100
AcDbLine
 10
-422.2999999999936
 20
-614.1460111155565
 30
0.0
 11
355.3594252065432
 21
-1132.584304071669
 31
0.0
  0
LINE
  5
2DD1
330
324D
100
AcDbEntity
  8
0
 62
     0
100
AcDbLine
 10
-422.2999999999936
 20
-611.1460445801395
 30
0.0
 11
359.8593865004259
 21
-1132.584304071668
 31
0.0
  0
LINE
  5
2DD2
330
324D
100
AcDbEntity
  8
0
 62
     0
100
AcDbLine
 10
-422.2999999999936
 20
-608.146078044725
 30
0.0
 11
364.359347794316
 21
-1132.584304071672
 31
0.0
  0
LINE
  5
2DD3
330
324D
100
AcDbEntity
  8
0
 62
     0
100
AcDbLine
 10
-422.2999999999936
 20
-605.1461115093087
 30
0.0
 11
368.8593090881985
 21
-1132.584304071671
 31
0.0
  0
LINE
  5
2DD4
330
324D
100
AcDbEntity
  8
0
 62
     0
100
AcDbLine
 10
-422.2999999999936
 20
-602.1461449738908
 30
0.0
 11
373.359270382085
 21
-1132.58430407167
 31
0.0
  0
LINE
  5
2DD5
330
324D
100
AcDbEntity
  8
0
 62
     0
100
AcDbLine
 10
-422.2999999999956
 20
-599.1461784384745
 30
0.0
 11
377.8592316759714
 21
-1132.584304071671
 31
0.0
  0
LINE
  5
2DD6
330
324D
100
AcDbEntity
  8
0
 62
     0
100
AcDbLine
 10
-422.2999999999936
 20
-596.1462119030612
 30
0.0
 11
382.3591929698578
 21
-1132.584304071672
 31
0.0
  0
LINE
  5
2DD7
330
324D
100
AcDbEntity
  8
0
 62
     0
100
AcDbLine
 10
-422.2999999999936
 20
-593.1462453676439
 30
0.0
 11
386.8591542637423
 21
-1132.584304071672
 31
0.0
  0
LINE
  5
2DD8
330
324D
100
AcDbEntity
  8
0
 62
     0
100
AcDbLine
 10
-422.2999999999936
 20
-590.1462788322267
 30
0.0
 11
391.3591155576268
 21
-1132.58430407167
 31
0.0
  0
LINE
  5
2DD9
330
324D
100
AcDbEntity
  8
0
 62
     0
100
AcDbLine
 10
-422.2999999999956
 20
-587.1463122968089
 30
0.0
 11
395.8590768515133
 21
-1132.58430407167
 31
0.0
  0
LINE
  5
2DDA
330
324D
100
AcDbEntity
  8
0
 62
     0
100
AcDbLine
 10
-422.2999999999936
 20
-584.1463457613972
 30
0.0
 11
400.3590381453977
 21
-1132.584304071672
 31
0.0
  0
LINE
  5
2DDB
330
324D
100
AcDbEntity
  8
0
 62
     0
100
AcDbLine
 10
-422.2999999999956
 20
-581.1463792259792
 30
0.0
 11
404.8589994392822
 21
-1132.584304071671
 31
0.0
  0
LINE
  5
2DDC
330
324D
100
AcDbEntity
  8
0
 62
     0
100
AcDbLine
 10
-422.2999999999919
 20
-578.146412690563
 30
0.0
 11
409.3589607331704
 21
-1132.584304071672
 31
0.0
  0
LINE
  5
2DDD
330
324D
100
AcDbEntity
  8
0
 62
     0
100
AcDbLine
 10
-422.2999999999956
 20
-575.1464461551448
 30
0.0
 11
413.8589220270548
 21
-1132.58430407167
 31
0.0
  0
LINE
  5
2DDE
330
324D
100
AcDbEntity
  8
0
 62
     0
100
AcDbLine
 10
-422.2999999999919
 20
-572.1464796197287
 30
0.0
 11
418.3588833209411
 21
-1132.584304071669
 31
0.0
  0
LINE
  5
2DDF
330
324D
100
AcDbEntity
  8
0
 62
     0
100
AcDbLine
 10
-422.2999999999956
 20
-569.1465130843144
 30
0.0
 11
422.3000000000064
 21
-1132.211741946476
 31
0.0
  0
LINE
  5
2DE0
330
324D
100
AcDbEntity
  8
0
 62
     0
100
AcDbLine
 10
-422.2999999999936
 20
-566.1465465488982
 30
0.0
 11
422.3000000000064
 21
-1129.211775411057
 31
0.0
  0
LINE
  5
2DE1
330
324D
100
AcDbEntity
  8
0
 62
     0
100
AcDbLine
 10
-422.2999999999936
 20
-563.1465800134807
 30
0.0
 11
422.3000000000083
 21
-1126.211808875641
 31
0.0
  0
LINE
  5
2DE2
330
324D
100
AcDbEntity
  8
0
 62
     0
100
AcDbLine
 10
-422.2999999999936
 20
-560.1466134780639
 30
0.0
 11
422.3000000000064
 21
-1123.211842340223
 31
0.0
  0
LINE
  5
2DE3
330
324D
100
AcDbEntity
  8
0
 62
     0
100
AcDbLine
 10
-422.2999999999936
 20
-557.1466469426503
 30
0.0
 11
422.3000000000083
 21
-1120.21187580481
 31
0.0
  0
LINE
  5
2DE4
330
324D
100
AcDbEntity
  8
0
 62
     0
100
AcDbLine
 10
-422.2999999999956
 20
-554.1466804072325
 30
0.0
 11
422.3000000000064
 21
-1117.211909269393
 31
0.0
  0
LINE
  5
2DE5
330
324D
100
AcDbEntity
  8
0
 62
     0
100
AcDbLine
 10
-422.2999999999919
 20
-551.1467138718171
 30
0.0
 11
422.3000000000064
 21
-1114.211942733976
 31
0.0
  0
LINE
  5
2DE6
330
324D
100
AcDbEntity
  8
0
 62
     0
100
AcDbLine
 10
-422.2999999999956
 20
-548.146747336399
 30
0.0
 11
422.3000000000064
 21
-1111.211976198559
 31
0.0
  0
LINE
  5
2DE7
330
324D
100
AcDbEntity
  8
0
 62
     0
100
AcDbLine
 10
-422.2999999999936
 20
-545.1467808009858
 30
0.0
 11
422.3000000000064
 21
-1108.212009663146
 31
0.0
  0
LINE
  5
2DE8
330
324D
100
AcDbEntity
  8
0
 62
     0
100
AcDbLine
 10
-422.2999999999936
 20
-542.1468142655684
 30
0.0
 11
422.3000000000083
 21
-1105.212043127729
 31
0.0
  0
LINE
  5
2DE9
330
324D
100
AcDbEntity
  8
0
 62
     0
100
AcDbLine
 10
-422.2999999999936
 20
-539.1468477301514
 30
0.0
 11
422.3000000000064
 21
-1102.212076592312
 31
0.0
  0
LINE
  5
2DEA
330
324D
100
AcDbEntity
  8
0
 62
     0
100
AcDbLine
 10
-422.2999999999936
 20
-536.1468811947352
 30
0.0
 11
422.3000000000083
 21
-1099.212110056895
 31
0.0
  0
LINE
  5
2DEB
330
324D
100
AcDbEntity
  8
0
 62
     0
100
AcDbLine
 10
-422.2999999999956
 20
-533.1469146593169
 30
0.0
 11
422.3000000000064
 21
-1096.212143521476
 31
0.0
  0
LINE
  5
2DEC
330
324D
100
AcDbEntity
  8
0
 62
     0
100
AcDbLine
 10
-422.2999999999936
 20
-530.1469481239045
 30
0.0
 11
422.3000000000064
 21
-1093.212176986064
 31
0.0
  0
LINE
  5
2DED
330
324D
100
AcDbEntity
  8
0
 62
     0
100
AcDbLine
 10
-422.2999999999936
 20
-527.1469815884866
 30
0.0
 11
422.3000000000083
 21
-1090.212210450647
 31
0.0
  0
LINE
  5
2DEE
330
324D
100
AcDbEntity
  8
0
 62
     0
100
AcDbLine
 10
-422.2999999999956
 20
-524.1470150530695
 30
0.0
 11
422.3000000000064
 21
-1087.21224391523
 31
0.0
  0
LINE
  5
2DEF
330
324D
100
AcDbEntity
  8
0
 62
     0
100
AcDbLine
 10
-422.2999999999936
 20
-521.1470485176524
 30
0.0
 11
422.3000000000083
 21
-1084.212277379813
 31
0.0
  0
LINE
  5
2DF0
330
324D
100
AcDbEntity
  8
0
 62
     0
100
AcDbLine
 10
-422.2999999999936
 20
-518.1470819822407
 30
0.0
 11
422.3000000000046
 21
-1081.212310844399
 31
0.0
  0
LINE
  5
2DF1
330
324D
100
AcDbEntity
  8
0
 62
     0
100
AcDbLine
 10
-422.2999999999936
 20
-515.1471154468224
 30
0.0
 11
422.3000000000083
 21
-1078.212344308982
 31
0.0
  0
LINE
  5
2DF2
330
324D
100
AcDbEntity
  8
0
 62
     0
100
AcDbLine
 10
-422.2999999999956
 20
-512.1471489114047
 30
0.0
 11
422.3000000000046
 21
-1075.212377773565
 31
0.0
  0
LINE
  5
2DF3
330
324D
100
AcDbEntity
  8
0
 62
     0
100
AcDbLine
 10
-422.2999999999936
 20
-509.1471823759881
 30
0.0
 11
422.3000000000083
 21
-1072.212411238149
 31
0.0
  0
LINE
  5
2DF4
330
324D
100
AcDbEntity
  8
0
 62
     0
100
AcDbLine
 10
-422.2999999999936
 20
-506.1472158405741
 30
0.0
 11
422.3000000000064
 21
-1069.212444702734
 31
0.0
  0
LINE
  5
2DF5
330
324D
100
AcDbEntity
  8
0
 62
     0
100
AcDbLine
 10
-422.2999999999936
 20
-503.1472493051587
 30
0.0
 11
422.3000000000083
 21
-1066.212478167319
 31
0.0
  0
LINE
  5
2DF6
330
324D
100
AcDbEntity
  8
0
 62
     0
100
AcDbLine
 10
-422.2999999999936
 20
-500.1472827697407
 30
0.0
 11
422.3000000000064
 21
-1063.212511631901
 31
0.0
  0
LINE
  5
2DF7
330
324D
100
AcDbEntity
  8
0
 62
     0
100
AcDbLine
 10
-422.2999999999956
 20
-497.1473162343237
 30
0.0
 11
422.3000000000064
 21
-1060.212545096484
 31
0.0
  0
LINE
  5
2DF8
330
324D
100
AcDbEntity
  8
0
 62
     0
100
AcDbLine
 10
-422.2999999999936
 20
-494.1473496989064
 30
0.0
 11
422.3000000000064
 21
-1057.212578561067
 31
0.0
  0
LINE
  5
2DF9
330
324D
100
AcDbEntity
  8
0
 62
     0
100
AcDbLine
 10
-422.2999999999936
 20
-491.1473831634928
 30
0.0
 11
422.3000000000083
 21
-1054.212612025653
 31
0.0
  0
LINE
  5
2DFA
330
324D
100
AcDbEntity
  8
0
 62
     0
100
AcDbLine
 10
-422.2999999999936
 20
-488.1474166280767
 30
0.0
 11
422.3000000000064
 21
-1051.212645490237
 31
0.0
  0
LINE
  5
2DFB
330
324D
100
AcDbEntity
  8
0
 62
     0
100
AcDbLine
 10
-422.2999999999936
 20
-485.1474500926597
 30
0.0
 11
422.3000000000064
 21
-1048.212678954819
 31
0.0
  0
LINE
  5
2DFC
330
324D
100
AcDbEntity
  8
0
 62
     0
100
AcDbLine
 10
-422.2999999999936
 20
-482.1474835572423
 30
0.0
 11
422.3000000000064
 21
-1045.212712419403
 31
0.0
  0
LINE
  5
2DFD
330
324D
100
AcDbEntity
  8
0
 62
     0
100
AcDbLine
 10
-422.2999999999956
 20
-479.1475170218281
 30
0.0
 11
422.3000000000064
 21
-1042.212745883988
 31
0.0
  0
LINE
  5
2DFE
330
324D
100
AcDbEntity
  8
0
 62
     0
100
AcDbLine
 10
-422.2999999999956
 20
-476.1475504864111
 30
0.0
 11
422.3000000000083
 21
-1039.212779348572
 31
0.0
  0
LINE
  5
2DFF
330
324D
100
AcDbEntity
  8
0
 62
     0
100
AcDbLine
 10
-422.2999999999956
 20
-473.1475839509939
 30
0.0
 11
422.3000000000064
 21
-1036.212812813155
 31
0.0
  0
LINE
  5
2E00
330
324D
100
AcDbEntity
  8
0
 62
     0
100
AcDbLine
 10
-422.2999999999936
 20
-470.1476174155778
 30
0.0
 11
422.3000000000083
 21
-1033.212846277738
 31
0.0
  0
LINE
  5
2E01
330
324D
100
AcDbEntity
  8
0
 62
     0
100
AcDbLine
 10
-422.2999999999956
 20
-467.147650880164
 30
0.0
 11
422.3000000000064
 21
-1030.212879742324
 31
0.0
  0
LINE
  5
2E02
330
324D
100
AcDbEntity
  8
0
 62
     0
100
AcDbLine
 10
-422.2999999999956
 20
-464.1476843447462
 30
0.0
 11
422.3000000000083
 21
-1027.212913206906
 31
0.0
  0
LINE
  5
2E03
330
324D
100
AcDbEntity
  8
0
 62
     0
100
AcDbLine
 10
-422.2999999999956
 20
-461.1477178093298
 30
0.0
 11
422.3000000000064
 21
-1024.21294667149
 31
0.0
  0
LINE
  5
2E04
330
324D
100
AcDbEntity
  8
0
 62
     0
100
AcDbLine
 10
-422.2999999999956
 20
-458.147751273912
 30
0.0
 11
422.3000000000064
 21
-1021.212980136072
 31
0.0
  0
LINE
  5
2E05
330
324D
100
AcDbEntity
  8
0
 62
     0
100
AcDbLine
 10
-422.2999999999936
 20
-455.1477847384967
 30
0.0
 11
422.3000000000083
 21
-1018.213013600657
 31
0.0
  0
LINE
  5
2E06
330
324D
100
AcDbEntity
  8
0
 62
     0
100
AcDbLine
 10
-422.2999999999956
 20
-452.1478182030823
 30
0.0
 11
422.3000000000064
 21
-1015.213047065243
 31
0.0
  0
LINE
  5
2E07
330
324D
100
AcDbEntity
  8
0
 62
     0
100
AcDbLine
 10
-422.2999999999936
 20
-449.1478516676661
 30
0.0
 11
422.3000000000083
 21
-1012.213080529826
 31
0.0
  0
LINE
  5
2E08
330
324D
100
AcDbEntity
  8
0
 62
     0
100
AcDbLine
 10
-422.2999999999956
 20
-446.147885132248
 30
0.0
 11
422.3000000000064
 21
-1009.213113994408
 31
0.0
  0
LINE
  5
2E09
330
324D
100
AcDbEntity
  8
0
 62
     0
100
AcDbLine
 10
-422.2999999999936
 20
-443.147918596831
 30
0.0
 11
422.3000000000064
 21
-1006.213147458991
 31
0.0
  0
LINE
  5
2E0A
330
324D
100
AcDbEntity
  8
0
 62
     0
100
AcDbLine
 10
-422.2999999999936
 20
-440.1479520614183
 30
0.0
 11
422.3000000000083
 21
-1003.213180923579
 31
0.0
  0
LINE
  5
2E0B
330
324D
100
AcDbEntity
  8
0
 62
     0
100
AcDbLine
 10
-422.2999999999936
 20
-437.1479855260012
 30
0.0
 11
422.3000000000064
 21
-1000.213214388161
 31
0.0
  0
LINE
  5
2E0C
330
324D
100
AcDbEntity
  8
0
 62
     0
100
AcDbLine
 10
-422.2999999999936
 20
-434.148018990584
 30
0.0
 11
422.3000000000083
 21
-997.2132478527447
 31
0.0
  0
LINE
  5
2E0D
330
324D
100
AcDbEntity
  8
0
 62
     0
100
AcDbLine
 10
-422.2999999999956
 20
-431.1480524551662
 30
0.0
 11
422.3000000000064
 21
-994.2132813173264
 31
0.0
  0
LINE
  5
2E0E
330
324D
100
AcDbEntity
  8
0
 62
     0
100
AcDbLine
 10
-422.2999999999936
 20
-428.1480859197536
 30
0.0
 11
422.3000000000083
 21
-991.2133147819139
 31
0.0
  0
LINE
  5
2E0F
330
324D
100
AcDbEntity
  8
0
 62
     0
100
AcDbLine
 10
-422.2999999999956
 20
-425.1481193843352
 30
0.0
 11
422.3000000000064
 21
-988.2133482464967
 31
0.0
  0
LINE
  5
2E10
330
324D
100
AcDbEntity
  8
0
 62
     0
100
AcDbLine
 10
-422.2999999999956
 20
-422.1481528489191
 30
0.0
 11
422.3000000000064
 21
-985.2133817110798
 31
0.0
  0
LINE
  5
2E11
330
324D
100
AcDbEntity
  8
0
 62
     0
100
AcDbLine
 10
-422.2999999999936
 20
-419.1481863135022
 30
0.0
 11
422.3000000000083
 21
-982.2134151756626
 31
0.0
  0
LINE
  5
2E12
330
324D
100
AcDbEntity
  8
0
 62
     0
100
AcDbLine
 10
-422.2999999999956
 20
-416.1482197780848
 30
0.0
 11
422.3000000000083
 21
-979.2134486402462
 31
0.0
  0
LINE
  5
2E13
330
324D
100
AcDbEntity
  8
0
 62
     0
100
AcDbLine
 10
-422.2999999999936
 20
-413.1482532426717
 30
0.0
 11
422.3000000000083
 21
-976.213482104832
 31
0.0
  0
LINE
  5
2E14
330
324D
100
AcDbEntity
  8
0
 62
     0
100
AcDbLine
 10
-422.2999999999956
 20
-410.1482867072536
 30
0.0
 11
422.3000000000046
 21
-973.2135155694141
 31
0.0
  0
LINE
  5
2E15
330
324D
100
AcDbEntity
  8
0
 62
     0
100
AcDbLine
 10
-422.2999999999936
 20
-407.1483201718383
 30
0.0
 11
422.3000000000083
 21
-970.2135490339983
 31
0.0
  0
LINE
  5
2E16
330
324D
100
AcDbEntity
  8
0
 62
     0
100
AcDbLine
 10
-422.2999999999936
 20
-404.1483536364202
 30
0.0
 11
422.3000000000083
 21
-967.2135824985817
 31
0.0
  0
LINE
  5
2E17
330
324D
100
AcDbEntity
  8
0
 62
     0
100
AcDbLine
 10
-422.2999999999936
 20
-401.1483871010075
 30
0.0
 11
422.3000000000083
 21
-964.2136159631682
 31
0.0
  0
LINE
  5
2E18
330
324D
100
AcDbEntity
  8
0
 62
     0
100
AcDbLine
 10
-422.2999999999936
 20
-398.1484205655897
 30
0.0
 11
422.3000000000064
 21
-961.21364942775
 31
0.0
  0
LINE
  5
2E19
330
324D
100
AcDbEntity
  8
0
 62
     0
100
AcDbLine
 10
-422.2999999999936
 20
-395.1484540301735
 30
0.0
 11
422.3000000000083
 21
-958.2136828923344
 31
0.0
  0
LINE
  5
2E1A
330
324D
100
AcDbEntity
  8
0
 62
     0
100
AcDbLine
 10
-422.2999999999936
 20
-392.1484874947564
 30
0.0
 11
422.3000000000064
 21
-955.2137163569168
 31
0.0
  0
LINE
  5
2E1B
330
324D
100
AcDbEntity
  8
0
 62
     0
100
AcDbLine
 10
-422.2999999999956
 20
-389.148520959343
 30
0.0
 11
422.3000000000064
 21
-952.2137498215032
 31
0.0
  0
LINE
  5
2E1C
330
324D
100
AcDbEntity
  8
0
 62
     0
100
AcDbLine
 10
-422.2999999999936
 20
-386.1485544239258
 30
0.0
 11
422.3000000000064
 21
-949.2137832860862
 31
0.0
  0
LINE
  5
2E1D
330
324D
100
AcDbEntity
  8
0
 62
     0
100
AcDbLine
 10
-422.2999999999936
 20
-383.1485878885087
 30
0.0
 11
422.3000000000083
 21
-946.2138167506692
 31
0.0
  0
LINE
  5
2E1E
330
324D
100
AcDbEntity
  8
0
 62
     0
100
AcDbLine
 10
-422.2999999999936
 20
-380.1486213530917
 30
0.0
 11
422.3000000000064
 21
-943.213850215252
 31
0.0
  0
LINE
  5
2E1F
330
324D
100
AcDbEntity
  8
0
 62
     0
100
AcDbLine
 10
-422.2999999999956
 20
-377.1486548176735
 30
0.0
 11
422.3000000000064
 21
-940.213883679835
 31
0.0
  0
LINE
  5
2E20
330
324D
100
AcDbEntity
  8
0
 62
     0
100
AcDbLine
 10
-422.2999999999936
 20
-374.1486882822619
 30
0.0
 11
422.3000000000064
 21
-937.2139171444223
 31
0.0
  0
LINE
  5
2E21
330
324D
100
AcDbEntity
  8
0
 62
     0
100
AcDbLine
 10
-422.2999999999956
 20
-371.1487217468439
 30
0.0
 11
422.3000000000064
 21
-934.2139506090045
 31
0.0
  0
LINE
  5
2E22
330
324D
100
AcDbEntity
  8
0
 62
     0
100
AcDbLine
 10
-422.2999999999936
 20
-368.1487552114269
 30
0.0
 11
422.3000000000083
 21
-931.2139840735872
 31
0.0
  0
LINE
  5
2E23
330
324D
100
AcDbEntity
  8
0
 62
     0
100
AcDbLine
 10
-422.2999999999956
 20
-365.1487886760096
 30
0.0
 11
422.3000000000064
 21
-928.2140175381696
 31
0.0
  0
LINE
  5
2E24
330
324D
100
AcDbEntity
  8
0
 62
     0
100
AcDbLine
 10
-422.2999999999936
 20
-362.1488221405962
 30
0.0
 11
422.3000000000083
 21
-925.2140510027574
 31
0.0
  0
LINE
  5
2E25
330
324D
100
AcDbEntity
  8
0
 62
     0
100
AcDbLine
 10
-422.2999999999956
 20
-359.14885560518
 30
0.0
 11
422.3000000000064
 21
-922.2140844673404
 31
0.0
  0
LINE
  5
2E26
330
324D
100
AcDbEntity
  8
0
 62
     0
100
AcDbLine
 10
-422.2999999999956
 20
-356.1488890697619
 30
0.0
 11
422.3000000000064
 21
-919.2141179319218
 31
0.0
  0
LINE
  5
2E27
330
324D
100
AcDbEntity
  8
0
 62
     0
100
AcDbLine
 10
-422.2999999999956
 20
-353.1489225343457
 30
0.0
 11
422.3000000000064
 21
-916.2141513965059
 31
0.0
  0
LINE
  5
2E28
330
324D
100
AcDbEntity
  8
0
 62
     0
100
AcDbLine
 10
-422.2999999999956
 20
-350.1489559989313
 30
0.0
 11
422.3000000000064
 21
-913.2141848610913
 31
0.0
  0
LINE
  5
2E29
330
324D
100
AcDbEntity
  8
0
 62
     0
100
AcDbLine
 10
-422.2999999999936
 20
-347.1489894635161
 30
0.0
 11
422.3000000000083
 21
-910.2142183256766
 31
0.0
  0
LINE
  5
2E2A
330
324D
100
AcDbEntity
  8
0
 62
     0
100
AcDbLine
 10
-422.2999999999956
 20
-344.149022928098
 30
0.0
 11
422.3000000000064
 21
-907.2142517902584
 31
0.0
  0
LINE
  5
2E2B
330
324D
100
AcDbEntity
  8
0
 62
     0
100
AcDbLine
 10
-422.2999999999936
 20
-341.1490563926818
 30
0.0
 11
422.3000000000083
 21
-904.2142852548423
 31
0.0
  0
LINE
  5
2E2C
330
324D
100
AcDbEntity
  8
0
 62
     0
100
AcDbLine
 10
-422.2999999999956
 20
-338.1490898572637
 30
0.0
 11
422.3000000000064
 21
-901.214318719424
 31
0.0
  0
LINE
  5
2E2D
330
324D
100
AcDbEntity
  8
0
 62
     0
100
AcDbLine
 10
-422.2999999999936
 20
-335.1491233218503
 30
0.0
 11
422.3000000000064
 21
-898.2143521840107
 31
0.0
  0
LINE
  5
2E2E
330
324D
100
AcDbEntity
  8
0
 62
     0
100
AcDbLine
 10
-422.2999999999936
 20
-332.1491567864332
 30
0.0
 11
422.3000000000083
 21
-895.2143856485934
 31
0.0
  0
LINE
  5
2E2F
330
324D
100
AcDbEntity
  8
0
 62
     0
100
AcDbLine
 10
-422.2999999999936
 20
-329.1491902510169
 30
0.0
 11
422.3000000000064
 21
-892.2144191131776
 31
0.0
  0
LINE
  5
2E30
330
324D
100
AcDbEntity
  8
0
 62
     0
100
AcDbLine
 10
-422.2999999999936
 20
-326.1492237155999
 30
0.0
 11
422.3000000000083
 21
-889.2144525777602
 31
0.0
  0
LINE
  5
2E31
330
324D
100
AcDbEntity
  8
0
 62
     0
100
AcDbLine
 10
-422.2999999999956
 20
-323.1492571801855
 30
0.0
 11
422.3000000000064
 21
-886.2144860423459
 31
0.0
  0
LINE
  5
2E32
330
324D
100
AcDbEntity
  8
0
 62
     0
100
AcDbLine
 10
-422.2999999999936
 20
-320.1492906447692
 30
0.0
 11
422.3000000000064
 21
-883.2145195069287
 31
0.0
  0
LINE
  5
2E33
330
324D
100
AcDbEntity
  8
0
 62
     0
100
AcDbLine
 10
-422.2999999999936
 20
-317.1493241093513
 30
0.0
 11
422.3000000000083
 21
-880.2145529715117
 31
0.0
  0
LINE
  5
2E34
330
324D
100
AcDbEntity
  8
0
 62
     0
100
AcDbLine
 10
-422.2999999999956
 20
-314.149357573935
 30
0.0
 11
422.3000000000064
 21
-877.2145864360954
 31
0.0
  0
LINE
  5
2E35
330
324D
100
AcDbEntity
  8
0
 62
     0
100
AcDbLine
 10
-422.2999999999936
 20
-311.1493910385216
 30
0.0
 11
422.3000000000083
 21
-874.2146199006819
 31
0.0
  0
LINE
  5
2E36
330
324D
100
AcDbEntity
  8
0
 62
     0
100
AcDbLine
 10
-422.2999999999956
 20
-308.1494245031044
 30
0.0
 11
422.3000000000064
 21
-871.2146533652649
 31
0.0
  0
LINE
  5
2E37
330
324D
100
AcDbEntity
  8
0
 62
     0
100
AcDbLine
 10
-422.2999999999936
 20
-305.1494579676873
 30
0.0
 11
422.3000000000083
 21
-868.2146868298476
 31
0.0
  0
LINE
  5
2E38
330
324D
100
AcDbEntity
  8
0
 62
     0
100
AcDbLine
 10
-422.2999999999956
 20
-302.1494914322693
 30
0.0
 11
422.3000000000046
 21
-865.2147202944297
 31
0.0
  0
LINE
  5
2E39
330
324D
100
AcDbEntity
  8
0
 62
     0
100
AcDbLine
 10
-422.2999999999956
 20
-299.1495248968522
 30
0.0
 11
422.3000000000083
 21
-862.2147537590144
 31
0.0
  0
LINE
  5
2E3A
330
324D
100
AcDbEntity
  8
0
 62
     0
100
AcDbLine
 10
-422.2999999999936
 20
-296.1495583614397
 30
0.0
 11
422.3000000000064
 21
-859.2147872235997
 31
0.0
  0
LINE
  5
2E3B
330
324D
100
AcDbEntity
  8
0
 62
     0
100
AcDbLine
 10
-422.2999999999936
 20
-293.1495918260234
 30
0.0
 11
422.3000000000083
 21
-856.2148206881836
 31
0.0
  0
LINE
  5
2E3C
330
324D
100
AcDbEntity
  8
0
 62
     0
100
AcDbLine
 10
-422.2999999999936
 20
-290.1496252906054
 30
0.0
 11
422.3000000000064
 21
-853.2148541527657
 31
0.0
  0
LINE
  5
2E3D
330
324D
100
AcDbEntity
  8
0
 62
     0
100
AcDbLine
 10
-422.2999999999956
 20
-287.1496587551882
 30
0.0
 11
422.3000000000064
 21
-850.2148876173485
 31
0.0
  0
LINE
  5
2E3E
330
324D
100
AcDbEntity
  8
0
 62
     0
100
AcDbLine
 10
-422.2999999999936
 20
-284.1496922197748
 30
0.0
 11
422.3000000000064
 21
-847.2149210819353
 31
0.0
  0
LINE
  5
2E3F
330
324D
100
AcDbEntity
  8
0
 62
     0
100
AcDbLine
 10
-422.2999999999956
 20
-281.1497256843577
 30
0.0
 11
422.3000000000083
 21
-844.214954546519
 31
0.0
  0
LINE
  5
2E40
330
324D
100
AcDbEntity
  8
0
 62
     0
100
AcDbLine
 10
-422.2999999999936
 20
-278.1497591489415
 30
0.0
 11
422.3000000000064
 21
-841.2149880111016
 31
0.0
  0
LINE
  5
2E41
330
324D
100
AcDbEntity
  8
0
 62
     0
100
AcDbLine
 10
-422.2999999999956
 20
-275.1497926135235
 30
0.0
 11
422.3000000000083
 21
-838.2150214756848
 31
0.0
  0
LINE
  5
2E42
330
324D
100
AcDbEntity
  8
0
 62
     0
100
AcDbLine
 10
-422.2999999999936
 20
-272.1498260781109
 30
0.0
 11
422.3000000000064
 21
-835.2150549402713
 31
0.0
  0
LINE
  5
2E43
330
324D
100
AcDbEntity
  8
0
 62
     0
100
AcDbLine
 10
-422.2999999999956
 20
-269.1498595426929
 30
0.0
 11
422.3000000000064
 21
-832.2150884048532
 31
0.0
  0
LINE
  5
2E44
330
324D
100
AcDbEntity
  8
0
 62
     0
100
AcDbLine
 10
-422.2999999999956
 20
-266.1498930072767
 30
0.0
 11
422.3000000000064
 21
-829.2151218694371
 31
0.0
  0
LINE
  5
2E45
330
324D
100
AcDbEntity
  8
0
 62
     0
100
AcDbLine
 10
-422.2999999999956
 20
-263.1499264718595
 30
0.0
 11
422.3000000000064
 21
-826.2151553340199
 31
0.0
  0
LINE
  5
2E46
330
324D
100
AcDbEntity
  8
0
 62
     0
100
AcDbLine
 10
-422.2999999999936
 20
-260.1499599364424
 30
0.0
 11
422.3000000000083
 21
-823.2151887986029
 31
0.0
  0
LINE
  5
2E47
330
324D
100
AcDbEntity
  8
0
 62
     0
100
AcDbLine
 10
-422.2999999999956
 20
-257.149993401029
 30
0.0
 11
422.3000000000064
 21
-820.2152222631889
 31
0.0
  0
LINE
  5
2E48
330
324D
100
AcDbEntity
  8
0
 62
     0
100
AcDbLine
 10
-422.2999999999936
 20
-254.1500268656118
 30
0.0
 11
422.3000000000064
 21
-817.2152557277712
 31
0.0
  0
LINE
  5
2E49
330
324D
100
AcDbEntity
  8
0
 62
     0
100
AcDbLine
 10
-422.2999999999956
 20
-251.1500603301956
 30
0.0
 11
422.3000000000064
 21
-814.2152891923558
 31
0.0
  0
LINE
  5
2E4A
330
324D
100
AcDbEntity
  8
0
 62
     0
100
AcDbLine
 10
-422.2999999999956
 20
-248.1500937947776
 30
0.0
 11
422.3000000000064
 21
-811.2153226569381
 31
0.0
  0
LINE
  5
2E4B
330
324D
100
AcDbEntity
  8
0
 62
     0
100
AcDbLine
 10
-422.2999999999936
 20
-245.1501272593641
 30
0.0
 11
422.3000000000083
 21
-808.2153561215255
 31
0.0
  0
LINE
  5
2E4C
330
324D
100
AcDbEntity
  8
0
 62
     0
100
AcDbLine
 10
-422.2999999999956
 20
-242.150160723947
 30
0.0
 11
422.3000000000064
 21
-805.2153895861072
 31
0.0
  0
LINE
  5
2E4D
330
324D
100
AcDbEntity
  8
0
 62
     0
100
AcDbLine
 10
-422.2999999999936
 20
-239.1501941885299
 30
0.0
 11
422.3000000000083
 21
-802.215423050691
 31
0.0
  0
LINE
  5
2E4E
330
324D
100
AcDbEntity
  8
0
 62
     0
100
AcDbLine
 10
-422.2999999999956
 20
-236.1502276531128
 30
0.0
 11
422.3000000000064
 21
-799.2154565152742
 31
0.0
  0
LINE
  5
2E4F
330
324D
100
AcDbEntity
  8
0
 62
     0
100
AcDbLine
 10
-422.2999999999956
 20
-233.1502611176993
 30
0.0
 11
422.3000000000064
 21
-796.2154899798595
 31
0.0
  0
LINE
  5
2E50
330
324D
100
AcDbEntity
  8
0
 62
     0
100
AcDbLine
 10
-422.2999999999956
 20
-230.1502945822831
 30
0.0
 11
422.3000000000064
 21
-793.2155234444435
 31
0.0
  0
LINE
  5
2E51
330
324D
100
AcDbEntity
  8
0
 62
     0
100
AcDbLine
 10
-422.2999999999956
 20
-227.1503280468651
 30
0.0
 11
422.3000000000064
 21
-790.2155569090262
 31
0.0
  0
LINE
  5
2E52
330
324D
100
AcDbEntity
  8
0
 62
     0
100
AcDbLine
 10
-422.2999999999936
 20
-224.1503615114488
 30
0.0
 11
422.3000000000083
 21
-787.2155903736093
 31
0.0
  0
LINE
  5
2E53
330
324D
100
AcDbEntity
  8
0
 62
     0
100
AcDbLine
 10
-422.2999999999956
 20
-221.1503949760345
 30
0.0
 11
422.3000000000064
 21
-784.2156238381947
 31
0.0
  0
LINE
  5
2E54
330
324D
100
AcDbEntity
  8
0
 62
     0
100
AcDbLine
 10
-422.2999999999936
 20
-218.1504284406192
 30
0.0
 11
422.3000000000083
 21
-781.2156573027794
 31
0.0
  0
LINE
  5
2E55
330
324D
100
AcDbEntity
  8
0
 62
     0
100
AcDbLine
 10
-422.2999999999956
 20
-215.1504619052011
 30
0.0
 11
422.3000000000064
 21
-778.2156907673615
 31
0.0
  0
LINE
  5
2E56
330
324D
100
AcDbEntity
  8
0
 62
     0
100
AcDbLine
 10
-422.2999999999956
 20
-212.150495369784
 30
0.0
 11
422.3000000000064
 21
-775.2157242319444
 31
0.0
  0
LINE
  5
2E57
330
324D
100
AcDbEntity
  8
0
 62
     0
100
AcDbLine
 10
-422.2999999999936
 20
-209.1505288343669
 30
0.0
 11
422.3000000000083
 21
-772.2157576965273
 31
0.0
  0
LINE
  5
2E58
330
324D
100
AcDbEntity
  8
0
 62
     0
100
AcDbLine
 10
-422.2999999999956
 20
-206.1505622989534
 30
0.0
 11
422.3000000000064
 21
-769.2157911611139
 31
0.0
  0
LINE
  5
2E59
330
324D
100
AcDbEntity
  8
0
 62
     0
100
AcDbLine
 10
-422.2999999999936
 20
-203.1505957635372
 30
0.0
 11
422.3000000000083
 21
-766.2158246256977
 31
0.0
  0
LINE
  5
2E5A
330
324D
100
AcDbEntity
  8
0
 62
     0
100
AcDbLine
 10
-422.2999999999956
 20
-200.1506292281201
 30
0.0
 11
422.3000000000046
 21
-763.2158580902796
 31
0.0
  0
LINE
  5
2E5B
330
324D
100
AcDbEntity
  8
0
 62
     0
100
AcDbLine
 10
-422.2999999999936
 20
-197.150662692703
 30
0.0
 11
422.3000000000083
 21
-760.2158915548634
 31
0.0
  0
LINE
  5
2E5C
330
324D
100
AcDbEntity
  8
0
 62
     0
100
AcDbLine
 10
-422.2999999999936
 20
-194.1506961572885
 30
0.0
 11
422.3000000000064
 21
-757.215925019449
 31
0.0
  0
LINE
  5
2E5D
330
324D
100
AcDbEntity
  8
0
 62
     0
100
AcDbLine
 10
-418.1806003746149
 20
-193.8969890261333
 30
0.0
 11
422.3000000000064
 21
-754.2159584840318
 31
0.0
  0
LINE
  5
2E5E
330
324D
100
AcDbEntity
  8
0
 62
     0
100
AcDbLine
 10
-413.6806390807303
 20
-193.8969890261313
 30
0.0
 11
422.3000000000064
 21
-751.2159919486156
 31
0.0
  0
LINE
  5
2E5F
330
324D
100
AcDbEntity
  8
0
 62
     0
100
AcDbLine
 10
-409.180677786846
 20
-193.8969890261305
 30
0.0
 11
422.3000000000064
 21
-748.2160254131985
 31
0.0
  0
LINE
  5
2E60
330
324D
100
AcDbEntity
  8
0
 62
     0
100
AcDbLine
 10
-404.6807164929612
 20
-193.8969890261324
 30
0.0
 11
422.3000000000064
 21
-745.2160588777851
 31
0.0
  0
LINE
  5
2E61
330
324D
100
AcDbEntity
  8
0
 62
     0
100
AcDbLine
 10
-400.1807551990729
 20
-193.8969890261342
 30
0.0
 11
422.3000000000046
 21
-742.2160923423668
 31
0.0
  0
LINE
  5
2E62
330
324D
100
AcDbEntity
  8
0
 62
     0
100
AcDbLine
 10
-395.6807939051888
 20
-193.8969890261313
 30
0.0
 11
422.3000000000064
 21
-739.2161258069506
 31
0.0
  0
LINE
  5
2E63
330
324D
100
AcDbEntity
  8
0
 62
     0
100
AcDbLine
 10
-391.1808326113023
 20
-193.8969890261313
 30
0.0
 11
422.3000000000064
 21
-736.2161592715324
 31
0.0
  0
LINE
  5
2E64
330
324D
100
AcDbEntity
  8
0
 62
     0
100
AcDbLine
 10
-386.6808713174178
 20
-193.8969890261305
 30
0.0
 11
422.3000000000064
 21
-733.2161927361176
 31
0.0
  0
LINE
  5
2E65
330
324D
100
AcDbEntity
  8
0
 62
     0
100
AcDbLine
 10
-382.1809100235295
 20
-193.8969890261342
 30
0.0
 11
422.3000000000064
 21
-730.2162262007034
 31
0.0
  0
LINE
  5
2E66
330
324D
100
AcDbEntity
  8
0
 62
     0
100
AcDbLine
 10
-377.6809487296469
 20
-193.8969890261313
 30
0.0
 11
422.3000000000064
 21
-727.216259665287
 31
0.0
  0
LINE
  5
2E67
330
324D
100
AcDbEntity
  8
0
 62
     0
100
AcDbLine
 10
-373.1809874357605
 20
-193.8969890261313
 30
0.0
 11
422.3000000000064
 21
-724.216293129869
 31
0.0
  0
LINE
  5
2E68
330
324D
100
AcDbEntity
  8
0
 62
     0
100
AcDbLine
 10
-368.6810261418742
 20
-193.8969890261313
 30
0.0
 11
422.3000000000083
 21
-721.2163265944513
 31
0.0
  0
LINE
  5
2E69
330
324D
100
AcDbEntity
  8
0
 62
     0
100
AcDbLine
 10
-364.1810648479914
 20
-193.8969890261324
 30
0.0
 11
422.3000000000064
 21
-718.2163600590392
 31
0.0
  0
LINE
  5
2E6A
330
324D
100
AcDbEntity
  8
0
 62
     0
100
AcDbLine
 10
-359.6811035541048
 20
-193.8969890261324
 30
0.0
 11
422.3000000000083
 21
-715.2163935236221
 31
0.0
  0
LINE
  5
2E6B
330
324D
100
AcDbEntity
  8
0
 62
     0
100
AcDbLine
 10
-355.1811422602187
 20
-193.8969890261324
 30
0.0
 11
422.3000000000064
 21
-712.2164269882049
 31
0.0
  0
LINE
  5
2E6C
330
324D
100
AcDbEntity
  8
0
 62
     0
100
AcDbLine
 10
-350.6811809663322
 20
-193.8969890261313
 30
0.0
 11
422.3000000000064
 21
-709.216460452787
 31
0.0
  0
LINE
  5
2E6D
330
324D
100
AcDbEntity
  8
0
 62
     0
100
AcDbLine
 10
-346.1812196724495
 20
-193.8969890261333
 30
0.0
 11
422.3000000000064
 21
-706.2164939173745
 31
0.0
  0
LINE
  5
2E6E
330
324D
100
AcDbEntity
  8
0
 62
     0
100
AcDbLine
 10
-341.6812583785632
 20
-193.8969890261324
 30
0.0
 11
422.3000000000064
 21
-703.2165273819573
 31
0.0
  0
LINE
  5
2E6F
330
324D
100
AcDbEntity
  8
0
 62
     0
100
AcDbLine
 10
-337.1812970846749
 20
-193.8969890261324
 30
0.0
 11
422.3000000000083
 21
-700.2165608465411
 31
0.0
  0
LINE
  5
2E70
330
324D
100
AcDbEntity
  8
0
 62
     0
100
AcDbLine
 10
-332.6813357907902
 20
-193.8969890261324
 30
0.0
 11
422.3000000000064
 21
-697.2165943111232
 31
0.0
  0
LINE
  5
2E71
330
324D
100
AcDbEntity
  8
0
 62
     0
100
AcDbLine
 10
-328.1813744969057
 20
-193.8969890261296
 30
0.0
 11
422.3000000000083
 21
-694.2166277757069
 31
0.0
  0
LINE
  5
2E72
330
324D
100
AcDbEntity
  8
0
 62
     0
100
AcDbLine
 10
-323.6814132030212
 20
-193.8969890261333
 30
0.0
 11
422.3000000000064
 21
-691.2166612402925
 31
0.0
  0
LINE
  5
2E73
330
324D
100
AcDbEntity
  8
0
 62
     0
100
AcDbLine
 10
-319.1814519091331
 20
-193.8969890261324
 30
0.0
 11
422.3000000000064
 21
-688.2166947048764
 31
0.0
  0
LINE
  5
2E74
330
324D
100
AcDbEntity
  8
0
 62
     0
100
AcDbLine
 10
-314.6814906152485
 20
-193.8969890261305
 30
0.0
 11
422.3000000000083
 21
-685.2167281694591
 31
0.0
  0
LINE
  5
2E75
330
324D
100
AcDbEntity
  8
0
 62
     0
100
AcDbLine
 10
-310.181529321364
 20
-193.8969890261305
 30
0.0
 11
422.3000000000064
 21
-682.2167616340419
 31
0.0
  0
LINE
  5
2E76
330
324D
100
AcDbEntity
  8
0
 62
     0
100
AcDbLine
 10
-305.6815680274776
 20
-193.8969890261333
 30
0.0
 11
422.3000000000083
 21
-679.2167950986286
 31
0.0
  0
LINE
  5
2E77
330
324D
100
AcDbEntity
  8
0
 62
     0
100
AcDbLine
 10
-301.1816067335912
 20
-193.8969890261333
 30
0.0
 11
422.3000000000064
 21
-676.2168285632103
 31
0.0
  0
LINE
  5
2E78
330
324D
100
AcDbEntity
  8
0
 62
     0
100
AcDbLine
 10
-296.6816454397085
 20
-193.8969890261305
 30
0.0
 11
422.3000000000083
 21
-673.2168620277953
 31
0.0
  0
LINE
  5
2E79
330
324D
100
AcDbEntity
  8
0
 62
     0
100
AcDbLine
 10
-292.1816841458221
 20
-193.8969890261305
 30
0.0
 11
422.3000000000064
 21
-670.2168954923772
 31
0.0
  0
LINE
  5
2E7A
330
324D
100
AcDbEntity
  8
0
 62
     0
100
AcDbLine
 10
-287.6817228519358
 20
-193.8969890261342
 30
0.0
 11
422.3000000000064
 21
-667.2169289569636
 31
0.0
  0
LINE
  5
2E7B
330
324D
100
AcDbEntity
  8
0
 62
     0
100
AcDbLine
 10
-283.1817615580476
 20
-193.8969890261333
 30
0.0
 11
422.3000000000083
 21
-664.2169624215464
 31
0.0
  0
LINE
  5
2E7C
330
324D
100
AcDbEntity
  8
0
 62
     0
100
AcDbLine
 10
-278.6818002641667
 20
-193.8969890261313
 30
0.0
 11
422.3000000000064
 21
-661.2169958861295
 31
0.0
  0
LINE
  5
2E7D
330
324D
100
AcDbEntity
  8
0
 62
     0
100
AcDbLine
 10
-274.1818389702767
 20
-193.8969890261333
 30
0.0
 11
422.3000000000083
 21
-658.2170293507125
 31
0.0
  0
LINE
  5
2E7E
330
324D
100
AcDbEntity
  8
0
 62
     0
100
AcDbLine
 10
-269.6818776763939
 20
-193.8969890261305
 30
0.0
 11
422.3000000000046
 21
-655.2170628152952
 31
0.0
  0
LINE
  5
2E7F
330
324D
100
AcDbEntity
  8
0
 62
     0
100
AcDbLine
 10
-265.1819163825057
 20
-193.8969890261342
 30
0.0
 11
422.3000000000083
 21
-652.2170962798827
 31
0.0
  0
LINE
  5
2E80
330
324D
100
AcDbEntity
  8
0
 62
     0
100
AcDbLine
 10
-260.681955088623
 20
-193.8969890261313
 30
0.0
 11
422.3000000000064
 21
-649.2171297444647
 31
0.0
  0
LINE
  5
2E81
330
324D
100
AcDbEntity
  8
0
 62
     0
100
AcDbLine
 10
-256.1819937947366
 20
-193.8969890261313
 30
0.0
 11
422.3000000000083
 21
-646.2171632090484
 31
0.0
  0
LINE
  5
2E82
330
324D
100
AcDbEntity
  8
0
 62
     0
100
AcDbLine
 10
-251.6820325008502
 20
-193.8969890261305
 30
0.0
 11
422.3000000000064
 21
-643.2171966736305
 31
0.0
  0
LINE
  5
2E83
330
324D
100
AcDbEntity
  8
0
 62
     0
100
AcDbLine
 10
-247.1820712069675
 20
-193.8969890261324
 30
0.0
 11
422.3000000000083
 21
-640.2172301382188
 31
0.0
  0
LINE
  5
2E84
330
324D
100
AcDbEntity
  8
0
 62
     0
100
AcDbLine
 10
-242.6821099130775
 20
-193.8969890261342
 30
0.0
 11
422.3000000000064
 21
-637.2172636028007
 31
0.0
  0
LINE
  5
2E85
330
324D
100
AcDbEntity
  8
0
 62
     0
100
AcDbLine
 10
-238.1821486191948
 20
-193.8969890261313
 30
0.0
 11
422.3000000000064
 21
-634.2172970673837
 31
0.0
  0
LINE
  5
2E86
330
324D
100
AcDbEntity
  8
0
 62
     0
100
AcDbLine
 10
-233.6821873253084
 20
-193.8969890261313
 30
0.0
 11
422.3000000000064
 21
-631.2173305319665
 31
0.0
  0
LINE
  5
2E87
330
324D
100
AcDbEntity
  8
0
 62
     0
100
AcDbLine
 10
-229.1822260314238
 20
-193.8969890261324
 30
0.0
 11
422.3000000000083
 21
-628.2173639965531
 31
0.0
  0
LINE
  5
2E88
330
324D
100
AcDbEntity
  8
0
 62
     0
100
AcDbLine
 10
-224.6822647375357
 20
-193.8969890261342
 30
0.0
 11
422.3000000000064
 21
-625.2173974611369
 31
0.0
  0
LINE
  5
2E89
330
324D
100
AcDbEntity
  8
0
 62
     0
100
AcDbLine
 10
-220.1823034436511
 20
-193.8969890261324
 30
0.0
 11
422.3000000000064
 21
-622.2174309257186
 31
0.0
  0
LINE
  5
2E8A
330
324D
100
AcDbEntity
  8
0
 62
     0
100
AcDbLine
 10
-215.6823421497666
 20
-193.8969890261313
 30
0.0
 11
422.3000000000064
 21
-619.2174643903025
 31
0.0
  0
LINE
  5
2E8B
330
324D
100
AcDbEntity
  8
0
 62
     0
100
AcDbLine
 10
-211.182380855882
 20
-193.8969890261296
 30
0.0
 11
422.3000000000064
 21
-616.2174978548846
 31
0.0
  0
LINE
  5
2E8C
330
324D
100
AcDbEntity
  8
0
 62
     0
100
AcDbLine
 10
-206.6824195619956
 20
-193.8969890261324
 30
0.0
 11
422.3000000000083
 21
-613.2175313194712
 31
0.0
  0
LINE
  5
2E8D
330
324D
100
AcDbEntity
  8
0
 62
     0
100
AcDbLine
 10
-202.1824582681093
 20
-193.8969890261324
 30
0.0
 11
422.3000000000064
 21
-610.2175647840542
 31
0.0
  0
LINE
  5
2E8E
330
324D
100
AcDbEntity
  8
0
 62
     0
100
AcDbLine
 10
-197.6824969742265
 20
-193.8969890261305
 30
0.0
 11
422.3000000000083
 21
-607.2175982486387
 31
0.0
  0
LINE
  5
2E8F
330
324D
100
AcDbEntity
  8
0
 62
     0
100
AcDbLine
 10
-193.1825356803383
 20
-193.8969890261313
 30
0.0
 11
422.3000000000064
 21
-604.2176317132207
 31
0.0
  0
LINE
  5
2E90
330
324D
100
AcDbEntity
  8
0
 62
     0
100
AcDbLine
 10
-188.6825743864538
 20
-193.8969890261333
 30
0.0
 11
422.3000000000083
 21
-601.2176651778072
 31
0.0
  0
LINE
  5
2E91
330
324D
100
AcDbEntity
  8
0
 62
     0
100
AcDbLine
 10
-184.1826130925656
 20
-193.8969890261333
 30
0.0
 11
422.3000000000083
 21
-598.2176986423901
 31
0.0
  0
LINE
  5
2E92
330
324D
100
AcDbEntity
  8
0
 62
     0
100
AcDbLine
 10
-179.6826517986847
 20
-193.8969890261305
 30
0.0
 11
422.3000000000083
 21
-595.217732106973
 31
0.0
  0
LINE
  5
2E93
330
324D
100
AcDbEntity
  8
0
 62
     0
100
AcDbLine
 10
-175.1826905047946
 20
-193.8969890261324
 30
0.0
 11
422.3000000000083
 21
-592.2177655715568
 31
0.0
  0
LINE
  5
2E94
330
324D
100
AcDbEntity
  8
0
 62
     0
100
AcDbLine
 10
-170.6827292109119
 20
-193.8969890261333
 30
0.0
 11
422.3000000000064
 21
-589.2177990361423
 31
0.0
  0
LINE
  5
2E95
330
324D
100
AcDbEntity
  8
0
 62
     0
100
AcDbLine
 10
-166.1827679170237
 20
-193.8969890261333
 30
0.0
 11
422.3000000000083
 21
-586.2178325007262
 31
0.0
  0
LINE
  5
2E96
330
324D
100
AcDbEntity
  8
0
 62
     0
100
AcDbLine
 10
-161.6828066231392
 20
-193.8969890261333
 30
0.0
 11
422.3000000000064
 21
-583.2178659653082
 31
0.0
  0
LINE
  5
2E97
330
324D
100
AcDbEntity
  8
0
 62
     0
100
AcDbLine
 10
-157.1828453292528
 20
-193.8969890261324
 30
0.0
 11
422.3000000000064
 21
-580.2178994298911
 31
0.0
  0
LINE
  5
2E98
330
324D
100
AcDbEntity
  8
0
 62
     0
100
AcDbLine
 10
-152.6828840353682
 20
-193.8969890261305
 30
0.0
 11
422.3000000000083
 21
-577.2179328944749
 31
0.0
  0
LINE
  5
2E99
330
324D
100
AcDbEntity
  8
0
 62
     0
100
AcDbLine
 10
-148.1829227414837
 20
-193.8969890261333
 30
0.0
 11
422.3000000000064
 21
-574.2179663590612
 31
0.0
  0
LINE
  5
2E9A
330
324D
100
AcDbEntity
  8
0
 62
     0
100
AcDbLine
 10
-143.6829614475954
 20
-193.8969890261333
 30
0.0
 11
422.3000000000083
 21
-571.217999823644
 31
0.0
  0
LINE
  5
2E9B
330
324D
100
AcDbEntity
  8
0
 62
     0
100
AcDbLine
 10
-139.1830001537128
 20
-193.8969890261313
 30
0.0
 11
422.3000000000064
 21
-568.2180332882263
 31
0.0
  0
LINE
  5
2E9C
330
324D
100
AcDbEntity
  8
0
 62
     0
100
AcDbLine
 10
-134.6830388598264
 20
-193.8969890261305
 30
0.0
 11
422.3000000000083
 21
-565.2180667528101
 31
0.0
  0
LINE
  5
2E9D
330
324D
100
AcDbEntity
  8
0
 62
     0
100
AcDbLine
 10
-130.18307756594
 20
-193.8969890261342
 30
0.0
 11
422.3000000000083
 21
-562.2181002173954
 31
0.0
  0
LINE
  5
2E9E
330
324D
100
AcDbEntity
  8
0
 62
     0
100
AcDbLine
 10
-125.6831162720535
 20
-193.8969890261333
 30
0.0
 11
422.3000000000083
 21
-559.2181336819804
 31
0.0
  0
LINE
  5
2E9F
330
324D
100
AcDbEntity
  8
0
 62
     0
100
AcDbLine
 10
-121.1831549781691
 20
-193.8969890261313
 30
0.0
 11
422.3000000000083
 21
-556.2181671465623
 31
0.0
  0
LINE
  5
2EA0
330
324D
100
AcDbEntity
  8
0
 62
     0
100
AcDbLine
 10
-116.6831936842845
 20
-193.8969890261313
 30
0.0
 11
422.3000000000083
 21
-553.2182006111461
 31
0.0
  0
LINE
  5
2EA1
330
324D
100
AcDbEntity
  8
0
 62
     0
100
AcDbLine
 10
-112.1832323903982
 20
-193.8969890261342
 30
0.0
 11
422.3000000000083
 21
-550.2182340757316
 31
0.0
  0
LINE
  5
2EA2
330
324D
100
AcDbEntity
  8
0
 62
     0
100
AcDbLine
 10
-107.6832710965118
 20
-193.8969890261342
 30
0.0
 11
422.3000000000064
 21
-547.2182675403145
 31
0.0
  0
LINE
  5
2EA3
330
324D
100
AcDbEntity
  8
0
 62
     0
100
AcDbLine
 10
-103.1833098026272
 20
-193.8969890261313
 30
0.0
 11
422.3000000000083
 21
-544.2183010048984
 31
0.0
  0
LINE
  5
2EA4
330
324D
100
AcDbEntity
  8
0
 62
     0
100
AcDbLine
 10
-98.68334850874092
 20
-193.8969890261313
 30
0.0
 11
422.3000000000083
 21
-541.2183344694811
 31
0.0
  0
LINE
  5
2EA5
330
324D
100
AcDbEntity
  8
0
 62
     0
100
AcDbLine
 10
-94.18338721485634
 20
-193.8969890261313
 30
0.0
 11
422.3000000000083
 21
-538.2183679340641
 31
0.0
  0
LINE
  5
2EA6
330
324D
100
AcDbEntity
  8
0
 62
     0
100
AcDbLine
 10
-89.68342592097178
 20
-193.8969890261324
 30
0.0
 11
422.3000000000064
 21
-535.2184013986498
 31
0.0
  0
LINE
  5
2EA7
330
324D
100
AcDbEntity
  8
0
 62
     0
100
AcDbLine
 10
-85.18346462708723
 20
-193.8969890261324
 30
0.0
 11
422.3000000000064
 21
-532.2184348632324
 31
0.0
  0
LINE
  5
2EA8
330
324D
100
AcDbEntity
  8
0
 62
     0
100
AcDbLine
 10
206.5000000000073
 20
-385.3521690282023
 30
0.0
 11
210.0172389782565
 21
-387.6969890261316
 31
0.0
  0
LINE
  5
2EA9
330
324D
100
AcDbEntity
  8
0
 62
     0
100
AcDbLine
 10
210.0172389782565
 20
-387.6969890261316
 30
0.0
 11
422.3000000000064
 21
-529.2184683278162
 31
0.0
  0
LINE
  5
2EAA
330
324D
100
AcDbEntity
  8
0
 62
     0
100
AcDbLine
 10
-80.68350333319902
 20
-193.8969890261313
 30
0.0
 11
206.5000000000073
 21
-385.3521690282023
 31
0.0
  0
LINE
  5
2EAB
330
324D
100
AcDbEntity
  8
0
 62
     0
100
AcDbLine
 10
206.500000000009
 20
-382.352202492786
 30
0.0
 11
214.5172002721447
 21
-387.6969890261316
 31
0.0
  0
LINE
  5
2EAC
330
324D
100
AcDbEntity
  8
0
 62
     0
100
AcDbLine
 10
214.5172002721447
 20
-387.6969890261316
 30
0.0
 11
422.3000000000083
 21
-526.2185017923992
 31
0.0
  0
LINE
  5
2EAD
330
324D
100
AcDbEntity
  8
0
 62
     0
100
AcDbLine
 10
-76.18354203931267
 20
-193.8969890261313
 30
0.0
 11
206.5000000000073
 21
-382.3522024927843
 31
0.0
  0
LINE
  5
2EAE
330
324D
100
AcDbEntity
  8
0
 62
     0
100
AcDbLine
 10
206.5000000000073
 20
-379.3522359573726
 30
0.0
 11
219.0171615660274
 21
-387.6969890261325
 31
0.0
  0
LINE
  5
2EAF
330
324D
100
AcDbEntity
  8
0
 62
     0
100
AcDbLine
 10
219.0171615660274
 20
-387.6969890261325
 30
0.0
 11
422.3000000000064
 21
-523.2185352569858
 31
0.0
  0
LINE
  5
2EB0
330
324D
100
AcDbEntity
  8
0
 62
     0
100
AcDbLine
 10
-71.68358074542993
 20
-193.8969890261333
 30
0.0
 11
206.5000000000073
 21
-379.3522359573726
 31
0.0
  0
LINE
  5
2EB1
330
324D
100
AcDbEntity
  8
0
 62
     0
100
AcDbLine
 10
206.500000000009
 20
-376.3522694219555
 30
0.0
 11
223.5171228599138
 21
-387.6969890261325
 31
0.0
  0
LINE
  5
2EB2
330
324D
100
AcDbEntity
  8
0
 62
     0
100
AcDbLine
 10
223.5171228599138
 20
-387.6969890261325
 30
0.0
 11
422.3000000000083
 21
-520.2185687215687
 31
0.0
  0
LINE
  5
2EB3
330
324D
100
AcDbEntity
  8
0
 62
     0
100
AcDbLine
 10
-67.18361945154356
 20
-193.8969890261324
 30
0.0
 11
206.5000000000073
 21
-376.3522694219546
 31
0.0
  0
LINE
  5
2EB4
330
324D
100
AcDbEntity
  8
0
 62
     0
100
AcDbLine
 10
206.5000000000073
 20
-373.3523028865384
 30
0.0
 11
228.0170841537984
 21
-387.6969890261325
 31
0.0
  0
LINE
  5
2EB5
330
324D
100
AcDbEntity
  8
0
 62
     0
100
AcDbLine
 10
228.0170841537984
 20
-387.6969890261325
 30
0.0
 11
422.3000000000064
 21
-517.2186021861516
 31
0.0
  0
LINE
  5
2EB6
330
324D
100
AcDbEntity
  8
0
 62
     0
100
AcDbLine
 10
-62.68365815765719
 20
-193.8969890261324
 30
0.0
 11
206.5000000000055
 21
-373.3523028865375
 31
0.0
  0
LINE
  5
2EB7
330
324D
100
AcDbEntity
  8
0
 62
     0
100
AcDbLine
 10
206.500000000009
 20
-370.3523363511231
 30
0.0
 11
232.5170454476864
 21
-387.6969890261335
 31
0.0
  0
LINE
  5
2EB8
330
324D
100
AcDbEntity
  8
0
 62
     0
100
AcDbLine
 10
232.5170454476864
 20
-387.6969890261335
 30
0.0
 11
422.3000000000064
 21
-514.2186356507354
 31
0.0
  0
LINE
  5
2EB9
330
324D
100
AcDbEntity
  8
0
 62
     0
100
AcDbLine
 10
-58.18369686377081
 20
-193.8969890261342
 30
0.0
 11
206.5000000000073
 21
-370.3523363511223
 31
0.0
  0
LINE
  5
2EBA
330
324D
100
AcDbEntity
  8
0
 62
     0
100
AcDbLine
 10
206.5000000000073
 20
-367.352369815706
 30
0.0
 11
237.0170067415693
 21
-387.6969890261316
 31
0.0
  0
LINE
  5
2EBB
330
324D
100
AcDbEntity
  8
0
 62
     0
100
AcDbLine
 10
237.0170067415693
 20
-387.6969890261316
 30
0.0
 11
422.3000000000064
 21
-511.2186691153201
 31
0.0
  0
LINE
  5
2EBC
330
324D
100
AcDbEntity
  8
0
 62
     0
100
AcDbLine
 10
-53.68373556988808
 20
-193.8969890261313
 30
0.0
 11
206.5000000000055
 21
-367.3523698157051
 31
0.0
  0
LINE
  5
2EBD
330
324D
100
AcDbEntity
  8
0
 62
     0
100
AcDbLine
 10
206.5000000000073
 20
-364.3524032802897
 30
0.0
 11
241.5169680354556
 21
-387.6969890261325
 31
0.0
  0
LINE
  5
2EBE
330
324D
100
AcDbEntity
  8
0
 62
     0
100
AcDbLine
 10
241.5169680354593
 20
-387.6969890261353
 30
0.0
 11
422.3000000000064
 21
-508.2187025799039
 31
0.0
  0
LINE
  5
2EBF
330
324D
100
AcDbEntity
  8
0
 62
     0
100
AcDbLine
 10
-49.18377427600169
 20
-193.8969890261333
 30
0.0
 11
206.5000000000073
 21
-364.3524032802897
 31
0.0
  0
LINE
  5
2EC0
330
324D
100
AcDbEntity
  8
0
 62
     0
100
AcDbLine
 10
206.5000000000073
 20
-361.3524367448737
 30
0.0
 11
246.016929329342
 21
-387.6969890261325
 31
0.0
  0
LINE
  5
2EC1
330
324D
100
AcDbEntity
  8
0
 62
     0
100
AcDbLine
 10
246.016929329342
 20
-387.6969890261325
 30
0.0
 11
422.3000000000083
 21
-505.2187360444876
 31
0.0
  0
LINE
  5
2EC2
330
324D
100
AcDbEntity
  8
0
 62
     0
100
AcDbLine
 10
-44.68381298211352
 20
-193.8969890261324
 30
0.0
 11
206.5000000000073
 21
-361.3524367448726
 31
0.0
  0
LINE
  5
2EC3
330
324D
100
AcDbEntity
  8
0
 62
     0
100
AcDbLine
 10
206.5000000000073
 20
-358.3524702094564
 30
0.0
 11
250.5168906232284
 21
-387.6969890261325
 31
0.0
  0
LINE
  5
2EC4
330
324D
100
AcDbEntity
  8
0
 62
     0
100
AcDbLine
 10
250.5168906232284
 20
-387.6969890261325
 30
0.0
 11
422.3000000000064
 21
-502.2187695090695
 31
0.0
  0
LINE
  5
2EC5
330
324D
100
AcDbEntity
  8
0
 62
     0
100
AcDbLine
 10
-40.18385168822897
 20
-193.8969890261324
 30
0.0
 11
206.5000000000073
 21
-358.3524702094564
 31
0.0
  0
LINE
  5
2EC6
330
324D
100
AcDbEntity
  8
0
 62
     0
100
AcDbLine
 10
206.5000000000073
 20
-355.3525036740412
 30
0.0
 11
255.0168519171129
 21
-387.6969890261316
 31
0.0
  0
LINE
  5
2EC7
330
324D
100
AcDbEntity
  8
0
 62
     0
100
AcDbLine
 10
255.0168519171129
 20
-387.6969890261316
 30
0.0
 11
422.3000000000083
 21
-499.2188029736562
 31
0.0
  0
LINE
  5
2EC8
330
324D
100
AcDbEntity
  8
0
 62
     0
100
AcDbLine
 10
-35.68389039434442
 20
-193.8969890261313
 30
0.0
 11
206.5000000000073
 21
-355.3525036740402
 31
0.0
  0
LINE
  5
2EC9
330
324D
100
AcDbEntity
  8
0
 62
     0
100
AcDbLine
 10
206.5000000000073
 20
-352.352537138624
 30
0.0
 11
259.5168132109975
 21
-387.6969890261316
 31
0.0
  0
LINE
  5
2ECA
330
324D
100
AcDbEntity
  8
0
 62
     0
100
AcDbLine
 10
259.5168132109975
 20
-387.6969890261316
 30
0.0
 11
422.3000000000064
 21
-496.2188364382382
 31
0.0
  0
LINE
  5
2ECB
330
324D
100
AcDbEntity
  8
0
 62
     0
100
AcDbLine
 10
-31.18392910045987
 20
-193.8969890261313
 30
0.0
 11
206.5000000000073
 21
-352.352537138624
 31
0.0
  0
LINE
  5
2ECC
330
324D
100
AcDbEntity
  8
0
 62
     0
100
AcDbLine
 10
206.5000000000073
 20
-349.3525706032087
 30
0.0
 11
264.0167745048838
 21
-387.6969890261325
 31
0.0
  0
LINE
  5
2ECD
330
324D
100
AcDbEntity
  8
0
 62
     0
100
AcDbLine
 10
264.0167745048838
 20
-387.6969890261325
 30
0.0
 11
422.3000000000083
 21
-493.2188699028229
 31
0.0
  0
LINE
  5
2ECE
330
324D
100
AcDbEntity
  8
0
 62
     0
100
AcDbLine
 10
-26.68396780657167
 20
-193.8969890261333
 30
0.0
 11
206.5000000000073
 21
-349.3525706032078
 31
0.0
  0
LINE
  5
2ECF
330
324D
100
AcDbEntity
  8
0
 62
     0
100
AcDbLine
 10
206.500000000009
 20
-346.3526040677925
 30
0.0
 11
268.5167357987684
 21
-387.6969890261309
 31
0.0
  0
LINE
  5
2ED0
330
324D
100
AcDbEntity
  8
0
 62
     0
100
AcDbLine
 10
268.5167357987684
 20
-387.6969890261309
 30
0.0
 11
422.3000000000083
 21
-490.2189033674058
 31
0.0
  0
LINE
  5
2ED1
330
324D
100
AcDbEntity
  8
0
 62
     0
100
AcDbLine
 10
-22.18400651268893
 20
-193.8969890261305
 30
0.0
 11
206.500000000009
 21
-346.3526040677925
 31
0.0
  0
LINE
  5
2ED2
330
324D
100
AcDbEntity
  8
0
 62
     0
100
AcDbLine
 10
206.5000000000073
 20
-343.3526375323763
 30
0.0
 11
273.016697092653
 21
-387.6969890261325
 31
0.0
  0
LINE
  5
2ED3
330
324D
100
AcDbEntity
  8
0
 62
     0
100
AcDbLine
 10
273.0166970926566
 20
-387.6969890261344
 30
0.0
 11
422.3000000000083
 21
-487.2189368319903
 31
0.0
  0
LINE
  5
2ED4
330
324D
100
AcDbEntity
  8
0
 62
     0
100
AcDbLine
 10
-17.68404521880256
 20
-193.8969890261324
 30
0.0
 11
206.5000000000073
 21
-343.3526375323763
 31
0.0
  0
LINE
  5
2ED5
330
324D
100
AcDbEntity
  8
0
 62
     0
100
AcDbLine
 10
206.500000000009
 20
-340.3526709969601
 30
0.0
 11
277.5166583865412
 21
-387.6969890261316
 31
0.0
  0
LINE
  5
2ED6
330
324D
100
AcDbEntity
  8
0
 62
     0
100
AcDbLine
 10
277.5166583865412
 20
-387.6969890261316
 30
0.0
 11
422.3000000000083
 21
-484.2189702965741
 31
0.0
  0
LINE
  5
2ED7
330
324D
100
AcDbEntity
  8
0
 62
     0
100
AcDbLine
 10
-13.18408392491618
 20
-193.8969890261324
 30
0.0
 11
206.5000000000073
 21
-340.3526709969592
 31
0.0
  0
LINE
  5
2ED8
330
324D
100
AcDbEntity
  8
0
 62
     0
100
AcDbLine
 10
206.5000000000073
 20
-337.3527044615439
 30
0.0
 11
282.0166196804257
 21
-387.6969890261335
 31
0.0
  0
LINE
  5
2ED9
330
324D
100
AcDbEntity
  8
0
 62
     0
100
AcDbLine
 10
282.0166196804257
 20
-387.6969890261335
 30
0.0
 11
422.3000000000064
 21
-481.2190037611578
 31
0.0
  0
LINE
  5
2EDA
330
324D
100
AcDbEntity
  8
0
 62
     0
100
AcDbLine
 10
-8.684122631029822
 20
-193.8969890261333
 30
0.0
 11
206.5000000000073
 21
-337.3527044615439
 31
0.0
  0
LINE
  5
2EDB
330
324D
100
AcDbEntity
  8
0
 62
     0
100
AcDbLine
 10
206.500000000009
 20
-334.3527379261277
 30
0.0
 11
286.5165809743103
 21
-387.6969890261309
 31
0.0
  0
LINE
  5
2EDC
330
324D
100
AcDbEntity
  8
0
 62
     0
100
AcDbLine
 10
286.5165809743139
 20
-387.6969890261335
 30
0.0
 11
422.3000000000083
 21
-478.2190372257416
 31
0.0
  0
LINE
  5
2EDD
330
324D
100
AcDbEntity
  8
0
 62
     0
100
AcDbLine
 10
-4.184161337147087
 20
-193.8969890261313
 30
0.0
 11
206.5000000000073
 21
-334.3527379261268
 31
0.0
  0
LINE
  5
2EDE
330
324D
100
AcDbEntity
  8
0
 62
     0
100
AcDbLine
 10
206.500000000009
 20
-331.3527713907124
 30
0.0
 11
291.0165422681966
 21
-387.6969890261325
 31
0.0
  0
LINE
  5
2EDF
330
324D
100
AcDbEntity
  8
0
 62
     0
100
AcDbLine
 10
291.0165422682003
 20
-387.6969890261344
 30
0.0
 11
422.3000000000083
 21
-475.2190706903256
 31
0.0
  0
LINE
  5
2EE0
330
324D
100
AcDbEntity
  8
0
 62
     0
100
AcDbLine
 10
0.3157999567411025
 20
-193.8969890261324
 30
0.0
 11
206.500000000009
 21
-331.3527713907124
 31
0.0
  0
LINE
  5
2EE1
330
324D
100
AcDbEntity
  8
0
 62
     0
100
AcDbLine
 10
206.500000000009
 20
-328.3528048552962
 30
0.0
 11
295.5165035620831
 21
-387.6969890261325
 31
0.0
  0
LINE
  5
2EE2
330
324D
100
AcDbEntity
  8
0
 62
     0
100
AcDbLine
 10
295.5165035620831
 20
-387.6969890261325
 30
0.0
 11
422.3000000000083
 21
-472.2191041549094
 31
0.0
  0
LINE
  5
2EE3
330
324D
100
AcDbEntity
  8
0
 62
     0
100
AcDbLine
 10
4.815761250625655
 20
-193.8969890261324
 30
0.0
 11
206.5000000000055
 21
-328.3528048552944
 31
0.0
  0
LINE
  5
2EE4
330
324D
100
AcDbEntity
  8
0
 62
     0
100
AcDbLine
 10
206.500000000009
 20
-325.35283831988
 30
0.0
 11
300.0164648559694
 21
-387.6969890261335
 31
0.0
  0
LINE
  5
2EE5
330
324D
100
AcDbEntity
  8
0
 62
     0
100
AcDbLine
 10
300.0164648559694
 20
-387.6969890261335
 30
0.0
 11
422.3000000000083
 21
-469.2191376194933
 31
0.0
  0
LINE
  5
2EE6
330
324D
100
AcDbEntity
  8
0
 62
     0
100
AcDbLine
 10
9.315722544513846
 20
-193.8969890261342
 30
0.0
 11
206.500000000009
 21
-325.35283831988
 31
0.0
  0
LINE
  5
2EE7
330
324D
100
AcDbEntity
  8
0
 62
     0
100
AcDbLine
 10
206.5000000000073
 20
-322.3528717844629
 30
0.0
 11
304.5164261498521
 21
-387.6969890261316
 31
0.0
  0
LINE
  5
2EE8
330
324D
100
AcDbEntity
  8
0
 62
     0
100
AcDbLine
 10
304.5164261498558
 20
-387.6969890261335
 30
0.0
 11
422.3000000000083
 21
-466.2191710840779
 31
0.0
  0
LINE
  5
2EE9
330
324D
100
AcDbEntity
  8
0
 62
     0
100
AcDbLine
 10
13.81568383839476
 20
-193.8969890261313
 30
0.0
 11
206.5000000000055
 21
-322.352871784462
 31
0.0
  0
LINE
  5
2EEA
330
324D
100
AcDbEntity
  8
0
 62
     0
100
AcDbLine
 10
206.500000000009
 20
-319.3529052490476
 30
0.0
 11
309.0163874437385
 21
-387.6969890261325
 31
0.0
  0
LINE
  5
2EEB
330
324D
100
AcDbEntity
  8
0
 62
     0
100
AcDbLine
 10
309.0163874437385
 20
-387.6969890261325
 30
0.0
 11
422.3000000000083
 21
-463.2192045486617
 31
0.0
  0
LINE
  5
2EEC
330
324D
100
AcDbEntity
  8
0
 62
     0
100
AcDbLine
 10
18.31564513228295
 20
-193.8969890261333
 30
0.0
 11
206.5000000000073
 21
-319.3529052490467
 31
0.0
  0
LINE
  5
2EED
330
324D
100
AcDbEntity
  8
0
 62
     0
100
AcDbLine
 10
206.5000000000073
 20
-316.3529387136314
 30
0.0
 11
313.5163487376249
 21
-387.6969890261325
 31
0.0
  0
LINE
  5
2EEE
330
324D
100
AcDbEntity
  8
0
 62
     0
100
AcDbLine
 10
313.5163487376249
 20
-387.6969890261325
 30
0.0
 11
422.3000000000064
 21
-460.2192380132445
 31
0.0
  0
LINE
  5
2EEF
330
324D
100
AcDbEntity
  8
0
 62
     0
100
AcDbLine
 10
22.81560642616751
 20
-193.8969890261324
 30
0.0
 11
206.5000000000055
 21
-316.3529387136295
 31
0.0
  0
LINE
  5
2EF0
330
324D
100
AcDbEntity
  8
0
 62
     0
100
AcDbLine
 10
206.500000000009
 20
-313.3529721782143
 30
0.0
 11
318.0163100315112
 21
-387.6969890261325
 31
0.0
  0
LINE
  5
2EF1
330
324D
100
AcDbEntity
  8
0
 62
     0
100
AcDbLine
 10
318.0163100315112
 20
-387.6969890261325
 30
0.0
 11
422.3000000000083
 21
-457.2192714778275
 31
0.0
  0
LINE
  5
2EF2
330
324D
100
AcDbEntity
  8
0
 62
     0
100
AcDbLine
 10
27.31556772005206
 20
-193.8969890261305
 30
0.0
 11
206.5000000000073
 21
-313.3529721782132
 31
0.0
  0
LINE
  5
2EF3
330
324D
100
AcDbEntity
  8
0
 62
     0
100
AcDbLine
 10
206.5000000000073
 20
-310.3530056427981
 30
0.0
 11
322.5162713253957
 21
-387.6969890261316
 31
0.0
  0
LINE
  5
2EF4
330
324D
100
AcDbEntity
  8
0
 62
     0
100
AcDbLine
 10
322.5162713253994
 20
-387.6969890261335
 30
0.0
 11
422.3000000000083
 21
-454.219304942412
 31
0.0
  0
LINE
  5
2EF5
330
324D
100
AcDbEntity
  8
0
 62
     0
100
AcDbLine
 10
31.81552901393843
 20
-193.8969890261313
 30
0.0
 11
206.5000000000073
 21
-310.3530056427981
 31
0.0
  0
LINE
  5
2EF6
330
324D
100
AcDbEntity
  8
0
 62
     0
100
AcDbLine
 10
206.5000000000073
 20
-307.353039107381
 30
0.0
 11
327.0162326192803
 21
-387.6969890261316
 31
0.0
  0
LINE
  5
2EF7
330
324D
100
AcDbEntity
  8
0
 62
     0
100
AcDbLine
 10
327.0162326192803
 20
-387.6969890261316
 30
0.0
 11
422.3000000000083
 21
-451.219338406996
 31
0.0
  0
LINE
  5
2EF8
330
324D
100
AcDbEntity
  8
0
 62
     0
100
AcDbLine
 10
36.3154903078248
 20
-193.8969890261313
 30
0.0
 11
206.5000000000055
 21
-307.3530391073801
 31
0.0
  0
LINE
  5
2EF9
330
324D
100
AcDbEntity
  8
0
 62
     0
100
AcDbLine
 10
206.5000000000073
 20
-304.3530725719656
 30
0.0
 11
331.5161939131685
 21
-387.6969890261335
 31
0.0
  0
LINE
  5
2EFA
330
324D
100
AcDbEntity
  8
0
 62
     0
100
AcDbLine
 10
331.5161939131685
 20
-387.6969890261335
 30
0.0
 11
422.3000000000083
 21
-448.2193718715798
 31
0.0
  0
LINE
  5
2EFB
330
324D
100
AcDbEntity
  8
0
 62
     0
100
AcDbLine
 10
40.81545160171117
 20
-193.8969890261333
 30
0.0
 11
206.5000000000073
 21
-304.3530725719656
 31
0.0
  0
LINE
  5
2EFC
330
324D
100
AcDbEntity
  8
0
 62
     0
100
AcDbLine
 10
206.5000000000073
 20
-301.3531060365485
 30
0.0
 11
336.0161552070494
 21
-387.6969890261309
 31
0.0
  0
LINE
  5
2EFD
330
324D
100
AcDbEntity
  8
0
 62
     0
100
AcDbLine
 10
336.0161552070531
 20
-387.6969890261325
 30
0.0
 11
422.3000000000064
 21
-445.2194053361627
 31
0.0
  0
LINE
  5
2EFE
330
324D
100
AcDbEntity
  8
0
 62
     0
100
AcDbLine
 10
45.31541289559391
 20
-193.8969890261305
 30
0.0
 11
206.5000000000055
 21
-301.3531060365476
 31
0.0
  0
LINE
  5
2EFF
330
324D
100
AcDbEntity
  8
0
 62
     0
100
AcDbLine
 10
206.5000000000073
 20
-298.3531395011342
 30
0.0
 11
340.5161165009376
 21
-387.6969890261325
 31
0.0
  0
LINE
  5
2F00
330
324D
100
AcDbEntity
  8
0
 62
     0
100
AcDbLine
 10
340.5161165009412
 20
-387.6969890261344
 30
0.0
 11
422.3000000000083
 21
-442.2194388007473
 31
0.0
  0
LINE
  5
2F01
330
324D
100
AcDbEntity
  8
0
 62
     0
100
AcDbLine
 10
49.81537418948029
 20
-193.8969890261324
 30
0.0
 11
206.5000000000073
 21
-298.3531395011342
 31
0.0
  0
LINE
  5
2F02
330
324D
100
AcDbEntity
  8
0
 62
     0
100
AcDbLine
 10
206.5000000000073
 20
-295.3531729657161
 30
0.0
 11
345.016077794824
 21
-387.6969890261316
 31
0.0
  0
LINE
  5
2F03
330
324D
100
AcDbEntity
  8
0
 62
     0
100
AcDbLine
 10
345.016077794824
 20
-387.6969890261316
 30
0.0
 11
422.3000000000083
 21
-439.2194722653303
 31
0.0
  0
LINE
  5
2F04
330
324D
100
AcDbEntity
  8
0
 62
     0
100
AcDbLine
 10
54.31533548336847
 20
-193.8969890261324
 30
0.0
 11
206.5000000000073
 21
-295.3531729657161
 31
0.0
  0
LINE
  5
2F05
330
324D
100
AcDbEntity
  8
0
 62
     0
100
AcDbLine
 10
206.5000000000073
 20
-292.3532064303017
 30
0.0
 11
349.5160390887104
 21
-387.6969890261335
 31
0.0
  0
LINE
  5
2F06
330
324D
100
AcDbEntity
  8
0
 62
     0
100
AcDbLine
 10
349.5160390887122
 20
-387.6969890261353
 30
0.0
 11
422.3000000000083
 21
-436.2195057299159
 31
0.0
  0
LINE
  5
2F07
330
324D
100
AcDbEntity
  8
0
 62
     0
100
AcDbLine
 10
58.81529677725302
 20
-193.8969890261333
 30
0.0
 11
206.5000000000073
 21
-292.3532064303017
 31
0.0
  0
LINE
  5
2F08
330
324D
100
AcDbEntity
  8
0
 62
     0
100
AcDbLine
 10
206.5000000000073
 20
-289.3532398948837
 30
0.0
 11
354.0160003825932
 21
-387.6969890261309
 31
0.0
  0
LINE
  5
2F09
330
324D
100
AcDbEntity
  8
0
 62
     0
100
AcDbLine
 10
354.0160003825968
 20
-387.6969890261335
 30
0.0
 11
422.3000000000083
 21
-433.2195391944988
 31
0.0
  0
LINE
  5
2F0A
330
324D
100
AcDbEntity
  8
0
 62
     0
100
AcDbLine
 10
63.31525807113758
 20
-193.8969890261313
 30
0.0
 11
206.5000000000073
 21
-289.3532398948837
 31
0.0
  0
LINE
  5
2F0B
330
324D
100
AcDbEntity
  8
0
 62
     0
100
AcDbLine
 10
206.5000000000073
 20
-286.3532733594693
 30
0.0
 11
358.5159616764759
 21
-387.6969890261309
 31
0.0
  0
LINE
  5
2F0C
330
324D
100
AcDbEntity
  8
0
 62
     0
100
AcDbLine
 10
358.5159616764812
 20
-387.6969890261335
 30
0.0
 11
422.3000000000083
 21
-430.2195726590833
 31
0.0
  0
LINE
  5
2F0D
330
324D
100
AcDbEntity
  8
0
 62
     0
100
AcDbLine
 10
67.81521936502578
 20
-193.8969890261351
 30
0.0
 11
206.5000000000073
 21
-286.3532733594684
 31
0.0
  0
LINE
  5
2F0E
330
324D
100
AcDbEntity
  8
0
 62
     0
100
AcDbLine
 10
206.5000000000073
 20
-283.3533068240522
 30
0.0
 11
363.0159229703659
 21
-387.6969890261325
 31
0.0
  0
LINE
  5
2F0F
330
324D
100
AcDbEntity
  8
0
 62
     0
100
AcDbLine
 10
363.0159229703695
 20
-387.6969890261344
 30
0.0
 11
422.3000000000064
 21
-427.2196061236654
 31
0.0
  0
LINE
  5
2F10
330
324D
100
AcDbEntity
  8
0
 62
     0
100
AcDbLine
 10
72.31518065891029
 20
-193.8969890261324
 30
0.0
 11
206.5000000000073
 21
-283.3533068240522
 31
0.0
  0
LINE
  5
2F11
330
324D
100
AcDbEntity
  8
0
 62
     0
100
AcDbLine
 10
206.5000000000073
 20
-280.3533402886378
 30
0.0
 11
367.5158842642487
 21
-387.6969890261316
 31
0.0
  0
LINE
  5
2F12
330
324D
100
AcDbEntity
  8
0
 62
     0
100
AcDbLine
 10
367.5158842642523
 20
-387.6969890261353
 30
0.0
 11
422.3000000000083
 21
-424.219639588251
 31
0.0
  0
LINE
  5
2F13
330
324D
100
AcDbEntity
  8
0
 62
     0
100
AcDbLine
 10
76.81514195279486
 20
-193.8969890261342
 30
0.0
 11
206.5000000000073
 21
-280.3533402886369
 31
0.0
  0
LINE
  5
2F14
330
324D
100
AcDbEntity
  8
0
 62
     0
100
AcDbLine
 10
206.5000000000073
 20
-277.3533737532198
 30
0.0
 11
372.0158455581351
 21
-387.6969890261316
 31
0.0
  0
LINE
  5
2F15
330
324D
100
AcDbEntity
  8
0
 62
     0
100
AcDbLine
 10
372.0158455581386
 20
-387.6969890261335
 30
0.0
 11
422.3000000000064
 21
-421.2196730528328
 31
0.0
  0
LINE
  5
2F16
330
324D
100
AcDbEntity
  8
0
 62
     0
100
AcDbLine
 10
81.3151032466794
 20
-193.8969890261313
 30
0.0
 11
206.5000000000073
 21
-277.3533737532198
 31
0.0
  0
LINE
  5
2F17
330
324D
100
AcDbEntity
  8
0
 62
     0
100
AcDbLine
 10
206.500000000009
 20
-274.3534072178027
 30
0.0
 11
376.5158068520232
 21
-387.6969890261316
 31
0.0
  0
LINE
  5
2F18
330
324D
100
AcDbEntity
  8
0
 62
     0
100
AcDbLine
 10
376.5158068520249
 20
-387.6969890261325
 30
0.0
 11
422.3000000000102
 21
-418.2197065174177
 31
0.0
  0
LINE
  5
2F19
330
324D
100
AcDbEntity
  8
0
 62
     0
100
AcDbLine
 10
85.81506454056578
 20
-193.8969890261313
 30
0.0
 11
206.5000000000073
 21
-274.3534072178019
 31
0.0
  0
LINE
  5
2F1A
330
324D
100
AcDbEntity
  8
0
 62
     0
100
AcDbLine
 10
206.5000000000073
 20
-271.3534406823874
 30
0.0
 11
381.0157681459076
 21
-387.6969890261325
 31
0.0
  0
LINE
  5
2F1B
330
324D
100
AcDbEntity
  8
0
 62
     0
100
AcDbLine
 10
381.0157681459113
 20
-387.6969890261344
 30
0.0
 11
422.3000000000064
 21
-415.2197399820015
 31
0.0
  0
LINE
  5
2F1C
330
324D
100
AcDbEntity
  8
0
 62
     0
100
AcDbLine
 10
90.31502583445213
 20
-193.8969890261324
 30
0.0
 11
206.5000000000073
 21
-271.3534406823874
 31
0.0
  0
LINE
  5
2F1D
330
324D
100
AcDbEntity
  8
0
 62
     0
100
AcDbLine
 10
206.500000000009
 20
-268.3534741469712
 30
0.0
 11
385.5157294397923
 21
-387.6969890261309
 31
0.0
  0
LINE
  5
2F1E
330
324D
100
AcDbEntity
  8
0
 62
     0
100
AcDbLine
 10
385.5157294397957
 20
-387.6969890261335
 30
0.0
 11
422.3000000000102
 21
-412.2197734465851
 31
0.0
  0
LINE
  5
2F1F
330
324D
100
AcDbEntity
  8
0
 62
     0
100
AcDbLine
 10
94.8149871283349
 20
-193.8969890261305
 30
0.0
 11
206.5000000000073
 21
-268.3534741469693
 31
0.0
  0
LINE
  5
2F20
330
324D
100
AcDbEntity
  8
0
 62
     0
100
AcDbLine
 10
206.5000000000073
 20
-265.353507611556
 30
0.0
 11
390.0156907336768
 21
-387.6969890261316
 31
0.0
  0
LINE
  5
2F21
330
324D
100
AcDbEntity
  8
0
 62
     0
100
AcDbLine
 10
390.0156907336805
 20
-387.6969890261335
 30
0.0
 11
422.3000000000064
 21
-409.2198069111689
 31
0.0
  0
LINE
  5
2F22
330
324D
100
AcDbEntity
  8
0
 62
     0
100
AcDbLine
 10
99.31494842222129
 20
-193.8969890261324
 30
0.0
 11
206.5000000000055
 21
-265.353507611555
 31
0.0
  0
LINE
  5
2F23
330
324D
100
AcDbEntity
  8
0
 62
     0
100
AcDbLine
 10
206.500000000009
 20
-262.3535410761387
 30
0.0
 11
394.515652027565
 21
-387.6969890261316
 31
0.0
  0
LINE
  5
2F24
330
324D
100
AcDbEntity
  8
0
 62
     0
100
AcDbLine
 10
394.5156520275668
 20
-387.6969890261335
 30
0.0
 11
422.3000000000083
 21
-406.219840375752
 31
0.0
  0
LINE
  5
2F25
330
324D
100
AcDbEntity
  8
0
 62
     0
100
AcDbLine
 10
103.8149097161076
 20
-193.8969890261313
 30
0.0
 11
206.5000000000073
 21
-262.3535410761379
 31
0.0
  0
LINE
  5
2F26
330
324D
100
AcDbEntity
  8
0
 62
     0
100
AcDbLine
 10
206.500000000009
 20
-259.3535745407235
 30
0.0
 11
399.0156133214513
 21
-387.6969890261335
 31
0.0
  0
LINE
  5
2F27
330
324D
100
AcDbEntity
  8
0
 62
     0
100
AcDbLine
 10
399.0156133214532
 20
-387.6969890261344
 30
0.0
 11
422.3000000000083
 21
-403.2198738403375
 31
0.0
  0
LINE
  5
2F28
330
324D
100
AcDbEntity
  8
0
 62
     0
100
AcDbLine
 10
108.3148710099958
 20
-193.8969890261333
 30
0.0
 11
206.5000000000073
 21
-259.3535745407225
 31
0.0
  0
LINE
  5
2F29
330
324D
100
AcDbEntity
  8
0
 62
     0
100
AcDbLine
 10
206.5000000000073
 20
-256.3536080053054
 30
0.0
 11
403.5155746153341
 21
-387.6969890261309
 31
0.0
  0
LINE
  5
2F2A
330
324D
100
AcDbEntity
  8
0
 62
     0
100
AcDbLine
 10
403.5155746153376
 20
-387.6969890261325
 30
0.0
 11
422.3000000000083
 21
-400.2199073049203
 31
0.0
  0
LINE
  5
2F2B
330
324D
100
AcDbEntity
  8
0
 62
     0
100
AcDbLine
 10
112.8148323038767
 20
-193.8969890261305
 30
0.0
 11
206.5000000000073
 21
-256.3536080053054
 31
0.0
  0
LINE
  5
2F2C
330
324D
100
AcDbEntity
  8
0
 62
     0
100
AcDbLine
 10
206.5000000000073
 20
-253.3536414698901
 30
0.0
 11
408.0155359092205
 21
-387.6969890261325
 31
0.0
  0
LINE
  5
2F2D
330
324D
100
AcDbEntity
  8
0
 62
     0
100
AcDbLine
 10
408.0155359092257
 20
-387.6969890261353
 30
0.0
 11
422.3000000000083
 21
-397.2199407695052
 31
0.0
  0
LINE
  5
2F2E
330
324D
100
AcDbEntity
  8
0
 62
     0
100
AcDbLine
 10
117.3147935977667
 20
-193.8969890261342
 30
0.0
 11
206.5000000000073
 21
-253.3536414698892
 31
0.0
  0
LINE
  5
2F2F
330
324D
100
AcDbEntity
  8
0
 62
     0
100
AcDbLine
 10
206.5000000000073
 20
-250.3536749344739
 30
0.0
 11
412.5154972031068
 21
-387.6969890261316
 31
0.0
  0
LINE
  5
2F30
330
324D
100
AcDbEntity
  8
0
 62
     0
100
AcDbLine
 10
412.5154972031086
 20
-387.6969890261344
 30
0.0
 11
422.3000000000064
 21
-394.2199742340872
 31
0.0
  0
LINE
  5
2F31
330
324D
100
AcDbEntity
  8
0
 62
     0
100
AcDbLine
 10
121.8147548916495
 20
-193.8969890261324
 30
0.0
 11
206.5000000000073
 21
-250.3536749344739
 31
0.0
  0
LINE
  5
2F32
330
324D
100
AcDbEntity
  8
0
 62
     0
100
AcDbLine
 10
206.5000000000073
 20
-247.3537083990586
 30
0.0
 11
417.0154584969895
 21
-387.6969890261316
 31
0.0
  0
LINE
  5
2F33
330
324D
100
AcDbEntity
  8
0
 62
     0
100
AcDbLine
 10
417.0154584969949
 20
-387.6969890261344
 30
0.0
 11
422.3000000000083
 21
-391.2200076986719
 31
0.0
  0
LINE
  5
2F34
330
324D
100
AcDbEntity
  8
0
 62
     0
100
AcDbLine
 10
126.3147161855358
 20
-193.8969890261333
 30
0.0
 11
206.5000000000073
 21
-247.3537083990577
 31
0.0
  0
LINE
  5
2F35
330
324D
100
AcDbEntity
  8
0
 62
     0
100
AcDbLine
 10
206.5000000000073
 20
-244.3537418636414
 30
0.0
 11
421.5154197908757
 21
-387.6969890261309
 31
0.0
  0
LINE
  5
2F36
330
324D
100
AcDbEntity
  8
0
 62
     0
100
AcDbLine
 10
421.5154197908778
 20
-387.6969890261335
 30
0.0
 11
422.3000000000064
 21
-388.2200411632557
 31
0.0
  0
LINE
  5
2F37
330
324D
100
AcDbEntity
  8
0
 62
     0
100
AcDbLine
 10
130.8146774794186
 20
-193.8969890261313
 30
0.0
 11
206.5000000000073
 21
-244.3537418636414
 31
0.0
  0
LINE
  5
2F38
330
324D
100
AcDbEntity
  8
0
 62
     0
100
AcDbLine
 10
206.5000000000073
 20
-241.3537753282253
 30
0.0
 11
422.3000000000083
 21
-385.2200746278403
 31
0.0
  0
LINE
  5
2F39
330
324D
100
AcDbEntity
  8
0
 62
     0
100
AcDbLine
 10
135.3146387733068
 20
-193.8969890261324
 30
0.0
 11
206.5000000000073
 21
-241.3537753282253
 31
0.0
  0
LINE
  5
2F3A
330
324D
100
AcDbEntity
  8
0
 62
     0
100
AcDbLine
 10
206.500000000009
 20
-238.3538087928091
 30
0.0
 11
422.3000000000083
 21
-382.2201080924232
 31
0.0
  0
LINE
  5
2F3B
330
324D
100
AcDbEntity
  8
0
 62
     0
100
AcDbLine
 10
139.8146000671931
 20
-193.8969890261324
 30
0.0
 11
206.500000000009
 21
-238.3538087928091
 31
0.0
  0
LINE
  5
2F3C
330
324D
100
AcDbEntity
  8
0
 62
     0
100
AcDbLine
 10
206.5000000000073
 20
-235.353842257392
 30
0.0
 11
422.3000000000064
 21
-379.2201415570052
 31
0.0
  0
LINE
  5
2F3D
330
324D
100
AcDbEntity
  8
0
 62
     0
100
AcDbLine
 10
144.3145613610759
 20
-193.8969890261305
 30
0.0
 11
206.5000000000073
 21
-235.353842257392
 31
0.0
  0
LINE
  5
2F3E
330
324D
100
AcDbEntity
  8
0
 62
     0
100
AcDbLine
 10
206.500000000009
 20
-232.3538757219776
 30
0.0
 11
422.3000000000083
 21
-376.2201750215909
 31
0.0
  0
LINE
  5
2F3F
330
324D
100
AcDbEntity
  8
0
 62
     0
100
AcDbLine
 10
148.8145226549622
 20
-193.8969890261313
 30
0.0
 11
206.5000000000073
 21
-232.3538757219767
 31
0.0
  0
LINE
  5
2F40
330
324D
100
AcDbEntity
  8
0
 62
     0
100
AcDbLine
 10
206.5000000000073
 20
-229.3539091865596
 30
0.0
 11
422.3000000000064
 21
-373.2202084861729
 31
0.0
  0
LINE
  5
2F41
330
324D
100
AcDbEntity
  8
0
 62
     0
100
AcDbLine
 10
153.3144839488486
 20
-193.8969890261313
 30
0.0
 11
206.5000000000073
 21
-229.3539091865596
 31
0.0
  0
LINE
  5
2F42
330
324D
100
AcDbEntity
  8
0
 62
     0
100
AcDbLine
 10
206.500000000009
 20
-226.3539426511452
 30
0.0
 11
422.3000000000083
 21
-370.2202419507594
 31
0.0
  0
LINE
  5
2F43
330
324D
100
AcDbEntity
  8
0
 62
     0
100
AcDbLine
 10
157.814445242735
 20
-193.8969890261333
 30
0.0
 11
206.5000000000073
 21
-226.3539426511443
 31
0.0
  0
LINE
  5
2F44
330
324D
100
AcDbEntity
  8
0
 62
     0
100
AcDbLine
 10
206.500000000009
 20
-223.3539761157272
 30
0.0
 11
422.3000000000083
 21
-367.2202754153413
 31
0.0
  0
LINE
  5
2F45
330
324D
100
AcDbEntity
  8
0
 62
     0
100
AcDbLine
 10
162.3144065366195
 20
-193.8969890261305
 30
0.0
 11
206.500000000009
 21
-223.3539761157272
 31
0.0
  0
LINE
  5
2F46
330
324D
100
AcDbEntity
  8
0
 62
     0
100
AcDbLine
 10
206.5000000000073
 20
-220.3540095803128
 30
0.0
 11
422.3000000000083
 21
-364.2203088799271
 31
0.0
  0
LINE
  5
2F47
330
324D
100
AcDbEntity
  8
0
 62
     0
100
AcDbLine
 10
166.8143678305077
 20
-193.8969890261342
 30
0.0
 11
206.5000000000055
 21
-220.354009580311
 31
0.0
  0
LINE
  5
2F48
330
324D
100
AcDbEntity
  8
0
 62
     0
100
AcDbLine
 10
206.500000000009
 20
-217.3540430448956
 30
0.0
 11
422.3000000000083
 21
-361.2203423445089
 31
0.0
  0
LINE
  5
2F49
330
324D
100
AcDbEntity
  8
0
 62
     0
100
AcDbLine
 10
171.3143291243923
 20
-193.8969890261313
 30
0.0
 11
206.5000000000073
 21
-217.3540430448948
 31
0.0
  0
LINE
  5
2F4A
330
324D
100
AcDbEntity
  8
0
 62
     0
100
AcDbLine
 10
206.5000000000073
 20
-214.3540765094804
 30
0.0
 11
422.3000000000064
 21
-358.2203758090936
 31
0.0
  0
LINE
  5
2F4B
330
324D
100
AcDbEntity
  8
0
 62
     0
100
AcDbLine
 10
175.8142904182768
 20
-193.8969890261333
 30
0.0
 11
206.5000000000055
 21
-214.3540765094794
 31
0.0
  0
LINE
  5
2F4C
330
324D
100
AcDbEntity
  8
0
 62
     0
100
AcDbLine
 10
206.500000000009
 20
-211.3541099740632
 30
0.0
 11
422.3000000000083
 21
-355.2204092736774
 31
0.0
  0
LINE
  5
2F4D
330
324D
100
AcDbEntity
  8
0
 62
     0
100
AcDbLine
 10
180.3142517121614
 20
-193.8969890261305
 30
0.0
 11
206.5000000000073
 21
-211.3541099740623
 31
0.0
  0
LINE
  5
2F4E
330
324D
100
AcDbEntity
  8
0
 62
     0
100
AcDbLine
 10
206.5000000000073
 20
-208.3541434386471
 30
0.0
 11
422.3000000000083
 21
-352.2204427382622
 31
0.0
  0
LINE
  5
2F4F
330
324D
100
AcDbEntity
  8
0
 62
     0
100
AcDbLine
 10
184.8142130060514
 20
-193.8969890261342
 30
0.0
 11
206.5000000000073
 21
-208.3541434386471
 31
0.0
  0
LINE
  5
2F50
330
324D
100
AcDbEntity
  8
0
 62
     0
100
AcDbLine
 10
206.500000000009
 20
-205.3541769032317
 30
0.0
 11
422.3000000000083
 21
-349.2204762028451
 31
0.0
  0
LINE
  5
2F51
330
324D
100
AcDbEntity
  8
0
 62
     0
100
AcDbLine
 10
189.3141742999323
 20
-193.8969890261324
 30
0.0
 11
206.5000000000073
 21
-205.3541769032299
 31
0.0
  0
LINE
  5
2F52
330
324D
100
AcDbEntity
  8
0
 62
     0
100
AcDbLine
 10
206.5000000000073
 20
-202.3542103678155
 30
0.0
 11
422.3000000000083
 21
-346.2205096674296
 31
0.0
  0
LINE
  5
2F53
330
324D
100
AcDbEntity
  8
0
 62
     0
100
AcDbLine
 10
193.8141355938204
 20
-193.8969890261333
 30
0.0
 11
206.5000000000073
 21
-202.3542103678155
 31
0.0
  0
LINE
  5
2F54
330
324D
100
AcDbEntity
  8
0
 62
     0
100
AcDbLine
 10
206.5000000000073
 20
-199.3542438323984
 30
0.0
 11
422.3000000000083
 21
-343.2205431320126
 31
0.0
  0
LINE
  5
2F55
330
324D
100
AcDbEntity
  8
0
 62
     0
100
AcDbLine
 10
198.3140968877051
 20
-193.8969890261333
 30
0.0
 11
206.5000000000055
 21
-199.3542438323974
 31
0.0
  0
LINE
  5
2F56
330
324D
100
AcDbEntity
  8
0
 62
     0
100
AcDbLine
 10
206.5000000000073
 20
-196.3542772969813
 30
0.0
 11
422.3000000000083
 21
-340.2205765965955
 31
0.0
  0
LINE
  5
2F57
330
324D
100
AcDbEntity
  8
0
 62
     0
100
AcDbLine
 10
202.8140581815896
 20
-193.8969890261305
 30
0.0
 11
206.5000000000073
 21
-196.3542772969813
 31
0.0
  0
LINE
  5
2F58
330
324D
100
AcDbEntity
  8
0
 62
     0
100
AcDbLine
 10
207.3140194754742
 20
-193.8969890261324
 30
0.0
 11
422.3000000000064
 21
-337.2206100611802
 31
0.0
  0
LINE
  5
2F59
330
324D
100
AcDbEntity
  8
0
 62
     0
100
AcDbLine
 10
211.8139807693587
 20
-193.8969890261305
 30
0.0
 11
422.3000000000083
 21
-334.2206435257631
 31
0.0
  0
LINE
  5
2F5A
330
324D
100
AcDbEntity
  8
0
 62
     0
100
AcDbLine
 10
216.3139420632488
 20
-193.8969890261333
 30
0.0
 11
422.3000000000083
 21
-331.2206769903477
 31
0.0
  0
LINE
  5
2F5B
330
324D
100
AcDbEntity
  8
0
 62
     0
100
AcDbLine
 10
220.8139033571315
 20
-193.8969890261313
 30
0.0
 11
422.3000000000083
 21
-328.2207104549308
 31
0.0
  0
LINE
  5
2F5C
330
324D
100
AcDbEntity
  8
0
 62
     0
100
AcDbLine
 10
225.3138646510179
 20
-193.8969890261333
 30
0.0
 11
422.3000000000064
 21
-325.2207439195144
 31
0.0
  0
LINE
  5
2F5D
330
324D
100
AcDbEntity
  8
0
 62
     0
100
AcDbLine
 10
229.8138259449006
 20
-193.8969890261305
 30
0.0
 11
422.3000000000083
 21
-322.2207773840992
 31
0.0
  0
LINE
  5
2F5E
330
324D
100
AcDbEntity
  8
0
 62
     0
100
AcDbLine
 10
234.3137872387906
 20
-193.8969890261342
 30
0.0
 11
422.3000000000064
 21
-319.2208108486831
 31
0.0
  0
LINE
  5
2F5F
330
324D
100
AcDbEntity
  8
0
 62
     0
100
AcDbLine
 10
238.8137485326752
 20
-193.8969890261313
 30
0.0
 11
422.3000000000102
 21
-316.2208443132668
 31
0.0
  0
LINE
  5
2F60
330
324D
100
AcDbEntity
  8
0
 62
     0
100
AcDbLine
 10
243.3137098265597
 20
-193.8969890261333
 30
0.0
 11
422.3000000000064
 21
-313.2208777778505
 31
0.0
  0
LINE
  5
2F61
330
324D
100
AcDbEntity
  8
0
 62
     0
100
AcDbLine
 10
247.8136711204443
 20
-193.8969890261305
 30
0.0
 11
422.3000000000102
 21
-310.2209112424353
 31
0.0
  0
LINE
  5
2F62
330
324D
100
AcDbEntity
  8
0
 62
     0
100
AcDbLine
 10
252.3136324143288
 20
-193.8969890261324
 30
0.0
 11
422.3000000000064
 21
-307.2209447070191
 31
0.0
  0
LINE
  5
2F63
330
324D
100
AcDbEntity
  8
0
 62
     0
100
AcDbLine
 10
256.813593708217
 20
-193.8969890261324
 30
0.0
 11
422.3000000000083
 21
-304.2209781716019
 31
0.0
  0
LINE
  5
2F64
330
324D
100
AcDbEntity
  8
0
 62
     0
100
AcDbLine
 10
261.3135550020997
 20
-193.8969890261296
 30
0.0
 11
422.3000000000064
 21
-301.2210116361848
 31
0.0
  0
LINE
  5
2F65
330
324D
100
AcDbEntity
  8
0
 62
     0
100
AcDbLine
 10
265.8135162959898
 20
-193.8969890261333
 30
0.0
 11
422.3000000000083
 21
-298.2210451007695
 31
0.0
  0
LINE
  5
2F66
330
324D
100
AcDbEntity
  8
0
 62
     0
100
AcDbLine
 10
270.3134775898725
 20
-193.8969890261313
 30
0.0
 11
422.3000000000083
 21
-295.2210785653522
 31
0.0
  0
LINE
  5
2F67
330
324D
100
AcDbEntity
  8
0
 62
     0
100
AcDbLine
 10
274.8134388837589
 20
-193.8969890261324
 30
0.0
 11
422.3000000000064
 21
-292.2211120299372
 31
0.0
  0
LINE
  5
2F68
330
324D
100
AcDbEntity
  8
0
 62
     0
100
AcDbLine
 10
279.3134001776434
 20
-193.8969890261305
 30
0.0
 11
422.3000000000083
 21
-289.2211454945209
 31
0.0
  0
LINE
  5
2F69
330
324D
100
AcDbEntity
  8
0
 62
     0
100
AcDbLine
 10
283.8133614715317
 20
-193.8969890261342
 30
0.0
 11
422.3000000000064
 21
-286.2211789591047
 31
0.0
  0
LINE
  5
2F6A
330
324D
100
AcDbEntity
  8
0
 62
     0
100
AcDbLine
 10
288.3133227654142
 20
-193.8969890261313
 30
0.0
 11
422.3000000000083
 21
-283.2212124236876
 31
0.0
  0
LINE
  5
2F6B
330
324D
100
AcDbEntity
  8
0
 62
     0
100
AcDbLine
 10
292.8132840593026
 20
-193.8969890261333
 30
0.0
 11
422.3000000000083
 21
-280.2212458882723
 31
0.0
  0
LINE
  5
2F6C
330
324D
100
AcDbEntity
  8
0
 62
     0
100
AcDbLine
 10
297.3132453531871
 20
-193.8969890261324
 30
0.0
 11
422.3000000000083
 21
-277.2212793528561
 31
0.0
  0
LINE
  5
2F6D
330
324D
100
AcDbEntity
  8
0
 62
     0
100
AcDbLine
 10
301.8132066470752
 20
-193.8969890261342
 30
0.0
 11
422.3000000000083
 21
-274.2213128174408
 31
0.0
  0
LINE
  5
2F6E
330
324D
100
AcDbEntity
  8
0
 62
     0
100
AcDbLine
 10
306.3131679409562
 20
-193.8969890261313
 30
0.0
 11
422.3000000000064
 21
-271.2213462820228
 31
0.0
  0
LINE
  5
2F6F
330
324D
100
AcDbEntity
  8
0
 62
     0
100
AcDbLine
 10
310.8131292348444
 20
-193.8969890261333
 30
0.0
 11
422.3000000000083
 21
-268.2213797466084
 31
0.0
  0
LINE
  5
2F70
330
324D
100
AcDbEntity
  8
0
 62
     0
100
AcDbLine
 10
315.313090528729
 20
-193.8969890261333
 30
0.0
 11
422.3000000000064
 21
-265.2214132111903
 31
0.0
  0
LINE
  5
2F71
330
324D
100
AcDbEntity
  8
0
 62
     0
100
AcDbLine
 10
319.8130518226135
 20
-193.8969890261324
 30
0.0
 11
422.3000000000083
 21
-262.2214466757768
 31
0.0
  0
LINE
  5
2F72
330
324D
100
AcDbEntity
  8
0
 62
     0
100
AcDbLine
 10
324.3130131164999
 20
-193.8969890261324
 30
0.0
 11
422.3000000000083
 21
-259.2214801403589
 31
0.0
  0
LINE
  5
2F73
330
324D
100
AcDbEntity
  8
0
 62
     0
100
AcDbLine
 10
328.8129744103826
 20
-193.8969890261296
 30
0.0
 11
422.3000000000083
 21
-256.2215136049426
 31
0.0
  0
LINE
  5
2F74
330
324D
100
AcDbEntity
  8
0
 62
     0
100
AcDbLine
 10
333.3129357042726
 20
-193.8969890261333
 30
0.0
 11
422.3000000000083
 21
-253.2215470695264
 31
0.0
  0
LINE
  5
2F75
330
324D
100
AcDbEntity
  8
0
 62
     0
100
AcDbLine
 10
337.8128969981552
 20
-193.8969890261313
 30
0.0
 11
422.3000000000064
 21
-250.2215805341093
 31
0.0
  0
LINE
  5
2F76
330
324D
100
AcDbEntity
  8
0
 62
     0
100
AcDbLine
 10
342.3128582920417
 20
-193.8969890261324
 30
0.0
 11
422.3000000000083
 21
-247.221613998694
 31
0.0
  0
LINE
  5
2F77
330
324D
100
AcDbEntity
  8
0
 62
     0
100
AcDbLine
 10
346.8128195859299
 20
-193.8969890261324
 30
0.0
 11
422.3000000000083
 21
-244.2216474632778
 31
0.0
  0
LINE
  5
2F78
330
324D
100
AcDbEntity
  8
0
 62
     0
100
AcDbLine
 10
351.3127808798145
 20
-193.8969890261342
 30
0.0
 11
422.3000000000083
 21
-241.2216809278625
 31
0.0
  0
LINE
  5
2F79
330
324D
100
AcDbEntity
  8
0
 62
     0
100
AcDbLine
 10
355.812742173699
 20
-193.8969890261313
 30
0.0
 11
422.3000000000064
 21
-238.2217143924445
 31
0.0
  0
LINE
  5
2F7A
330
324D
100
AcDbEntity
  8
0
 62
     0
100
AcDbLine
 10
360.3127034675817
 20
-193.8969890261324
 30
0.0
 11
422.3000000000083
 21
-235.2217478570301
 31
0.0
  0
LINE
  5
2F7B
330
324D
100
AcDbEntity
  8
0
 62
     0
100
AcDbLine
 10
364.8126647614717
 20
-193.8969890261324
 30
0.0
 11
422.3000000000064
 21
-232.2217813216121
 31
0.0
  0
LINE
  5
2F7C
330
324D
100
AcDbEntity
  8
0
 62
     0
100
AcDbLine
 10
369.3126260553545
 20
-193.8969890261333
 30
0.0
 11
422.3000000000064
 21
-229.2218147861977
 31
0.0
  0
LINE
  5
2F7D
330
324D
100
AcDbEntity
  8
0
 62
     0
100
AcDbLine
 10
373.8125873492409
 20
-193.8969890261313
 30
0.0
 11
422.3000000000064
 21
-226.2218482507805
 31
0.0
  0
LINE
  5
2F7E
330
324D
100
AcDbEntity
  8
0
 62
     0
100
AcDbLine
 10
378.3125486431255
 20
-193.8969890261324
 30
0.0
 11
422.3000000000083
 21
-223.2218817153653
 31
0.0
  0
LINE
  5
2F7F
330
324D
100
AcDbEntity
  8
0
 62
     0
100
AcDbLine
 10
382.8125099370136
 20
-193.8969890261333
 30
0.0
 11
422.3000000000083
 21
-220.2219151799482
 31
0.0
  0
LINE
  5
2F80
330
324D
100
AcDbEntity
  8
0
 62
     0
100
AcDbLine
 10
387.3124712308983
 20
-193.8969890261313
 30
0.0
 11
422.3000000000064
 21
-217.2219486445301
 31
0.0
  0
LINE
  5
2F81
330
324D
100
AcDbEntity
  8
0
 62
     0
100
AcDbLine
 10
391.8124325247827
 20
-193.8969890261324
 30
0.0
 11
422.3000000000083
 21
-214.2219821091166
 31
0.0
  0
LINE
  5
2F82
330
324D
100
AcDbEntity
  8
0
 62
     0
100
AcDbLine
 10
396.3123938186691
 20
-193.8969890261324
 30
0.0
 11
422.3000000000064
 21
-211.2220155736986
 31
0.0
  0
LINE
  5
2F83
330
324D
100
AcDbEntity
  8
0
 62
     0
100
AcDbLine
 10
400.8123551125554
 20
-193.8969890261324
 30
0.0
 11
422.3000000000102
 21
-208.2220490382842
 31
0.0
  0
LINE
  5
2F84
330
324D
100
AcDbEntity
  8
0
 62
     0
100
AcDbLine
 10
405.3123164064381
 20
-193.8969890261313
 30
0.0
 11
422.3000000000064
 21
-205.2220825028662
 31
0.0
  0
LINE
  5
2F85
330
324D
100
AcDbEntity
  8
0
 62
     0
100
AcDbLine
 10
409.8122777003244
 20
-193.8969890261313
 30
0.0
 11
422.3000000000102
 21
-202.2221159674518
 31
0.0
  0
LINE
  5
2F86
330
324D
100
AcDbEntity
  8
0
 62
     0
100
AcDbLine
 10
414.3122389942107
 20
-193.8969890261324
 30
0.0
 11
422.3000000000064
 21
-199.2221494320347
 31
0.0
  0
LINE
  5
2F87
330
324D
100
AcDbEntity
  8
0
 62
     0
100
AcDbLine
 10
418.812200288097
 20
-193.8969890261333
 30
0.0
 11
422.3000000000083
 21
-196.2221828966194
 31
0.0
  0
ENDBLK
  5
2F88
330
324D
100
AcDbEntity
  8
0
100
AcDbBlockEnd
  0
ENDSEC
  0
SECTION
  2
ENTITIES
  0
TEXT
  5
953
330
31D1
100
AcDbEntity
  8
OUTLINE
  6
Continuous
 62
     3
100
AcDbText
 10
-418.231467
 20
13.715189
 30
0.0
 40
64.0
  1
 
 41
0.9
100
AcDbText
  0
TEXT
  5
954
330
31D1
100
AcDbEntity
  8
OUTLINE
  6
Continuous
 62
     3
100
AcDbText
 10
-418.231467
 20
13.715189
 30
0.0
 40
64.0
  1
 
 41
0.9
100
AcDbText
  0
TEXT
  5
955
330
31D1
100
AcDbEntity
  8
OUTLINE
  6
Continuous
 62
     3
100
AcDbText
 10
1341.41903
 20
-706.0588199999997
 30
0.0
 40
64.0
  1
 
 41
0.9
100
AcDbText
  0
TEXT
  5
956
330
31D1
100
AcDbEntity
  8
OUTLINE
  6
Continuous
 62
     3
100
AcDbText
 10
1341.41903
 20
-706.0588199999997
 30
0.0
 40
64.0
  1
 
 41
0.9
100
AcDbText
  0
TEXT
  5
957
330
31D1
100
AcDbEntity
  8
OUTLINE
  6
Continuous
 62
     3
100
AcDbText
 10
1341.41903
 20
-706.0588199999997
 30
0.0
 40
64.0
  1
 
 41
0.9
100
AcDbText
  0
TEXT
  5
958
330
31D1
100
AcDbEntity
  8
OUTLINE
  6
Continuous
 62
     3
100
AcDbText
 10
1341.41903
 20
-706.0588199999997
 30
0.0
 40
64.0
  1
 
 41
0.9
100
AcDbText
  0
INSERT
  5
3059
330
31D1
100
AcDbEntity
  8
DETAIL___1
  6
Continuous
100
AcDbBlockReference
  2
*X22
 10
0.0
 20
0.000000000005457
 30
0.0
1001
ACADANNOTATIVE
1000
AnnotativeData
1002
{
1070
     1
1070
     0
1002
}
1001
ACAD
1000
HATCH
1002
{
1070
    19
1000
LINE
1040
19.969
1040
0.5880014249968896
1000
R14_HATCH_DATA
1000
32E4
1011
1.0
1021
0.000000000005457
1031
0.0
1011
0.0
1021
1.000000000005456
1031
0.0
1011
0.0
1021
0.000000000005457
1031
1.0
1040
0.0
1010
0.0
1020
0.0
1030
1.0
1000
LINE
1070
     0
1070
     0
1071
        2
1071
        7
1070
     0
1070
     1
1071
        6
1040
206.5000000000109
1040
-193.8969890261305
1040
-422.2999999999919
1040
-193.8969890261305
1040
-422.2999999999883
1040
-1132.584304071666
1040
422.3000000000102
1040
-1132.584304071668
1040
422.3000000000064
1040
-387.6969890261316
1040
206.5000000000073
1040
-387.6969890261335
1071
        0
1071
        7
1070
     0
1070
     1
1071
        4
1040
422.3000000000102
1040
-193.8969890261305
1040
206.5000000000109
1040
-193.8969890261287
1040
206.5000000000109
1040
-387.6969890261297
1040
422.3000000000102
1040
-387.6969890261335
1071
        0
1070
     0
1070
     1
1040
0.5880014249968896
1040
19.969
1070
     0
1070
     1
1040
0.5880014249968896
1040
20049.06843048683
1040
10065.03852034327
1040
-1.384598579568018
1040
2.076903172775084
1070
     0
1040
4.681116929110827
1071
        2
1040
-7.367873819221127
1040
-352.7416209172297
1040
0.0
1040
352.8833088850588
1040
-312.6184105103529
1040
0.0
1002
}
  0
INSERT
  5
305A
330
31D1
100
AcDbEntity
  8
DETAIL___1
  6
Continuous
100
AcDbBlockReference
  2
*X23
 10
0.0
 20
0.000000000005457
 30
0.0
1001
ACADANNOTATIVE
1000
AnnotativeData
1002
{
1070
     1
1070
     0
1002
}
1001
ACAD
1000
HATCH
1002
{
1070
    19
1000
LINE
1040
19.969
1040
5.695183882182695
1000
R14_HATCH_DATA
1000
32EA
1011
1.0
1021
0.000000000005457
1031
0.0
1011
0.0
1021
1.000000000005456
1031
0.0
1011
0.0
1021
0.000000000005457
1031
1.0
1040
0.0
1010
0.0
1020
0.0
1030
1.0
1000
LINE
1070
     0
1070
     0
1071
        2
1071
        7
1070
     0
1070
     1
1071
        6
1040
422.3000000000102
1040
-387.6969890261316
1040
206.5000000000109
1040
-387.6969890261297
1040
206.5000000000109
1040
-193.8969890261305
1040
-422.2999999999919
1040
-193.8969890261305
1040
-422.2999999999883
1040
-1132.584304071666
1040
422.3000000000102
1040
-1132.584304071668
1071
        0
1071
       23
1070
     0
1070
     1
1071
        4
1040
206.5000000000109
1040
-193.8969890261324
1040
206.5000000000109
1040
-387.6969890261316
1040
422.3000000000102
1040
-387.6969890261297
1040
422.3000000000102
1040
-193.8969890261305
1071
        0
1070
     0
1070
     1
1040
5.695183882182695
1040
19.969
1070
     0
1070
     1
1040
5.695183882182695
1040
20049.06843048683
1040
10065.03852034327
1040
1.384598579568018
1040
2.076903172775084
1070
     0
1040
8.972055917688496
1071
        2
1040
-207.4067466922679
1040
-580.693799000037
1040
0.0
1040
317.8780182326955
1040
-239.266312054373
1040
0.0
1002
}
  0
LINE
  5
305B
330
31D1
100
AcDbEntity
  8
DETAIL
100
AcDbLine
 10
422.3000000000102
 20
-193.8969890261251
 30
0.0
 11
422.3000000000102
 21
-387.6969890261262
 31
0.0
  0
LINE
  5
305C
330
31D1
100
AcDbEntity
  8
DETAIL
100
AcDbLine
 10
422.3000000000102
 20
-193.8969890261251
 30
0.0
 11
206.5000000000109
 21
-193.8969890261251
 31
0.0
  0
TEXT
  5
305D
330
31D1
100
AcDbEntity
  8
ETC
100
AcDbText
 10
720.8511233124409
 20
449.4270614903671
 30
0.0
 40
64.0
  1
システム部材
 41
0.9
100
AcDbText
  0
TEXT
  5
305E
330
31D1
100
AcDbEntity
  8
ETC
100
AcDbText
 10
717.9845575867907
 20
551.2578212458882
 30
0.0
 40
64.0
  1
QWH-80SAM_6
 41
0.9
100
AcDbText
  0
TEXT
  5
305F
330
31D1
100
AcDbEntity
  8
ETC
100
AcDbText
 10
717.9845575867907
 20
351.2578212458884
 30
0.0
 40
64.0
  1
QWH-80SAM
 41
0.9
100
AcDbText
  0
LINE
  5
3060
330
31D1
100
AcDbEntity
  8
DETAIL
100
AcDbLine
 10
475.0
 20
-0.3999999999959982
 30
0.0
 11
475.0
 21
-7.999999999998181
 31
0.0
  0
LINE
  5
3061
330
31D1
100
AcDbEntity
  8
DETAIL
100
AcDbLine
 10
-475.0
 20
-0.3999999999959982
 30
0.0
 11
-475.0
 21
-7.999999999998181
 31
0.0
  0
LINE
  5
3062
330
31D1
100
AcDbEntity
  8
DETAIL
100
AcDbLine
 10
-435.0
 20
0.000000000001819
 30
0.0
 11
-475.0
 21
0.000000000001819
 31
0.0
  0
LINE
  5
3063
330
31D1
100
AcDbEntity
  8
DETAIL
100
AcDbLine
 10
475.0
 20
-1.476199999997334
 30
0.0
 11
475.0
 21
-1.87619999999697
 31
0.0
  0
LINE
  5
3064
330
31D1
100
AcDbEntity
  8
DETAIL
100
AcDbLine
 10
475.0
 20
0.000000000001819
 30
0.0
 11
435.0
 21
0.000000000001819
 31
0.0
  0
LINE
  5
3065
330
31D1
100
AcDbEntity
  8
DETAIL
100
AcDbLine
 10
436.0
 20
-139.061986437624
 30
0.0
 11
-436.0
 21
-139.061986437624
 31
0.0
  0
LINE
  5
3066
330
31D1
100
AcDbEntity
  8
DETAIL
100
AcDbLine
 10
437.0
 20
-139.061986437624
 30
0.0
 11
437.0
 21
-165.8442706291662
 31
0.0
  0
LINE
  5
3067
330
31D1
100
AcDbEntity
  8
DETAIL
100
AcDbLine
 10
-437.0
 20
-139.061986437624
 30
0.0
 11
-437.0000000000109
 21
-7.999999999998181
 31
0.0
  0
LINE
  5
3068
330
31D1
100
AcDbEntity
  8
DETAIL
100
AcDbLine
 10
-437.0
 20
-165.8442706291662
 30
0.0
 11
-437.0
 21
-139.061986437624
 31
0.0
  0
LINE
  5
3069
330
31D1
100
AcDbEntity
  8
DETAIL
100
AcDbLine
 10
-436.0
 20
-139.061986437624
 30
0.0
 11
-437.0
 21
-139.061986437624
 31
0.0
  0
LINE
  5
306A
330
31D1
100
AcDbEntity
  8
DETAIL
100
AcDbLine
 10
437.0
 20
-7.999999999998181
 30
0.0
 11
437.0
 21
-139.061986437624
 31
0.0
  0
LINE
  5
306B
330
31D1
100
AcDbEntity
  8
DETAIL
100
AcDbLine
 10
436.0
 20
-139.061986437624
 30
0.0
 11
437.0
 21
-139.061986437624
 31
0.0
  0
LINE
  5
306C
330
31D1
100
AcDbEntity
  8
DETAIL
100
AcDbLine
 10
435.0
 20
0.000000000001819
 30
0.0
 11
-435.0
 21
0.000000000001819
 31
0.0
  0
LINE
  5
306D
330
31D1
100
AcDbEntity
  8
DETAIL
100
AcDbLine
 10
475.0
 20
-7.999999999998181
 30
0.0
 11
-475.0
 21
-7.999999999998181
 31
0.0
  0
LINE
  5
306E
330
31D1
100
AcDbEntity
  8
DETAIL
100
AcDbLine
 10
434.4999999999995
 20
-1161.999999999997
 30
0.0
 11
434.4999999999995
 21
-1146.999965518882
 31
0.0
  0
LINE
  5
306F
330
31D1
100
AcDbEntity
  8
DETAIL
100
AcDbLine
 10
434.4999999999995
 20
-1166.883757344663
 30
0.0
 11
434.4999999999995
 21
-1161.999999999997
 31
0.0
  0
LINE
  5
3070
330
31D1
100
AcDbEntity
  8
DETAIL
100
AcDbLine
 10
434.4999999999995
 20
-1161.999999999997
 30
0.0
 11
-434.4999999999995
 21
-1161.999999999997
 31
0.0
  0
LINE
  5
3071
330
31D1
100
AcDbEntity
  8
DETAIL
100
AcDbLine
 10
-434.4999999999995
 20
-1166.883757344663
 30
0.0
 11
-434.4999999999995
 21
-1161.976199999995
 31
0.0
  0
LINE
  5
3072
330
31D1
100
AcDbEntity
  8
DETAIL
100
AcDbLine
 10
-434.4999999999995
 20
-1161.999999999997
 30
0.0
 11
-434.4999999999995
 21
-1146.999965518882
 31
0.0
  0
LINE
  5
3073
330
31D1
100
AcDbEntity
  8
DETAIL
100
AcDbLine
 10
-434.4999999999995
 20
-1166.883757344663
 30
0.0
 11
-429.4999999999994
 21
-1168.999999999998
 31
0.0
  0
LINE
  5
3074
330
31D1
100
AcDbEntity
  8
DETAIL
100
AcDbLine
 10
429.4999999999994
 20
-1168.999999999998
 30
0.0
 11
-429.4999999999994
 21
-1168.999999999998
 31
0.0
  0
LINE
  5
3075
330
31D1
100
AcDbEntity
  8
DETAIL
100
AcDbLine
 10
429.4999999999994
 20
-1168.999999999998
 30
0.0
 11
434.4999999999995
 21
-1166.883757344663
 31
0.0
  0
LINE
  5
3076
330
31D1
100
AcDbEntity
  8
DETAIL
100
AcDbLine
 10
437.3000000000102
 20
-165.8442706291662
 30
0.0
 11
448.5
 21
-165.8442706291662
 31
0.0
  0
LINE
  5
3077
330
31D1
100
AcDbEntity
  8
DETAIL
100
AcDbLine
 10
448.5000000000109
 20
-180.6106221121645
 30
0.0
 11
448.5000000000109
 21
-165.8442706291662
 31
0.0
  0
LINE
  5
3078
330
31D1
100
AcDbEntity
  8
DETAIL
100
AcDbLine
 10
448.5000000000109
 20
-1146.999965518882
 30
0.0
 11
-448.4999999999891
 21
-1146.999965518884
 31
0.0
  0
LINE
  5
3079
330
31D1
100
AcDbEntity
  8
DETAIL
100
AcDbLine
 10
437.3000000000102
 20
-178.8869189512388
 30
0.0
 11
437.3000000000102
 21
-165.8442706291662
 31
0.0
  0
LINE
  5
307A
330
31D1
100
AcDbEntity
  8
DETAIL
100
AcDbLine
 10
-437.2999999999878
 20
-165.8442706291662
 30
0.0
 11
-448.4999999999891
 21
-165.8442706291662
 31
0.0
  0
LINE
  5
307B
330
31D1
100
AcDbEntity
  8
DETAIL
100
AcDbLine
 10
-448.5
 20
-165.8442706291662
 30
0.0
 11
-448.5
 21
-180.6106221121645
 31
0.0
  0
LINE
  5
307C
330
31D1
100
AcDbEntity
  8
DETAIL
100
AcDbLine
 10
-437.2999999999878
 20
-165.8442706291662
 30
0.0
 11
-437.2999999999878
 21
-178.8869189512388
 31
0.0
  0
LINE
  5
307D
330
31D1
100
AcDbEntity
  8
DETAIL
100
AcDbLine
 10
437.3000000000102
 20
-178.8869189512388
 30
0.0
 11
437.3000000000102
 21
-193.775129730182
 31
0.0
  0
LINE
  5
307E
330
31D1
100
AcDbEntity
  8
DETAIL
100
AcDbLine
 10
-437.2999999999878
 20
-178.8869189512388
 30
0.0
 11
-437.2999999999878
 21
-193.775129730182
 31
0.0
  0
LINE
  5
307F
330
31D1
100
AcDbEntity
  8
DETAIL
100
AcDbLine
 10
-437.2999999999878
 20
-178.8869189512388
 30
0.0
 11
437.3000000000102
 21
-178.8869189512388
 31
0.0
  0
LINE
  5
3080
330
31D1
100
AcDbEntity
  8
DETAIL
100
AcDbLine
 10
-437.2999999999878
 20
-165.8442706291662
 30
0.0
 11
-437.2999999999878
 21
-178.8869189512388
 31
0.0
  0
LINE
  5
3081
330
31D1
100
AcDbEntity
  8
DETAIL
100
AcDbLine
 10
437.3000000000102
 20
-165.8442706291662
 30
0.0
 11
437.3000000000102
 21
-178.8869189512388
 31
0.0
  0
LINE
  5
3082
330
31D1
100
AcDbEntity
  8
DETAIL
100
AcDbLine
 10
-437.2999999999878
 20
-165.8442706291662
 30
0.0
 11
437.3000000000102
 21
-165.8442706291662
 31
0.0
  0
LINE
  5
3083
330
31D1
100
AcDbEntity
  8
DETAIL
100
AcDbLine
 10
-437.2999999999878
 20
-193.775129730182
 30
0.0
 11
-437.2999999999878
 21
-193.8969890261251
 31
0.0
  0
LINE
  5
3084
330
31D1
100
AcDbEntity
  8
DETAIL
100
AcDbLine
 10
-437.2999999999878
 20
-193.8969890261251
 30
0.0
 11
437.3000000000102
 21
-193.8969890261251
 31
0.0
  0
LINE
  5
3085
330
31D1
100
AcDbEntity
  8
DETAIL
100
AcDbLine
 10
437.3000000000102
 20
-193.775129730182
 30
0.0
 11
437.3000000000102
 21
-193.8969890261251
 31
0.0
  0
LINE
  5
3086
330
31D1
100
AcDbEntity
  8
DETAIL
100
AcDbLine
 10
437.3000000000102
 20
-1146.146950447274
 30
0.0
 11
422.3000000000102
 21
-1146.146950447274
 31
0.0
  0
LINE
  5
3087
330
31D1
100
AcDbEntity
  8
DETAIL
100
AcDbLine
 10
437.3000000000102
 20
-193.8969890261251
 30
0.0
 11
437.3000000000102
 21
-1146.268809743219
 31
0.0
  0
LINE
  5
3088
330
31D1
100
AcDbEntity
  8
DETAIL
100
AcDbLine
 10
448.5
 20
-180.6106221121645
 30
0.0
 11
437.3000000000102
 21
-180.6106221121645
 31
0.0
  0
LINE
  5
3089
330
31D1
100
AcDbEntity
  8
DETAIL
100
AcDbLine
 10
448.5
 20
-180.6106221121645
 30
0.0
 11
448.5000000000109
 21
-1146.999965518882
 31
0.0
  0
LINE
  5
308A
330
31D1
100
AcDbEntity
  8
DETAIL
100
AcDbLine
 10
422.3000000000102
 20
-297.7670728938792
 30
0.0
 11
422.3000000000102
 21
-652.6027631253364
 31
0.0
  0
LINE
  5
308B
330
31D1
100
AcDbEntity
  8
DETAIL
100
AcDbLine
 10
422.3000000000102
 20
-193.8969890261251
 30
0.0
 11
422.3000000000102
 21
-285.3602305780933
 31
0.0
  0
LINE
  5
308C
330
31D1
100
AcDbEntity
  8
DETAIL
100
AcDbLine
 10
422.3000000000102
 20
-1146.146950447274
 30
0.0
 11
422.3000000000102
 21
-1146.268809743219
 31
0.0
  0
LINE
  5
308D
330
31D1
100
AcDbEntity
  8
DETAIL
100
AcDbLine
 10
422.3000000000102
 20
-1032.252137988368
 30
0.0
 11
422.3000000000102
 21
-1146.146950447274
 31
0.0
  0
LINE
  5
308E
330
31D1
100
AcDbEntity
  8
DETAIL
100
AcDbLine
 10
422.3000000000102
 20
-665.0096054411243
 30
0.0
 11
422.3000000000102
 21
-1019.845295672582
 31
0.0
  0
LINE
  5
308F
330
31D1
100
AcDbEntity
  8
DETAIL
100
AcDbLine
 10
422.3000000000102
 20
-1146.268809743219
 30
0.0
 11
437.3000000000102
 21
-1146.268809743219
 31
0.0
  0
LINE
  5
3090
330
31D1
100
AcDbEntity
  8
DETAIL
100
AcDbLine
 10
422.3000000000102
 20
-1019.845295672582
 30
0.0
 11
422.3000000000102
 21
-1019.967154968524
 31
0.0
  0
LINE
  5
3091
330
31D1
100
AcDbEntity
  8
DETAIL
100
AcDbLine
 10
422.3000000000102
 20
-285.3602305780933
 30
0.0
 11
422.3000000000102
 21
-285.482089874038
 31
0.0
  0
LINE
  5
3092
330
31D1
100
AcDbEntity
  8
DETAIL
100
AcDbLine
 10
422.3000000000102
 20
-1145.885558837677
 30
0.0
 11
-422.2999999999883
 21
-1145.885558837677
 31
0.0
  0
LINE
  5
3093
330
31D1
100
AcDbEntity
  8
DETAIL
100
AcDbLine
 10
422.3000000000102
 20
-1145.641840245787
 30
0.0
 11
-422.2999999999883
 21
-1145.641840245787
 31
0.0
  0
LINE
  5
3094
330
31D1
100
AcDbEntity
  8
DETAIL
100
AcDbLine
 10
422.3000000000102
 20
-1032.252137988368
 30
0.0
 11
422.3000000000102
 21
-1019.967154968524
 31
0.0
  0
LINE
  5
3095
330
31D1
100
AcDbEntity
  8
DETAIL
100
AcDbLine
 10
422.3000000000102
 20
-297.7670728938792
 30
0.0
 11
422.3000000000102
 21
-285.482089874038
 31
0.0
  0
LINE
  5
3096
330
31D1
100
AcDbEntity
  8
DETAIL
100
AcDbLine
 10
-422.2999999999883
 20
-285.482089874038
 30
0.0
 11
-422.2999999999883
 21
-297.7670728938792
 31
0.0
  0
LINE
  5
3097
330
31D1
100
AcDbEntity
  8
DETAIL
100
AcDbLine
 10
-422.2999999999883
 20
-1019.967154968524
 30
0.0
 11
-422.2999999999883
 21
-1032.252137988368
 31
0.0
  0
LINE
  5
3098
330
31D1
100
AcDbEntity
  8
DETAIL
100
AcDbLine
 10
-422.2999999999883
 20
-653.6361013710063
 30
0.0
 11
-422.2999999999883
 21
-665.0096054411243
 31
0.0
  0
LINE
  5
3099
330
31D1
100
AcDbEntity
  8
DETAIL
100
AcDbLine
 10
422.3000000000102
 20
-665.0096054411243
 30
0.0
 11
422.3000000000102
 21
-653.6361013710063
 31
0.0
  0
LINE
  5
309A
330
31D1
100
AcDbEntity
  8
DETAIL
100
AcDbLine
 10
-437.2999999999878
 20
-1146.146950447274
 30
0.0
 11
-422.2999999999883
 21
-1146.146950447274
 31
0.0
  0
LINE
  5
309B
330
31D1
100
AcDbEntity
  8
DETAIL
100
AcDbLine
 10
-437.2999999999878
 20
-1146.146950447274
 30
0.0
 11
-437.2999999999878
 21
-193.8969890261251
 31
0.0
  0
LINE
  5
309C
330
31D1
100
AcDbEntity
  8
DETAIL
100
AcDbLine
 10
-448.4999999999891
 20
-180.6106221121645
 30
0.0
 11
-437.2999999999878
 21
-180.6106221121645
 31
0.0
  0
LINE
  5
309D
330
31D1
100
AcDbEntity
  8
DETAIL
100
AcDbLine
 10
-448.4999999999891
 20
-1146.999965518884
 30
0.0
 11
-448.4999999999891
 21
-180.6106221121645
 31
0.0
  0
LINE
  5
309E
330
31D1
100
AcDbEntity
  8
DETAIL
100
AcDbLine
 10
-422.2999999999883
 20
-1019.845295672582
 30
0.0
 11
-422.2999999999883
 21
-665.0096054411243
 31
0.0
  0
LINE
  5
309F
330
31D1
100
AcDbEntity
  8
DETAIL
100
AcDbLine
 10
-422.2999999999883
 20
-1146.146950447274
 30
0.0
 11
-422.2999999999883
 21
-1032.252137988368
 31
0.0
  0
LINE
  5
30A0
330
31D1
100
AcDbEntity
  8
DETAIL
100
AcDbLine
 10
-422.2999999999883
 20
-285.3602305780933
 30
0.0
 11
-422.2999999999883
 21
-193.8969890261251
 31
0.0
  0
LINE
  5
30A1
330
31D1
100
AcDbEntity
  8
DETAIL
100
AcDbLine
 10
-422.2999999999883
 20
-652.6027631253364
 30
0.0
 11
-422.2999999999883
 21
-297.7670728938792
 31
0.0
  0
LINE
  5
30A2
330
31D1
100
AcDbEntity
  8
DETAIL
100
AcDbLine
 10
-422.2999999999883
 20
-1132.584304071662
 30
0.0
 11
422.3000000000102
 21
-1132.584304071662
 31
0.0
  0
CIRCLE
  5
30A3
330
31D1
100
AcDbEntity
  8
ARRANGE
100
AcDbCircle
 10
0.0
 20
0.000000000001819
 30
0.0
 40
40.0
  0
LINE
  5
30A4
330
31D1
100
AcDbEntity
  8
ARRANGE
100
AcDbLine
 10
-19.19638649990156
 20
19.19638649990702
 30
0.0
 11
19.19638649989792
 21
-19.19638649990338
 31
0.0
  0
LINE
  5
30A5
330
31D1
100
AcDbEntity
  8
ARRANGE
100
AcDbLine
 10
19.19638649989792
 20
19.19638649990702
 30
0.0
 11
-19.19638649990156
 21
-19.19638649989974
 31
0.0
  0
LINE
  5
30A6
330
31D1
100
AcDbEntity
  8
BASIC
100
AcDbLine
 10
0.0
 20
-1.476199999997334
 30
0.0
 11
0.0
 21
-1.476199999997334
 31
0.0
  0
LINE
  5
30A7
330
31D1
100
AcDbEntity
  8
BASIC
100
AcDbLine
 10
0.0
 20
25.00000000000546
 30
0.0
 11
0.0
 21
-1193.999999999997
 31
0.0
  0
LINE
  5
30A8
330
31D1
100
AcDbEntity
  8
NOTE
100
AcDbLine
 10
450.0
 20
-12.49999999999818
 30
0.0
 11
450.0
 21
12.50000000000182
 31
0.0
  0
LINE
  5
30A9
330
31D1
100
AcDbEntity
  8
NOTE
100
AcDbLine
 10
-450.0
 20
-12.49999999999818
 30
0.0
 11
-450.0
 21
12.50000000000182
 31
0.0
  0
LINE
  5
30AA
330
31D1
100
AcDbEntity
  8
DETAIL
100
AcDbLine
 39
50.0
 10
-434.4999999999995
 20
-1146.999965518884
 30
0.0
 11
-434.4999999999995
 21
-1147.999965518884
 31
0.0
  0
LINE
  5
30AB
330
31D1
100
AcDbEntity
  8
NOTE
100
AcDbLine
 39
50.0
 10
-462.5
 20
0.000000000001819
 30
0.0
 11
-437.5
 21
0.000000000001819
 31
0.0
  0
LINE
  5
30AC
330
31D1
100
AcDbEntity
  8
NOTE
100
AcDbLine
 39
50.0
 10
437.5
 20
0.000000000001819
 30
0.0
 11
462.5
 21
0.000000000001819
 31
0.0
  0
LINE
  5
30AD
330
31D1
100
AcDbEntity
  8
OUTLINE
100
AcDbLine
 10
-435.0
 20
0.000000000001819
 30
0.0
 11
-475.0
 21
0.000000000001819
 31
0.0
  0
LINE
  5
30AE
330
31D1
100
AcDbEntity
  8
OUTLINE
100
AcDbLine
 10
475.0
 20
0.000000000001819
 30
0.0
 11
435.0
 21
0.000000000001819
 31
0.0
  0
LINE
  5
30AF
330
31D1
100
AcDbEntity
  8
OUTLINE
100
AcDbLine
 10
435.0
 20
0.000000000001819
 30
0.0
 11
-435.0
 21
0.000000000001819
 31
0.0
  0
LINE
  5
30B0
330
31D1
100
AcDbEntity
  8
OUTLINE
100
AcDbLine
 10
475.0
 20
-0.3999999999959982
 30
0.0
 11
475.0
 21
-7.999999999998181
 31
0.0
  0
LINE
  5
30B1
330
31D1
100
AcDbEntity
  8
OUTLINE
100
AcDbLine
 10
475.0
 20
-1.476199999997334
 30
0.0
 11
475.0
 21
-1.87619999999697
 31
0.0
  0
LINE
  5
30B2
330
31D1
100
AcDbEntity
  8
OUTLINE
100
AcDbLine
 10
436.0
 20
-139.061986437624
 30
0.0
 11
-436.0
 21
-139.061986437624
 31
0.0
  0
LINE
  5
30B3
330
31D1
100
AcDbEntity
  8
OUTLINE
100
AcDbLine
 10
437.0
 20
-139.061986437624
 30
0.0
 11
437.0
 21
-165.8442706291662
 31
0.0
  0
LINE
  5
30B4
330
31D1
100
AcDbEntity
  8
OUTLINE
100
AcDbLine
 10
-437.0
 20
-165.8442706291662
 30
0.0
 11
-437.0
 21
-139.061986437624
 31
0.0
  0
LINE
  5
30B5
330
31D1
100
AcDbEntity
  8
OUTLINE
100
AcDbLine
 10
-436.0
 20
-139.061986437624
 30
0.0
 11
-437.0
 21
-139.061986437624
 31
0.0
  0
LINE
  5
30B6
330
31D1
100
AcDbEntity
  8
OUTLINE
100
AcDbLine
 10
436.0
 20
-139.061986437624
 30
0.0
 11
437.0
 21
-139.061986437624
 31
0.0
  0
LINE
  5
30B7
330
31D1
100
AcDbEntity
  8
OUTLINE
100
AcDbLine
 10
475.0
 20
-7.999999999998181
 30
0.0
 11
-475.0
 21
-7.999999999998181
 31
0.0
  0
LINE
  5
30B8
330
31D1
100
AcDbEntity
  8
OUTLINE
100
AcDbLine
 10
434.4999999999995
 20
-1161.999999999997
 30
0.0
 11
-434.4999999999995
 21
-1161.999999999997
 31
0.0
  0
LINE
  5
30B9
330
31D1
100
AcDbEntity
  8
OUTLINE
100
AcDbLine
 10
-434.4999999999995
 20
-1166.883757344663
 30
0.0
 11
-429.4999999999994
 21
-1168.999999999998
 31
0.0
  0
LINE
  5
30BA
330
31D1
100
AcDbEntity
  8
OUTLINE
100
AcDbLine
 10
429.4999999999994
 20
-1168.999999999998
 30
0.0
 11
-429.4999999999994
 21
-1168.999999999998
 31
0.0
  0
LINE
  5
30BB
330
31D1
100
AcDbEntity
  8
OUTLINE
100
AcDbLine
 10
429.4999999999994
 20
-1168.999999999998
 30
0.0
 11
434.4999999999995
 21
-1166.883757344663
 31
0.0
  0
LINE
  5
30BC
330
31D1
100
AcDbEntity
  8
OUTLINE
100
AcDbLine
 10
437.3000000000102
 20
-165.8442706291662
 30
0.0
 11
448.5
 21
-165.8442706291662
 31
0.0
  0
LINE
  5
30BD
330
31D1
100
AcDbEntity
  8
OUTLINE
100
AcDbLine
 10
448.5000000000109
 20
-180.6106221121645
 30
0.0
 11
448.5000000000109
 21
-165.8442706291662
 31
0.0
  0
LINE
  5
30BE
330
31D1
100
AcDbEntity
  8
OUTLINE
100
AcDbLine
 10
448.5000000000109
 20
-1146.999965518882
 30
0.0
 11
-448.4999999999891
 21
-1146.999965518884
 31
0.0
  0
LINE
  5
30BF
330
31D1
100
AcDbEntity
  8
OUTLINE
100
AcDbLine
 10
437.3000000000102
 20
-178.8869189512388
 30
0.0
 11
437.3000000000102
 21
-165.8442706291662
 31
0.0
  0
LINE
  5
30C0
330
31D1
100
AcDbEntity
  8
OUTLINE
100
AcDbLine
 10
-437.2999999999878
 20
-165.8442706291662
 30
0.0
 11
-448.4999999999891
 21
-165.8442706291662
 31
0.0
  0
LINE
  5
30C1
330
31D1
100
AcDbEntity
  8
OUTLINE
100
AcDbLine
 10
-448.5
 20
-165.8442706291662
 30
0.0
 11
-448.5
 21
-180.6106221121645
 31
0.0
  0
LINE
  5
30C2
330
31D1
100
AcDbEntity
  8
OUTLINE
100
AcDbLine
 10
-437.2999999999878
 20
-165.8442706291662
 30
0.0
 11
-437.2999999999878
 21
-178.8869189512388
 31
0.0
  0
LINE
  5
30C3
330
31D1
100
AcDbEntity
  8
OUTLINE
100
AcDbLine
 10
437.3000000000102
 20
-178.8869189512388
 30
0.0
 11
437.3000000000102
 21
-193.775129730182
 31
0.0
  0
LINE
  5
30C4
330
31D1
100
AcDbEntity
  8
OUTLINE
100
AcDbLine
 10
-437.2999999999878
 20
-178.8869189512388
 30
0.0
 11
-437.2999999999878
 21
-193.775129730182
 31
0.0
  0
LINE
  5
30C5
330
31D1
100
AcDbEntity
  8
OUTLINE
100
AcDbLine
 10
-437.2999999999878
 20
-178.8869189512388
 30
0.0
 11
437.3000000000102
 21
-178.8869189512388
 31
0.0
  0
LINE
  5
30C6
330
31D1
100
AcDbEntity
  8
OUTLINE
100
AcDbLine
 10
-437.2999999999878
 20
-165.8442706291662
 30
0.0
 11
-437.2999999999878
 21
-178.8869189512388
 31
0.0
  0
LINE
  5
30C7
330
31D1
100
AcDbEntity
  8
OUTLINE
100
AcDbLine
 10
437.3000000000102
 20
-165.8442706291662
 30
0.0
 11
437.3000000000102
 21
-178.8869189512388
 31
0.0
  0
LINE
  5
30C8
330
31D1
100
AcDbEntity
  8
OUTLINE
100
AcDbLine
 10
-437.2999999999878
 20
-165.8442706291662
 30
0.0
 11
437.3000000000102
 21
-165.8442706291662
 31
0.0
  0
LINE
  5
30C9
330
31D1
100
AcDbEntity
  8
OUTLINE
100
AcDbLine
 10
437.3000000000102
 20
-193.775129730182
 30
0.0
 11
437.3000000000102
 21
-193.8969890261251
 31
0.0
  0
LINE
  5
30CA
330
31D1
100
AcDbEntity
  8
OUTLINE
100
AcDbLine
 10
437.3000000000102
 20
-1146.146950447274
 30
0.0
 11
422.3000000000102
 21
-1146.146950447274
 31
0.0
  0
LINE
  5
30CB
330
31D1
100
AcDbEntity
  8
OUTLINE
100
AcDbLine
 10
437.3000000000102
 20
-193.8969890261251
 30
0.0
 11
437.3000000000102
 21
-1146.268809743219
 31
0.0
  0
LINE
  5
30CC
330
31D1
100
AcDbEntity
  8
OUTLINE
100
AcDbLine
 10
448.5
 20
-180.6106221121645
 30
0.0
 11
437.3000000000102
 21
-180.6106221121645
 31
0.0
  0
LINE
  5
30CD
330
31D1
100
AcDbEntity
  8
OUTLINE
100
AcDbLine
 10
448.5
 20
-180.6106221121645
 30
0.0
 11
448.5000000000109
 21
-1146.999965518882
 31
0.0
  0
LINE
  5
30CE
330
31D1
100
AcDbEntity
  8
OUTLINE
100
AcDbLine
 10
422.3000000000102
 20
-1146.146950447274
 30
0.0
 11
422.3000000000102
 21
-1146.268809743219
 31
0.0
  0
LINE
  5
30CF
330
31D1
100
AcDbEntity
  8
OUTLINE
100
AcDbLine
 10
422.3000000000102
 20
-1146.268809743219
 30
0.0
 11
437.3000000000102
 21
-1146.268809743219
 31
0.0
  0
LINE
  5
30D0
330
31D1
100
AcDbEntity
  8
OUTLINE
100
AcDbLine
 10
422.3000000000102
 20
-1145.885558837677
 30
0.0
 11
-422.2999999999883
 21
-1145.885558837677
 31
0.0
  0
LINE
  5
30D1
330
31D1
100
AcDbEntity
  8
OUTLINE
100
AcDbLine
 10
422.3000000000102
 20
-1145.641840245787
 30
0.0
 11
-422.2999999999883
 21
-1145.641840245787
 31
0.0
  0
LINE
  5
30D2
330
31D1
100
AcDbEntity
  8
OUTLINE
100
AcDbLine
 10
-437.2999999999878
 20
-1146.146950447274
 30
0.0
 11
-422.2999999999883
 21
-1146.146950447274
 31
0.0
  0
LINE
  5
30D3
330
31D1
100
AcDbEntity
  8
OUTLINE
100
AcDbLine
 10
-437.2999999999878
 20
-1146.146950447274
 30
0.0
 11
-437.2999999999878
 21
-193.8969890261251
 31
0.0
  0
LINE
  5
30D4
330
31D1
100
AcDbEntity
  8
OUTLINE
100
AcDbLine
 10
-448.4999999999891
 20
-180.6106221121645
 30
0.0
 11
-437.2999999999878
 21
-180.6106221121645
 31
0.0
  0
LINE
  5
30D5
330
31D1
100
AcDbEntity
  8
OUTLINE
100
AcDbLine
 10
-448.4999999999891
 20
-1146.999965518884
 30
0.0
 11
-448.4999999999891
 21
-180.6106221121645
 31
0.0
  0
LINE
  5
30D6
330
31D1
100
AcDbEntity
  8
OUTLINE
100
AcDbLine
 39
50.0
 10
-434.4999999999995
 20
-1146.999965518884
 30
0.0
 11
-434.4999999999995
 21
-1147.999965518884
 31
0.0
  0
LINE
  5
30D7
330
31D1
100
AcDbEntity
  8
DETAIL
100
AcDbLine
 39
50.0
 10
-475.0
 20
-0.3999999999959982
 30
0.0
 11
-475.0
 21
0.000000000001819
 31
0.0
  0
LINE
  5
30D8
330
31D1
100
AcDbEntity
  8
OUTLINE
100
AcDbLine
 10
-475.0
 20
-0.3999999999959982
 30
0.0
 11
-475.0
 21
-7.999999999998181
 31
0.0
  0
LINE
  5
30D9
330
31D1
100
AcDbEntity
  8
OUTLINE
100
AcDbLine
 39
50.0
 10
-475.0
 20
-0.3999999999959982
 30
0.0
 11
-475.0
 21
0.000000000001819
 31
0.0
  0
LINE
  5
30DA
330
31D1
100
AcDbEntity
  8
OUTLINE
100
AcDbLine
 10
-437.0
 20
-139.061986437624
 30
0.0
 11
-437.0000000000109
 21
-7.999999999998181
 31
0.0
  0
LINE
  5
30DB
330
31D1
100
AcDbEntity
  8
OUTLINE
100
AcDbLine
 10
437.0
 20
-7.999999999998181
 30
0.0
 11
437.0
 21
-139.061986437624
 31
0.0
  0
LINE
  5
30DC
330
31D1
100
AcDbEntity
  8
OUTLINE
100
AcDbLine
 10
-434.4999999999995
 20
-1161.999999999997
 30
0.0
 11
-434.4999999999995
 21
-1146.999965518882
 31
0.0
  0
LINE
  5
30DD
330
31D1
100
AcDbEntity
  8
OUTLINE
100
AcDbLine
 10
-434.4999999999995
 20
-1166.883757344663
 30
0.0
 11
-434.4999999999995
 21
-1161.976199999995
 31
0.0
  0
LINE
  5
30DE
330
31D1
100
AcDbEntity
  8
OUTLINE
100
AcDbLine
 10
434.4999999999995
 20
-1161.999999999997
 30
0.0
 11
434.4999999999995
 21
-1146.999965518882
 31
0.0
  0
LINE
  5
30DF
330
31D1
100
AcDbEntity
  8
OUTLINE
100
AcDbLine
 10
434.4999999999995
 20
-1166.883757344663
 30
0.0
 11
434.4999999999995
 21
-1161.999999999997
 31
0.0
  0
LINE
  5
30E0
330
31D1
100
AcDbEntity
  8
DETAIL
100
AcDbLine
 39
50.0
 10
-422.2999999999883
 20
-1019.845295672582
 30
0.0
 11
-422.2999999999883
 21
-1019.967154968524
 31
0.0
  0
LINE
  5
30E1
330
31D1
100
AcDbEntity
  8
DETAIL
100
AcDbLine
 39
50.0
 10
-422.2999999999883
 20
-652.6027631253364
 30
0.0
 11
-422.2999999999883
 21
-653.6361013710063
 31
0.0
  0
LINE
  5
30E2
330
31D1
100
AcDbEntity
  8
DETAIL
100
AcDbLine
 39
50.0
 10
-422.2999999999883
 20
-285.3602305780933
 30
0.0
 11
-422.2999999999883
 21
-285.482089874038
 31
0.0
  0
LINE
  5
30E3
330
31D1
100
AcDbEntity
  8
DETAIL
100
AcDbLine
 39
50.0
 10
422.3000000000102
 20
-652.6027631253364
 30
0.0
 11
422.3000000000102
 21
-653.6361013710063
 31
0.0
  0
LINE
  5
30E4
330
31D1
100
AcDbEntity
  8
DETAIL
100
AcDbLine
 39
50.0
 10
-422.2999999999883
 20
-193.8969890261251
 30
0.0
 11
-422.2999999999883
 21
-1132.584304071662
 31
0.0
  0
LINE
  5
30E5
330
31D1
100
AcDbEntity
  8
DETAIL
100
AcDbLine
 39
50.0
 10
-422.2999999999883
 20
-1132.584304071662
 30
0.0
 11
422.3000000000102
 21
-1132.584304071662
 31
0.0
  0
LINE
  5
30E6
330
31D1
100
AcDbEntity
  8
DETAIL
100
AcDbLine
 39
50.0
 10
422.3000000000102
 20
-1132.584304071662
 30
0.0
 11
422.3000000000102
 21
-193.8969890261251
 31
0.0
  0
LINE
  5
30E7
330
31D1
100
AcDbEntity
  8
DETAIL
100
AcDbLine
 39
50.0
 10
422.3000000000102
 20
-193.8969890261251
 30
0.0
 11
-422.2999999999883
 21
-193.8969890261251
 31
0.0
  0
LINE
  5
30E8
330
31D1
100
AcDbEntity
  8
OUTLINE
100
AcDbLine
 39
50.0
 10
437.3000000000102
 20
-193.8969890261251
 30
0.0
 11
-437.2999999999878
 21
-193.8969890261251
 31
0.0
  0
LINE
  5
30E9
330
31D1
100
AcDbEntity
  8
OUTLINE
100
AcDbLine
 39
50.0
 10
-422.2999999999883
 20
-193.8969890261251
 30
0.0
 11
-422.2999999999883
 21
-1146.146950447274
 31
0.0
  0
LINE
  5
30EA
330
31D1
100
AcDbEntity
  8
OUTLINE
100
AcDbLine
 39
50.0
 10
-422.2999999999883
 20
-1132.584304071662
 30
0.0
 11
422.3000000000102
 21
-1132.584304071662
 31
0.0
  0
LINE
  5
30EB
330
31D1
100
AcDbEntity
  8
OUTLINE
100
AcDbLine
 39
50.0
 10
422.3000000000102
 20
-1146.146950447274
 30
0.0
 11
422.3000000000102
 21
-193.8969890261251
 31
0.0
  0
LINE
  5
30EC
330
31D1
100
AcDbEntity
  8
OUTLINE
100
AcDbLine
 10
-437.2999999999878
 20
-193.775129730182
 30
0.0
 11
-437.2999999999878
 21
-193.8969890261251
 31
0.0
  0
LINE
  5
30ED
330
31D1
100
AcDbEntity
  8
SIZE
100
AcDbLine
 10
495.0
 20
0.000000000001819
 30
0.0
 11
597.6322695937453
 21
0.000000000001819
 31
0.0
  0
LINE
  5
30EE
330
31D1
100
AcDbEntity
  8
SIZE
100
AcDbLine
 10
495.0
 20
-7.999999999998181
 30
0.0
 11
597.6322695937453
 21
-7.999999999998181
 31
0.0
  0
LINE
  5
30EF
330
31D1
100
AcDbEntity
  8
SIZE
100
AcDbLine
 10
577.6322695937452
 20
12.00000000000182
 30
0.0
 11
577.6322695937452
 21
24.00000000000181
 31
0.0
  0
LINE
  5
30F0
330
31D1
100
AcDbEntity
  8
SIZE
100
AcDbLine
 10
577.6322695937452
 20
-19.99999999999818
 30
0.0
 11
577.6322695937452
 21
-90.39999999999823
 31
0.0
  0
LINE
  5
30F1
330
31D1
100
AcDbEntity
  8
SIZE
100
AcDbLine
 10
577.6322695937452
 20
0.000000000001819
 30
0.0
 11
577.6322695937452
 21
-7.999999999998181
 31
0.0
  0
INSERT
  5
30F2
330
31D1
100
AcDbEntity
  8
SIZE
100
AcDbBlockReference
  2
_DOTBLANK
 10
577.6322695937452
 20
0.000000000001819
 30
0.0
 41
12.0
 42
12.0
 43
12.0
 50
270.0
  0
INSERT
  5
30F3
330
31D1
100
AcDbEntity
  8
SIZE
100
AcDbBlockReference
  2
_DOTBLANK
 10
577.6322695937452
 20
-7.999999999998181
 30
0.0
 41
12.0
 42
12.0
 43
12.0
 50
90.0
  0
LINE
  5
30F4
330
31D1
100
AcDbEntity
  8
SIZE
100
AcDbLine
 10
-450.0
 20
32.50000000000182
 30
0.0
 11
-450.0
 21
226.7018665200613
 31
0.0
  0
LINE
  5
30F5
330
31D1
100
AcDbEntity
  8
SIZE
100
AcDbLine
 10
450.0
 20
32.50000000000182
 30
0.0
 11
450.0
 21
226.7018665200613
 31
0.0
  0
LINE
  5
30F6
330
31D1
100
AcDbEntity
  8
SIZE
100
AcDbLine
 10
-438.0
 20
206.7018665200612
 30
0.0
 11
438.0
 21
206.7018665200612
 31
0.0
  0
INSERT
  5
30F7
330
31D1
100
AcDbEntity
  8
SIZE
100
AcDbBlockReference
  2
_DOTBLANK
 10
-450.0
 20
206.7018665200612
 30
0.0
 41
12.0
 42
12.0
 43
12.0
 50
180.0
  0
INSERT
  5
30F8
330
31D1
100
AcDbEntity
  8
SIZE
100
AcDbBlockReference
  2
_DOTBLANK
 10
450.0
 20
206.7018665200612
 30
0.0
 41
12.0
 42
12.0
 43
12.0
  0
LINE
  5
30F9
330
31D1
100
AcDbEntity
  8
SIZE
100
AcDbLine
 10
-475.0
 20
20.00000000000182
 30
0.0
 11
-475.0
 21
346.9763056766915
 31
0.0
  0
LINE
  5
30FA
330
31D1
100
AcDbEntity
  8
SIZE
100
AcDbLine
 10
475.0
 20
19.600000000004
 30
0.0
 11
475.0
 21
346.9763056766915
 31
0.0
  0
LINE
  5
30FB
330
31D1
100
AcDbEntity
  8
SIZE
100
AcDbLine
 10
-463.0
 20
326.9763056766915
 30
0.0
 11
463.0
 21
326.9763056766915
 31
0.0
  0
INSERT
  5
30FC
330
31D1
100
AcDbEntity
  8
SIZE
100
AcDbBlockReference
  2
_DOTBLANK
 10
-475.0
 20
326.9763056766915
 30
0.0
 41
12.0
 42
12.0
 43
12.0
 50
180.0
  0
INSERT
  5
30FD
330
31D1
100
AcDbEntity
  8
SIZE
100
AcDbBlockReference
  2
_DOTBLANK
 10
475.0
 20
326.9763056766915
 30
0.0
 41
12.0
 42
12.0
 43
12.0
  0
LINE
  5
30FE
330
31D1
100
AcDbEntity
  8
SIZE
100
AcDbLine
 10
-468.4999999999891
 20
-1146.999965518884
 30
0.0
 11
-854.2032129615144
 21
-1146.999965518884
 31
0.0
  0
LINE
  5
30FF
330
31D1
100
AcDbEntity
  8
SIZE
100
AcDbLine
 10
-449.5
 20
-1168.999999999998
 30
0.0
 11
-854.2032129615144
 21
-1168.999999999997
 31
0.0
  0
LINE
  5
3100
330
31D1
100
AcDbEntity
  8
SIZE
100
AcDbLine
 10
-834.2032129615144
 20
-1134.999965518884
 30
0.0
 11
-834.2032129615144
 21
-1122.999965518884
 31
0.0
  0
LINE
  5
3101
330
31D1
100
AcDbEntity
  8
SIZE
100
AcDbLine
 10
-834.2032129615144
 20
-1180.999999999997
 30
0.0
 11
-834.2032129615144
 21
-1306.25714285714
 31
0.0
  0
LINE
  5
3102
330
31D1
100
AcDbEntity
  8
SIZE
100
AcDbLine
 10
-834.2032129615144
 20
-1146.999965518884
 30
0.0
 11
-834.2032129615144
 21
-1168.999999999997
 31
0.0
  0
INSERT
  5
3103
330
31D1
100
AcDbEntity
  8
SIZE
100
AcDbBlockReference
  2
_DOTBLANK
 10
-834.2032129615144
 20
-1146.999965518884
 30
0.0
 41
12.0
 42
12.0
 43
12.0
 50
270.0
  0
INSERT
  5
3104
330
31D1
100
AcDbEntity
  8
SIZE
100
AcDbBlockReference
  2
_DOTBLANK
 10
-834.2032129615144
 20
-1168.999999999997
 30
0.0
 41
12.0
 42
12.0
 43
12.0
 50
90.0
  0
LINE
  5
3105
330
31D1
100
AcDbEntity
  8
SIZE
100
AcDbLine
 10
-495.0
 20
0.000000000001819
 30
0.0
 11
-854.2032129615105
 21
0.000000000001819
 31
0.0
  0
LINE
  5
3106
330
31D1
100
AcDbEntity
  8
SIZE
100
AcDbLine
 10
-468.4999999999891
 20
-1146.999965518884
 30
0.0
 11
-854.2032129615106
 21
-1146.999965518884
 31
0.0
  0
LINE
  5
3107
330
31D1
100
AcDbEntity
  8
SIZE
100
AcDbLine
 10
-834.2032129615107
 20
-11.99999999999818
 30
0.0
 11
-834.2032129615112
 21
-1134.999965518884
 31
0.0
  0
INSERT
  5
3108
330
31D1
100
AcDbEntity
  8
SIZE
100
AcDbBlockReference
  2
_DOTBLANK
 10
-834.2032129615107
 20
0.000000000001819
 30
0.0
 41
12.0
 42
12.0
 43
12.0
 50
90.0
  0
INSERT
  5
3109
330
31D1
100
AcDbEntity
  8
SIZE
100
AcDbBlockReference
  2
_DOTBLANK
 10
-834.2032129615112
 20
-1146.999965518884
 30
0.0
 41
12.0
 42
12.0
 43
12.0
 50
270.0
  0
LINE
  5
310A
330
31D1
100
AcDbEntity
  8
SIZE
100
AcDbLine
 10
-448.4999999999891
 20
-1166.999965518884
 30
0.0
 11
-448.4999999999891
 21
-1370.759950238714
 31
0.0
  0
LINE
  5
310B
330
31D1
100
AcDbEntity
  8
SIZE
100
AcDbLine
 10
448.5000000000109
 20
-1166.999965518881
 30
0.0
 11
448.5000000000109
 21
-1370.759950238714
 31
0.0
  0
LINE
  5
310C
330
31D1
100
AcDbEntity
  8
SIZE
100
AcDbLine
 10
-436.4999999999885
 20
-1350.759950238714
 30
0.0
 11
436.5000000000109
 21
-1350.759950238714
 31
0.0
  0
INSERT
  5
310D
330
31D1
100
AcDbEntity
  8
SIZE
100
AcDbBlockReference
  2
_DOTBLANK
 10
-448.4999999999891
 20
-1350.759950238714
 30
0.0
 41
12.0
 42
12.0
 43
12.0
 50
180.0
  0
INSERT
  5
310E
330
31D1
100
AcDbEntity
  8
SIZE
100
AcDbBlockReference
  2
_DOTBLANK
 10
448.5000000000109
 20
-1350.759950238714
 30
0.0
 41
12.0
 42
12.0
 43
12.0
  0
TEXT
  5
310F
330
31D1
100
AcDbEntity
  8
SIZE
100
AcDbText
 10
-74.02565180574403
 20
-1340.759950238714
 30
0.0
 40
64.0
  1
897
 41
0.9
100
AcDbText
  0
TEXT
  5
3110
330
31D1
100
AcDbEntity
  8
SIZE
100
AcDbText
 10
-844.2032129615144
 20
-1296.25714285714
 30
0.0
 40
64.0
  1
22
 50
90.0
 41
0.9
100
AcDbText
  0
TEXT
  5
3111
330
31D1
100
AcDbEntity
  8
SIZE
100
AcDbText
 10
-844.2032129615107
 20
-665.2523684737263
 30
0.0
 40
64.0
  1
1147
 50
90.0
 41
0.9
100
AcDbText
  0
TEXT
  5
3112
330
31D1
100
AcDbEntity
  8
SIZE
100
AcDbText
 10
-74.02565180574403
 20
216.7018665200612
 30
0.0
 40
64.0
  1
900
 41
0.9
100
AcDbText
  0
TEXT
  5
3113
330
31D1
100
AcDbEntity
  8
SIZE
100
AcDbText
 10
-74.02565180574403
 20
336.9763056766915
 30
0.0
 40
64.0
  1
950
 41
0.9
100
AcDbText
  0
TEXT
  5
3114
330
31D1
100
AcDbEntity
  8
SIZE
100
AcDbText
 10
567.6322695937452
 20
-80.39999999999805
 30
0.0
 40
64.0
  1
8
 50
90.0
 41
0.9
100
AcDbText
  0
TEXT
  5
3115
330
31D1
100
AcDbEntity
  8
NOTE
100
AcDbText
 10
-1127.595114277968
 20
113.5270950580179
 30
0.0
 40
64.0
  1
16×φ15取付穴
 41
0.9
100
AcDbText
  0
INSERT
  5
3116
330
31D1
100
AcDbEntity
  8
NOTE
100
AcDbBlockReference
  2
_OPEN30
 10
-450.0
 20
0.000000000001819
 30
0.0
 41
11.99999999999984
 42
12.0
 43
12.0
 50
312.6090116116869
1001
ACAD
1000
DSTYLE
1002
{
1070
    41
1040
12.0
1070
    42
1040
20.0
1070
    43
1040
200.0
1070
    44
1040
20.0
1070
    73
1070
     0
1070
    74
1070
     0
1070
    77
1070
     1
1070
    78
1070
     8
1070
   140
1040
64.0
1070
   147
1040
50.0
1070
   172
1070
     1
1070
   174
1070
     1
1070
   275
1070
     0
1070
   284
1070
     0
1070
   285
1070
     0
1070
   286
1070
     0
1070
   341
1005
0
1070
   342
1005
0
1002
}
  0
POLYLINE
  5
3117
330
31D1
100
AcDbEntity
  8
NOTE
100
AcDb2dPolyline
 66
     1
 10
0.0
 20
0.0
 30
0.0
1001
ACAD
1000
DSTYLE
1002
{
1070
    41
1040
12.0
1070
    42
1040
20.0
1070
    43
1040
200.0
1070
    44
1040
20.0
1070
    73
1070
     0
1070
    74
1070
     0
1070
    77
1070
     1
1070
    78
1070
     8
1070
   140
1040
64.0
1070
   147
1040
50.0
1070
   172
1070
     1
1070
   174
1070
     1
1070
   275
1070
     0
1070
   284
1070
     0
1070
   285
1070
     0
1070
   286
1070
     0
1070
   341
1005
0
1070
   342
1005
0
1002
}
  0
VERTEX
  5
3118
330
3117
100
AcDbEntity
  8
NOTE
100
AcDbVertex
100
AcDb2dVertex
 10
-458.1239008361895
 20
8.831887408917509
 30
0.0
  0
VERTEX
  5
3119
330
3117
100
AcDbEntity
  8
NOTE
100
AcDbVertex
100
AcDb2dVertex
 10
-537.8693999922537
 20
95.52709505801797
 30
0.0
  0
VERTEX
  5
311A
330
3117
100
AcDbEntity
  8
NOTE
100
AcDbVertex
100
AcDb2dVertex
 10
-1127.595114277968
 20
95.52709505801797
 30
0.0
  0
SEQEND
  5
311B
330
3117
100
AcDbEntity
  8
NOTE
  0
ENDSEC
  0
SECTION
  2
OBJECTS
  0
DICTIONARY
  5
3169
330
0
100
AcDbDictionary
281
     1
  3
ACAD_2007HEADERVARS_RT
350
3360
  3
ACAD_COLOR
350
31C7
  3
ACAD_GROUP
350
316A
  3
ACAD_LAYOUT
350
31C6
  3
ACAD_MATERIAL
350
316D
  3
ACAD_MLEADERSTYLE
350
31CA
  3
ACAD_MLINESTYLE
350
31C3
  3
ACAD_PLOTSETTINGS
350
31C5
  3
ACAD_PLOTSTYLENAME
350
316B
  3
ACAD_SCALELIST
350
3197
  3
ACAD_TABLESTYLE
350
31C8
  3
ACAD_VISUALSTYLE
350
3186
  3
ACDB_RECOMPOSE_DATA
350
335E
  3
AcDbVariableDictionary
350
3355
  3
AcmDictionary
350
3302
  3
AMG
350
324F
  3
DWGPROPS
350
335F
  3
MAPISURF_MODULE
350
32CF
  0
DICTIONARY
  5
332A
330
31B9
100
AcDbDictionary
280
     1
281
     1
  3
ADSK_XREC_LAYER_RECONCILED
360
332B
  0
DICTIONARY
  5
332C
330
31E9
100
AcDbDictionary
280
     1
281
     1
  3
ADSK_XREC_LAYER_RECONCILED
360
332D
  0
DICTIONARY
  5
332E
330
31EA
100
AcDbDictionary
280
     1
281
     1
  3
ADSK_XREC_LAYER_RECONCILED
360
332F
  0
DICTIONARY
  5
3330
330
31EB
100
AcDbDictionary
280
     1
281
     1
  3
ADSK_XREC_LAYER_RECONCILED
360
3331
  0
DICTIONARY
  5
3332
330
31EC
100
AcDbDictionary
280
     1
281
     1
  3
ADSK_XREC_LAYER_RECONCILED
360
3333
  0
DICTIONARY
  5
3334
330
31ED
100
AcDbDictionary
280
     1
281
     1
  3
ADSK_XREC_LAYER_RECONCILED
360
3335
  0
DICTIONARY
  5
3336
330
31EF
100
AcDbDictionary
280
     1
281
     1
  3
ADSK_XREC_LAYER_RECONCILED
360
3337
  0
DICTIONARY
  5
3338
330
31F0
100
AcDbDictionary
280
     1
281
     1
  3
ADSK_XREC_LAYER_RECONCILED
360
3339
  0
DICTIONARY
  5
333A
330
31F1
100
AcDbDictionary
280
     1
281
     1
  3
ADSK_XREC_LAYER_RECONCILED
360
333B
  0
DICTIONARY
  5
333C
330
31F2
100
AcDbDictionary
280
     1
281
     1
  3
ADSK_XREC_LAYER_RECONCILED
360
333D
  0
DICTIONARY
  5
333E
330
31F3
100
AcDbDictionary
280
     1
281
     1
  3
ADSK_XREC_LAYER_RECONCILED
360
333F
  0
DICTIONARY
  5
3340
330
31F4
100
AcDbDictionary
280
     1
281
     1
  3
ADSK_XREC_LAYER_RECONCILED
360
3341
  0
DICTIONARY
  5
3342
330
31F5
100
AcDbDictionary
280
     1
281
     1
  3
ADSK_XREC_LAYER_RECONCILED
360
3343
  0
DICTIONARY
  5
3344
330
31D1
100
AcDbDictionary
280
     1
281
     1
  3
ACAD_INDEX
360
3345
  0
DICTIONARY
  5
3360
102
{ACAD_REACTORS
330
3169
102
}
330
3169
100
AcDbDictionary
281
     1
  3
DIMARCSYM
350
3361
  3
DIMLTEX1
350
3363
  3
DIMLTEX2
350
3364
  3
DIMLTYPE
350
3362
  0
DICTIONARY
  5
31C7
102
{ACAD_REACTORS
330
3169
102
}
330
3169
100
AcDbDictionary
281
     1
  0
DICTIONARY
  5
316A
102
{ACAD_REACTORS
330
3169
102
}
330
3169
100
AcDbDictionary
281
     1
  0
DICTIONARY
  5
31C6
102
{ACAD_REACTORS
330
3169
102
}
330
3169
100
AcDbDictionary
281
     1
  3
Model
350
31D4
  3
レイアウト1
350
31D0
  0
DICTIONARY
  5
316D
102
{ACAD_REACTORS
330
3169
102
}
330
3169
100
AcDbDictionary
281
     1
  3
ByBlock
350
3176
  3
ByLayer
350
316E
  3
Global
350
317E
  0
DICTIONARY
  5
31CA
102
{ACAD_REACTORS
330
3169
102
}
330
3169
100
AcDbDictionary
281
     1
  3
Standard
350
31CB
  0
DICTIONARY
  5
31C3
102
{ACAD_REACTORS
330
3169
102
}
330
3169
100
AcDbDictionary
281
     1
  3
Standard
350
31C4
  0
DICTIONARY
  5
31C5
102
{ACAD_REACTORS
330
3169
102
}
330
3169
100
AcDbDictionary
281
     1
  0
ACDBDICTIONARYWDFLT
  5
316B
102
{ACAD_REACTORS
330
3169
102
}
330
3169
100
AcDbDictionary
281
     1
  3
Normal
350
316C
100
AcDbDictionaryWithDefault
340
316C
  0
DICTIONARY
  5
3197
102
{ACAD_REACTORS
330
3169
102
}
330
3169
100
AcDbDictionary
281
     1
  3
A0
350
3198
  3
A1
350
3199
  3
A2
350
319A
  3
A3
350
319B
  3
A4
350
319C
  3
A5
350
319D
  3
A6
350
319E
  3
A7
350
319F
  3
A8
350
31A0
  3
A9
350
31A1
  3
B0
350
31A2
  3
B1
350
31A3
  3
B2
350
31A4
  3
B3
350
31A5
  3
B4
350
31A6
  3
B5
350
31A7
  3
B6
350
31A8
  3
B7
350
31A9
  3
B8
350
31AA
  3
B9
350
31AB
  3
C0
350
31AC
  3
C1
350
31AD
  3
C2
350
31AE
  3
C3
350
31AF
  3
C4
350
31B0
  3
C5
350
31B1
  3
C6
350
31B2
  3
C7
350
31B3
  3
C8
350
31B4
  3
C9
350
31B5
  3
D0
350
31B6
  3
D1
350
31B7
  3
D2
350
31B8
  0
DICTIONARY
  5
31C8
102
{ACAD_REACTORS
330
3169
102
}
330
3169
100
AcDbDictionary
281
     1
  3
Standard
350
31C9
  0
DICTIONARY
  5
3186
102
{ACAD_REACTORS
330
3169
102
}
330
3169
100
AcDbDictionary
281
     1
  3
2dWireframe
350
318C
  3
3D Hidden
350
318E
  3
3dWireframe
350
318D
  3
Basic
350
318B
  3
Brighten
350
3192
  3
ColorChange
350
3196
  3
Conceptual
350
318F
  3
Dim
350
3191
  3
Facepattern
350
3195
  3
Flat
350
3187
  3
FlatWithEdges
350
3188
  3
Gouraud
350
3189
  3
GouraudWithEdges
350
318A
  3
Linepattern
350
3194
  3
Realistic
350
3190
  3
Thicken
350
3193
  0
XRECORD
  5
335E
102
{ACAD_REACTORS
330
3169
102
}
330
3169
100
AcDbXrecord
280
     1
 90
        1
330
31C9
  0
DICTIONARY
  5
3355
102
{ACAD_REACTORS
330
3169
102
}
330
3169
100
AcDbDictionary
281
     1
  3
CANNOSCALE
350
3358
  3
CMLEADERSTYLE
350
3357
  3
CTABLESTYLE
350
3356
  3
DIMASSOC
350
335B
  3
INDEXCTL
350
335A
  3
SORTENTS
350
3359
  0
DICTIONARY
  5
3302
102
{ACAD_REACTORS
330
3169
102
}
330
3169
100
AcDbDictionary
281
     1
  3
AcmStdDictionary
350
3310
  0
DICTIONARY
  5
324F
102
{ACAD_REACTORS
330
3169
102
}
330
3169
100
AcDbDictionary
281
     1
  3
AcMgSettings
350
3250
  0
XRECORD
  5
335F
102
{ACAD_REACTORS
330
3169
102
}
330
3169
100
AcDbXrecord
280
     1
  1
DWGPROPS COOKIE
  2

  3

  4

  6

  7

  8
A090053
  9

300
AmdtFileType=84
301
=
302
=
303
=
304
=
305
=
306
=
307
=
308
=
309
=
 40
1.044055011574074
 41
2452321.396199653
 42
2456213.411788068
  1

 90
        1
  0
XRECORD
  5
332B
102
{ACAD_REACTORS
330
332A
102
}
330
332A
100
AcDbXrecord
280
     1
290
     1
  0
XRECORD
  5
332D
102
{ACAD_REACTORS
330
332C
102
}
330
332C
100
AcDbXrecord
280
     1
290
     1
  0
XRECORD
  5
332F
102
{ACAD_REACTORS
330
332E
102
}
330
332E
100
AcDbXrecord
280
     1
290
     1
  0
XRECORD
  5
3331
102
{ACAD_REACTORS
330
3330
102
}
330
3330
100
AcDbXrecord
280
     1
290
     1
  0
XRECORD
  5
3333
102
{ACAD_REACTORS
330
3332
102
}
330
3332
100
AcDbXrecord
280
     1
290
     1
  0
XRECORD
  5
3335
102
{ACAD_REACTORS
330
3334
102
}
330
3334
100
AcDbXrecord
280
     1
290
     1
  0
XRECORD
  5
3337
102
{ACAD_REACTORS
330
3336
102
}
330
3336
100
AcDbXrecord
280
     1
290
     1
  0
XRECORD
  5
3339
102
{ACAD_REACTORS
330
3338
102
}
330
3338
100
AcDbXrecord
280
     1
290
     1
  0
XRECORD
  5
333B
102
{ACAD_REACTORS
330
333A
102
}
330
333A
100
AcDbXrecord
280
     1
290
     1
  0
XRECORD
  5
333D
102
{ACAD_REACTORS
330
333C
102
}
330
333C
100
AcDbXrecord
280
     1
290
     1
  0
XRECORD
  5
333F
102
{ACAD_REACTORS
330
333E
102
}
330
333E
100
AcDbXrecord
280
     1
290
     1
  0
XRECORD
  5
3341
102
{ACAD_REACTORS
330
3340
102
}
330
3340
100
AcDbXrecord
280
     1
290
     1
  0
XRECORD
  5
3343
102
{ACAD_REACTORS
330
3342
102
}
330
3342
100
AcDbXrecord
280
     1
290
     1
  0
DICTIONARY
  5
3345
102
{ACAD_REACTORS
330
3344
102
}
330
3344
100
AcDbDictionary
281
     1
  3
*A1
350
3346
  0
XRECORD
  5
3361
102
{ACAD_REACTORS
330
3360
102
}
330
3360
100
AcDbXrecord
280
     1
 70
     1
  0
XRECORD
  5
3363
102
{ACAD_REACTORS
330
3360
102
}
330
3360
100
AcDbXrecord
280
     1
340
31BF
  0
XRECORD
  5
3364
102
{ACAD_REACTORS
330
3360
102
}
330
3360
100
AcDbXrecord
280
     1
340
31BF
  0
XRECORD
  5
3362
102
{ACAD_REACTORS
330
3360
102
}
330
3360
100
AcDbXrecord
280
     1
340
31BF
  0
LAYOUT
  5
31D4
102
{ACAD_XDICTIONARY
360
336B
102
}
102
{ACAD_REACTORS
330
31C6
102
}
330
31C6
100
AcDbPlotSettings
  1

  2
自動 EPSON LP-9600S (W2450527 上)
  4

  6

 40
0.0
 41
0.0
 42
0.0
 43
0.0
 44
0.0
 45
0.0
 46
0.0
 47
0.0
 48
0.0
 49
0.0
140
0.0
141
0.0
142
1.0
143
1.0
 70
  1712
 72
     0
 73
     0
 74
     0
  7

 75
     0
147
1.0
148
0.0
149
0.0
100
AcDbLayout
  1
Model
 70
     1
 71
     0
 10
0.0
 20
0.0
 11
12.0
 21
9.0
 12
0.0
 22
0.0
 32
0.0
 14
0.0
 24
0.0
 34
0.0
 15
0.0
 25
0.0
 35
0.0
146
0.0
 13
0.0
 23
0.0
 33
0.0
 16
1.0
 26
0.0
 36
0.0
 17
0.0
 27
1.0
 37
0.0
 76
     0
330
31D1
331
31D5
  0
LAYOUT
  5
31D0
102
{ACAD_XDICTIONARY
360
3369
102
}
102
{ACAD_REACTORS
330
31C6
102
}
330
31C6
100
AcDbPlotSettings
  1

  2
自動 EPSON LP-9600S (W2450527 上)
  4

  6

 40
0.0
 41
0.0
 42
0.0
 43
0.0
 44
0.0
 45
0.0
 46
0.0
 47
0.0
 48
0.0
 49
0.0
140
0.0
141
0.0
142
1.0
143
1.0
 70
   688
 72
     0
 73
     0
 74
     5
  7

 75
    16
147
1.0
148
0.0
149
0.0
100
AcDbLayout
  1
レイアウト1
 70
     1
 71
     1
 10
0.0
 20
0.0
 11
12.0
 21
9.0
 12
0.0
 22
0.0
 32
0.0
 14
1.000000000000000E+20
 24
1.000000000000000E+20
 34
1.000000000000000E+20
 15
-1.000000000000000E+20
 25
-1.000000000000000E+20
 35
-1.000000000000000E+20
146
0.0
 13
0.0
 23
0.0
 33
0.0
 16
1.0
 26
0.0
 36
0.0
 17
0.0
 27
1.0
 37
0.0
 76
     0
330
31CD
  0
MATERIAL
  5
3176
102
{ACAD_XDICTIONARY
360
3177
102
}
102
{ACAD_REACTORS
330
316D
102
}
330
316D
100
AcDbMaterial
  1
ByBlock
 72
     0
 43
0.0208333333333333
 43
0.0
 43
0.0
 43
0.0
 43
0.0
 43
0.0208333333333333
 43
0.0
 43
0.0
 43
0.0
 43
0.0
 43
1.0
 43
0.0
 43
0.0
 43
0.0
 43
0.0
 43
1.0
 77
     0
 47
0.0208333333333333
 47
0.0
 47
0.0
 47
0.0
 47
0.0
 47
0.0208333333333333
 47
0.0
 47
0.0
 47
0.0
 47
0.0
 47
1.0
 47
0.0
 47
0.0
 47
0.0
 47
0.0
 47
1.0
171
     0
 49
0.0208333333333333
 49
0.0
 49
0.0
 49
0.0
 49
0.0
 49
0.0208333333333333
 49
0.0
 49
0.0
 49
0.0
 49
0.0
 49
1.0
 49
0.0
 49
0.0
 49
0.0
 49
0.0
 49
1.0
175
     0
142
0.0208333333333333
142
0.0
142
0.0
142
0.0
142
0.0
142
0.0208333333333333
142
0.0
142
0.0
142
0.0
142
0.0
142
1.0
142
0.0
142
0.0
142
0.0
142
0.0
142
1.0
179
     0
144
0.0208333333333333
144
0.0
144
0.0
144
0.0
144
0.0
144
0.0208333333333333
144
0.0
144
0.0
144
0.0
144
0.0
144
1.0
144
0.0
144
0.0
144
0.0
144
0.0
144
1.0
147
0.0208333333333333
147
0.0
147
0.0
147
0.0
147
0.0
147
0.0208333333333333
147
0.0
147
0.0
147
0.0
147
0.0
147
1.0
147
0.0
147
0.0
147
0.0
147
0.0
147
1.0
  0
MATERIAL
  5
316E
102
{ACAD_XDICTIONARY
360
316F
102
}
102
{ACAD_REACTORS
330
316D
102
}
330
316D
100
AcDbMaterial
  1
ByLayer
 72
     0
 43
0.0208333333333333
 43
0.0
 43
0.0
 43
0.0
 43
0.0
 43
0.0208333333333333
 43
0.0
 43
0.0
 43
0.0
 43
0.0
 43
1.0
 43
0.0
 43
0.0
 43
0.0
 43
0.0
 43
1.0
 77
     0
 47
0.0208333333333333
 47
0.0
 47
0.0
 47
0.0
 47
0.0
 47
0.0208333333333333
 47
0.0
 47
0.0
 47
0.0
 47
0.0
 47
1.0
 47
0.0
 47
0.0
 47
0.0
 47
0.0
 47
1.0
171
     0
 49
0.0208333333333333
 49
0.0
 49
0.0
 49
0.0
 49
0.0
 49
0.0208333333333333
 49
0.0
 49
0.0
 49
0.0
 49
0.0
 49
1.0
 49
0.0
 49
0.0
 49
0.0
 49
0.0
 49
1.0
175
     0
142
0.0208333333333333
142
0.0
142
0.0
142
0.0
142
0.0
142
0.0208333333333333
142
0.0
142
0.0
142
0.0
142
0.0
142
1.0
142
0.0
142
0.0
142
0.0
142
0.0
142
1.0
179
     0
144
0.0208333333333333
144
0.0
144
0.0
144
0.0
144
0.0
144
0.0208333333333333
144
0.0
144
0.0
144
0.0
144
0.0
144
1.0
144
0.0
144
0.0
144
0.0
144
0.0
144
1.0
147
0.0208333333333333
147
0.0
147
0.0
147
0.0
147
0.0
147
0.0208333333333333
147
0.0
147
0.0
147
0.0
147
0.0
147
1.0
147
0.0
147
0.0
147
0.0
147
0.0
147
1.0
  0
MATERIAL
  5
317E
102
{ACAD_XDICTIONARY
360
317F
102
}
102
{ACAD_REACTORS
330
316D
102
}
330
316D
100
AcDbMaterial
  1
Global
 72
     0
 43
0.0208333333333333
 43
0.0
 43
0.0
 43
0.0
 43
0.0
 43
0.0208333333333333
 43
0.0
 43
0.0
 43
0.0
 43
0.0
 43
1.0
 43
0.0
 43
0.0
 43
0.0
 43
0.0
 43
1.0
 77
     0
 47
0.0208333333333333
 47
0.0
 47
0.0
 47
0.0
 47
0.0
 47
0.0208333333333333
 47
0.0
 47
0.0
 47
0.0
 47
0.0
 47
1.0
 47
0.0
 47
0.0
 47
0.0
 47
0.0
 47
1.0
171
     0
 49
0.0208333333333333
 49
0.0
 49
0.0
 49
0.0
 49
0.0
 49
0.0208333333333333
 49
0.0
 49
0.0
 49
0.0
 49
0.0
 49
1.0
 49
0.0
 49
0.0
 49
0.0
 49
0.0
 49
1.0
175
     0
142
0.0208333333333333
142
0.0
142
0.0
142
0.0
142
0.0
142
0.0208333333333333
142
0.0
142
0.0
142
0.0
142
0.0
142
1.0
142
0.0
142
0.0
142
0.0
142
0.0
142
1.0
179
     0
144
0.0208333333333333
144
0.0
144
0.0
144
0.0
144
0.0
144
0.0208333333333333
144
0.0
144
0.0
144
0.0
144
0.0
144
1.0
144
0.0
144
0.0
144
0.0
144
0.0
144
1.0
147
0.0208333333333333
147
0.0
147
0.0
147
0.0
147
0.0
147
0.0208333333333333
147
0.0
147
0.0
147
0.0
147
0.0
147
1.0
147
0.0
147
0.0
147
0.0
147
0.0
147
1.0
  0
MLEADERSTYLE
  5
31CB
102
{ACAD_REACTORS
330
31CA
102
}
330
31CA
100
AcDbMLeaderStyle
170
     2
171
     1
172
     0
 90
        2
 40
0.0
 41
0.0
173
     1
 91
-1056964608
340
31BF
 92
       -2
290
     1
 42
0.09
291
     1
 43
0.36
  3
Standard
 44
0.18
300

342
31BA
174
     1
178
     6
175
     1
176
     0
 93
-1056964608
 45
0.18
292
     0
297
     0
 46
0.18
 94
-1056964608
 47
1.0
 49
1.0
140
1.0
293
     1
141
0.0
294
     1
177
     0
142
1.0
295
     0
296
     0
143
0.125
1001
ACAD_MLEADERVER
1070
     2
  0
MLINESTYLE
  5
31C4
102
{ACAD_REACTORS
330
31C3
102
}
330
31C3
100
AcDbMlineStyle
  2
STANDARD
 70
     0
  3

 62
   256
 51
90.0
 52
90.0
 71
     2
 49
0.5
 62
   256
  6
BYLAYER
 49
-0.5
 62
   256
  6
BYLAYER
  0
ACDBPLACEHOLDER
  5
316C
102
{ACAD_REACTORS
330
316B
102
}
330
316B
  0
SCALE
  5
3198
102
{ACAD_REACTORS
330
3197
102
}
330
3197
100
AcDbScale
 70
     0
300
1:1
140
1.0
141
1.0
290
     1
  0
SCALE
  5
3199
102
{ACAD_REACTORS
330
3197
102
}
330
3197
100
AcDbScale
 70
     0
300
1:2
140
1.0
141
2.0
290
     0
  0
SCALE
  5
319A
102
{ACAD_REACTORS
330
3197
102
}
330
3197
100
AcDbScale
 70
     0
300
1:4
140
1.0
141
4.0
290
     0
  0
SCALE
  5
319B
102
{ACAD_REACTORS
330
3197
102
}
330
3197
100
AcDbScale
 70
     0
300
1:5
140
1.0
141
5.0
290
     0
  0
SCALE
  5
319C
102
{ACAD_REACTORS
330
3197
102
}
330
3197
100
AcDbScale
 70
     0
300
1:8
140
1.0
141
8.0
290
     0
  0
SCALE
  5
319D
102
{ACAD_REACTORS
330
3197
102
}
330
3197
100
AcDbScale
 70
     0
300
1:10
140
1.0
141
10.0
290
     0
  0
SCALE
  5
319E
102
{ACAD_REACTORS
330
3197
102
}
330
3197
100
AcDbScale
 70
     0
300
1:16
140
1.0
141
16.0
290
     0
  0
SCALE
  5
319F
102
{ACAD_REACTORS
330
3197
102
}
330
3197
100
AcDbScale
 70
     0
300
1:20
140
1.0
141
20.0
290
     0
  0
SCALE
  5
31A0
102
{ACAD_REACTORS
330
3197
102
}
330
3197
100
AcDbScale
 70
     0
300
1:30
140
1.0
141
30.0
290
     0
  0
SCALE
  5
31A1
102
{ACAD_REACTORS
330
3197
102
}
330
3197
100
AcDbScale
 70
     0
300
1:40
140
1.0
141
40.0
290
     0
  0
SCALE
  5
31A2
102
{ACAD_REACTORS
330
3197
102
}
330
3197
100
AcDbScale
 70
     0
300
1:50
140
1.0
141
50.0
290
     0
  0
SCALE
  5
31A3
102
{ACAD_REACTORS
330
3197
102
}
330
3197
100
AcDbScale
 70
     0
300
1:100
140
1.0
141
100.0
290
     0
  0
SCALE
  5
31A4
102
{ACAD_REACTORS
330
3197
102
}
330
3197
100
AcDbScale
 70
     0
300
2:1
140
2.0
141
1.0
290
     0
  0
SCALE
  5
31A5
102
{ACAD_REACTORS
330
3197
102
}
330
3197
100
AcDbScale
 70
     0
300
4:1
140
4.0
141
1.0
290
     0
  0
SCALE
  5
31A6
102
{ACAD_REACTORS
330
3197
102
}
330
3197
100
AcDbScale
 70
     0
300
8:1
140
8.0
141
1.0
290
     0
  0
SCALE
  5
31A7
102
{ACAD_REACTORS
330
3197
102
}
330
3197
100
AcDbScale
 70
     0
300
10:1
140
10.0
141
1.0
290
     0
  0
SCALE
  5
31A8
102
{ACAD_REACTORS
330
3197
102
}
330
3197
100
AcDbScale
 70
     0
300
100:1
140
100.0
141
1.0
290
     0
  0
SCALE
  5
31A9
102
{ACAD_REACTORS
330
3197
102
}
330
3197
100
AcDbScale
 70
     0
300
1/128" = 1'-0"
140
0.0078125
141
12.0
290
     0
  0
SCALE
  5
31AA
102
{ACAD_REACTORS
330
3197
102
}
330
3197
100
AcDbScale
 70
     0
300
1/64" = 1'-0"
140
0.015625
141
12.0
290
     0
  0
SCALE
  5
31AB
102
{ACAD_REACTORS
330
3197
102
}
330
3197
100
AcDbScale
 70
     0
300
1/32" = 1'-0"
140
0.03125
141
12.0
290
     0
  0
SCALE
  5
31AC
102
{ACAD_REACTORS
330
3197
102
}
330
3197
100
AcDbScale
 70
     0
300
1/16" = 1'-0"
140
0.0625
141
12.0
290
     0
  0
SCALE
  5
31AD
102
{ACAD_REACTORS
330
3197
102
}
330
3197
100
AcDbScale
 70
     0
300
3/32" = 1'-0"
140
0.09375
141
12.0
290
     0
  0
SCALE
  5
31AE
102
{ACAD_REACTORS
330
3197
102
}
330
3197
100
AcDbScale
 70
     0
300
1/8" = 1'-0"
140
0.125
141
12.0
290
     0
  0
SCALE
  5
31AF
102
{ACAD_REACTORS
330
3197
102
}
330
3197
100
AcDbScale
 70
     0
300
3/16" = 1'-0"
140
0.1875
141
12.0
290
     0
  0
SCALE
  5
31B0
102
{ACAD_REACTORS
330
3197
102
}
330
3197
100
AcDbScale
 70
     0
300
1/4" = 1'-0"
140
0.25
141
12.0
290
     0
  0
SCALE
  5
31B1
102
{ACAD_REACTORS
330
3197
102
}
330
3197
100
AcDbScale
 70
     0
300
3/8" = 1'-0"
140
0.375
141
12.0
290
     0
  0
SCALE
  5
31B2
102
{ACAD_REACTORS
330
3197
102
}
330
3197
100
AcDbScale
 70
     0
300
1/2" = 1'-0"
140
0.5
141
12.0
290
     0
  0
SCALE
  5
31B3
102
{ACAD_REACTORS
330
3197
102
}
330
3197
100
AcDbScale
 70
     0
300
3/4" = 1'-0"
140
0.75
141
12.0
290
     0
  0
SCALE
  5
31B4
102
{ACAD_REACTORS
330
3197
102
}
330
3197
100
AcDbScale
 70
     0
300
1" = 1'-0"
140
1.0
141
12.0
290
     0
  0
SCALE
  5
31B5
102
{ACAD_REACTORS
330
3197
102
}
330
3197
100
AcDbScale
 70
     0
300
1-1/2" = 1'-0"
140
1.5
141
12.0
290
     0
  0
SCALE
  5
31B6
102
{ACAD_REACTORS
330
3197
102
}
330
3197
100
AcDbScale
 70
     0
300
3" = 1'-0"
140
3.0
141
12.0
290
     0
  0
SCALE
  5
31B7
102
{ACAD_REACTORS
330
3197
102
}
330
3197
100
AcDbScale
 70
     0
300
6" = 1'-0"
140
6.0
141
12.0
290
     0
  0
SCALE
  5
31B8
102
{ACAD_REACTORS
330
3197
102
}
330
3197
100
AcDbScale
 70
     0
300
1'-0" = 1'-0"
140
12.0
141
12.0
290
     0
  0
TABLESTYLE
  5
31C9
102
{ACAD_XDICTIONARY
360
335C
102
}
102
{ACAD_REACTORS
330
31C8
102
}
330
31C8
100
AcDbTableStyle
  3
Standard
 70
     0
 71
     0
 40
0.06
 41
0.06
280
     0
281
     0
  7
STANDARD
140
0.18
170
     2
 62
     0
 63
     7
283
     0
274
    -2
284
     1
 64
     0
275
    -2
285
     1
 65
     0
276
    -2
286
     1
 66
     0
277
    -2
287
     1
 67
     0
278
    -2
288
     1
 68
     0
279
    -2
289
     1
 69
     0
  7
STANDARD
140
0.25
170
     5
 62
     0
 63
     7
283
     0
274
    -2
284
     1
 64
     0
275
    -2
285
     1
 65
     0
276
    -2
286
     1
 66
     0
277
    -2
287
     1
 67
     0
278
    -2
288
     1
 68
     0
279
    -2
289
     1
 69
     0
  7
STANDARD
140
0.18
170
     5
 62
     0
 63
     7
283
     0
274
    -2
284
     1
 64
     0
275
    -2
285
     1
 65
     0
276
    -2
286
     1
 66
     0
277
    -2
287
     1
 67
     0
278
    -2
288
     1
 68
     0
279
    -2
289
     1
 69
     0
  0
VISUALSTYLE
  5
318C
102
{ACAD_REACTORS
330
3186
102
}
330
3186
100
AcDbVisualStyle
  2
2dWireframe
 70
     4
 71
     0
 72
     2
 73
     0
 90
        0
 40
-0.6
 41
-30.0
 62
     5
 63
     7
 74
     1
 91
        4
 64
     7
 65
   257
 75
     1
175
     1
 42
1.0
 92
        0
 66
   257
 43
1.0
 76
     1
 77
     6
 78
     2
 67
     7
 79
     5
170
     0
171
     0
290
     0
174
     0
 93
        1
 44
0.0
173
     0
291
     0
 45
0.0
1001
ACAD
1000
AcDbSavedByObjectVersion
1070
     0
  0
VISUALSTYLE
  5
318E
102
{ACAD_REACTORS
330
3186
102
}
330
3186
100
AcDbVisualStyle
  2
3D Hidden
 70
     6
 71
     1
 72
     2
 73
     2
 90
        0
 40
-0.6
 41
-30.0
 62
     5
 63
     7
 74
     2
 91
        2
 64
     7
 65
   257
 75
     2
175
     1
 42
40.0
 92
        0
 66
   257
 43
1.0
 76
     1
 77
     6
 78
     2
 67
     7
 79
     3
170
     0
171
     0
290
     0
174
     0
 93
        1
 44
0.0
173
     0
291
     0
 45
0.0
1001
ACAD
1000
AcDbSavedByObjectVersion
1070
     0
  0
VISUALSTYLE
  5
318D
102
{ACAD_REACTORS
330
3186
102
}
330
3186
100
AcDbVisualStyle
  2
3dWireframe
 70
     5
 71
     0
 72
     2
 73
     0
 90
        0
 40
-0.6
 41
-30.0
 62
     5
 63
     7
 74
     1
 91
        4
 64
     7
 65
   257
 75
     1
175
     1
 42
1.0
 92
        0
 66
   257
 43
1.0
 76
     1
 77
     6
 78
     2
 67
     7
 79
     5
170
     0
171
     0
290
     0
174
     0
 93
        1
 44
0.0
173
     0
291
     0
 45
0.0
1001
ACAD
1000
AcDbSavedByObjectVersion
1070
     0
  0
VISUALSTYLE
  5
318B
102
{ACAD_REACTORS
330
3186
102
}
330
3186
100
AcDbVisualStyle
  2
Basic
 70
     7
 71
     1
 72
     0
 73
     1
 90
        0
 40
-0.6
 41
-30.0
 62
     5
 63
     7
 74
     0
 91
        4
 64
     7
 65
   257
 75
     1
175
     1
 42
1.0
 92
        8
 66
     7
 43
1.0
 76
     1
 77
     6
 78
     2
 67
     7
 79
     5
170
     0
171
     0
290
     0
174
     0
 93
        1
 44
0.0
173
     0
291
     1
 45
0.0
1001
ACAD
1000
AcDbSavedByObjectVersion
1070
     0
  0
VISUALSTYLE
  5
3192
102
{ACAD_REACTORS
330
3186
102
}
330
3186
100
AcDbVisualStyle
  2
Brighten
 70
    12
 71
     2
 72
     2
 73
     0
 90
        0
 40
-0.6
 41
-30.0
 62
     5
 63
     7
 74
     1
 91
        4
 64
     7
 65
   257
 75
     1
175
     1
 42
1.0
 92
        8
 66
     7
 43
1.0
 76
     1
 77
     6
 78
     2
 67
     7
 79
     5
170
     0
171
     0
290
     0
174
     0
 93
        1
 44
50.0
173
     0
291
     1
 45
0.0
1001
ACAD
1000
AcDbSavedByObjectVersion
1070
     0
  0
VISUALSTYLE
  5
3196
102
{ACAD_REACTORS
330
3186
102
}
330
3186
100
AcDbVisualStyle
  2
ColorChange
 70
    16
 71
     2
 72
     2
 73
     3
 90
        0
 40
-0.6
 41
-30.0
 62
     5
 63
     8
 74
     1
 91
        4
 64
     7
 65
   257
 75
     1
175
     1
 42
1.0
 92
        8
 66
     8
 43
1.0
 76
     1
 77
     6
 78
     2
 67
     7
 79
     5
170
     0
171
     0
290
     0
174
     0
 93
        1
 44
0.0
173
     0
291
     1
 45
0.0
1001
ACAD
1000
AcDbSavedByObjectVersion
1070
     0
  0
VISUALSTYLE
  5
318F
102
{ACAD_REACTORS
330
3186
102
}
330
3186
100
AcDbVisualStyle
  2
Conceptual
 70
     9
 71
     3
 72
     2
 73
     0
 90
        0
 40
-0.6
 41
-30.0
 62
     5
 63
     7
 74
     2
 91
        2
 64
     7
 65
   257
 75
     1
175
     1
 42
40.0
 92
        8
 66
     7
 43
1.0
 76
     1
 77
     6
 78
     2
 67
     7
 79
     3
170
     0
171
     0
290
     0
174
     0
 93
        1
 44
0.0
173
     0
291
     0
 45
0.0
1001
ACAD
1000
AcDbSavedByObjectVersion
1070
     0
  0
VISUALSTYLE
  5
3191
102
{ACAD_REACTORS
330
3186
102
}
330
3186
100
AcDbVisualStyle
  2
Dim
 70
    11
 71
     2
 72
     2
 73
     0
 90
        0
 40
-0.6
 41
-30.0
 62
     5
 63
     7
 74
     1
 91
        4
 64
     7
 65
   257
 75
     1
175
     1
 42
1.0
 92
        8
 66
     7
 43
1.0
 76
     1
 77
     6
 78
     2
 67
     7
 79
     5
170
     0
171
     0
290
     0
174
     0
 93
        1
 44
-50.0
173
     0
291
     1
 45
0.0
1001
ACAD
1000
AcDbSavedByObjectVersion
1070
     0
  0
VISUALSTYLE
  5
3195
102
{ACAD_REACTORS
330
3186
102
}
330
3186
100
AcDbVisualStyle
  2
Facepattern
 70
    15
 71
     2
 72
     2
 73
     0
 90
        0
 40
-0.6
 41
-30.0
 62
     5
 63
     7
 74
     1
 91
        4
 64
     7
 65
   257
 75
     1
175
     1
 42
1.0
 92
        8
 66
     7
 43
1.0
 76
     1
 77
     6
 78
     2
 67
     7
 79
     5
170
     0
171
     0
290
     0
174
     0
 93
        1
 44
0.0
173
     0
291
     1
 45
0.0
1001
ACAD
1000
AcDbSavedByObjectVersion
1070
     0
  0
VISUALSTYLE
  5
3187
102
{ACAD_REACTORS
330
3186
102
}
330
3186
100
AcDbVisualStyle
  2
Flat
 70
     0
 71
     2
 72
     1
 73
     1
 90
        2
 40
-0.6
 41
30.0
 62
     5
 63
     7
 74
     0
 91
        4
 64
     7
 65
   257
 75
     1
175
     1
 42
1.0
 92
        8
 66
     7
 43
1.0
 76
     1
 77
     6
 78
     2
 67
     7
 79
     5
170
     0
171
     0
290
     0
174
     0
 93
       13
 44
0.0
173
     0
291
     1
 45
0.0
1001
ACAD
1000
AcDbSavedByObjectVersion
1070
     0
  0
VISUALSTYLE
  5
3188
102
{ACAD_REACTORS
330
3186
102
}
330
3186
100
AcDbVisualStyle
  2
FlatWithEdges
 70
     1
 71
     2
 72
     1
 73
     1
 90
        2
 40
-0.6
 41
30.0
 62
     5
 63
     7
 74
     1
 91
        4
 64
     7
 65
   257
 75
     1
175
     1
 42
1.0
 92
        0
 66
   257
 43
1.0
 76
     1
 77
     6
 78
     2
 67
     7
 79
     5
170
     0
171
     0
290
     0
174
     0
 93
       13
 44
0.0
173
     0
291
     1
 45
0.0
1001
ACAD
1000
AcDbSavedByObjectVersion
1070
     0
  0
VISUALSTYLE
  5
3189
102
{ACAD_REACTORS
330
3186
102
}
330
3186
100
AcDbVisualStyle
  2
Gouraud
 70
     2
 71
     2
 72
     2
 73
     1
 90
        2
 40
-0.6
 41
30.0
 62
     5
 63
     7
 74
     0
 91
        4
 64
     7
 65
   257
 75
     1
175
     1
 42
1.0
 92
        0
 66
     7
 43
1.0
 76
     1
 77
     6
 78
     2
 67
     7
 79
     5
170
     0
171
     0
290
     0
174
     0
 93
       13
 44
0.0
173
     0
291
     1
 45
0.0
1001
ACAD
1000
AcDbSavedByObjectVersion
1070
     0
  0
VISUALSTYLE
  5
318A
102
{ACAD_REACTORS
330
3186
102
}
330
3186
100
AcDbVisualStyle
  2
GouraudWithEdges
 70
     3
 71
     2
 72
     2
 73
     1
 90
        2
 40
-0.6
 41
30.0
 62
     5
 63
     7
 74
     1
 91
        4
 64
     7
 65
   257
 75
     1
175
     1
 42
1.0
 92
        0
 66
   257
 43
1.0
 76
     1
 77
     6
 78
     2
 67
     7
 79
     5
170
     0
171
     0
290
     0
174
     0
 93
       13
 44
0.0
173
     0
291
     1
 45
0.0
1001
ACAD
1000
AcDbSavedByObjectVersion
1070
     0
  0
VISUALSTYLE
  5
3194
102
{ACAD_REACTORS
330
3186
102
}
330
3186
100
AcDbVisualStyle
  2
Linepattern
 70
    14
 71
     2
 72
     2
 73
     0
 90
        0
 40
-0.6
 41
-30.0
 62
     5
 63
     7
 74
     1
 91
        4
 64
     7
 65
   257
 75
     7
175
     7
 42
1.0
 92
        8
 66
     7
 43
1.0
 76
     1
 77
     6
 78
     2
 67
     7
 79
     5
170
     0
171
     0
290
     0
174
     0
 93
        1
 44
0.0
173
     0
291
     1
 45
0.0
1001
ACAD
1000
AcDbSavedByObjectVersion
1070
     0
  0
VISUALSTYLE
  5
3190
102
{ACAD_REACTORS
330
3186
102
}
330
3186
100
AcDbVisualStyle
  2
Realistic
 70
     8
 71
     2
 72
     2
 73
     0
 90
        0
 40
-0.6
 41
-30.0
 62
     5
 63
     7
 74
     1
 91
        0
 64
     7
 65
   257
 75
     1
175
     1
 42
1.0
 92
        8
 66
     8
 43
1.0
 76
     1
 77
     6
 78
     2
 67
     7
 79
     5
170
     0
171
     0
290
     0
174
     0
 93
       13
 44
0.0
173
     0
291
     0
 45
0.0
1001
ACAD
1000
AcDbSavedByObjectVersion
1070
     0
  0
VISUALSTYLE
  5
3193
102
{ACAD_REACTORS
330
3186
102
}
330
3186
100
AcDbVisualStyle
  2
Thicken
 70
    13
 71
     2
 72
     2
 73
     0
 90
        0
 40
-0.6
 41
-30.0
 62
     5
 63
     7
 74
     1
 91
        4
 64
     7
 65
   257
 75
     1
175
     1
 42
1.0
 92
       12
 66
     7
 43
1.0
 76
     1
 77
     6
 78
     2
 67
     7
 79
     5
170
     0
171
     0
290
     0
174
     0
 93
        1
 44
0.0
173
     0
291
     1
 45
0.0
1001
ACAD
1000
AcDbSavedByObjectVersion
1070
     0
  0
DICTIONARYVAR
  5
3358
102
{ACAD_REACTORS
330
3355
102
}
330
3355
100
DictionaryVariables
280
     0
  1
1:1
  0
DICTIONARYVAR
  5
3357
102
{ACAD_REACTORS
330
3355
102
}
330
3355
100
DictionaryVariables
280
     0
  1
STANDARD
  0
DICTIONARYVAR
  5
3356
102
{ACAD_REACTORS
330
3355
102
}
330
3355
100
DictionaryVariables
280
     0
  1
STANDARD
  0
DICTIONARYVAR
  5
335B
102
{ACAD_REACTORS
330
3355
102
}
330
3355
100
DictionaryVariables
280
     0
  1
1
  0
DICTIONARYVAR
  5
335A
102
{ACAD_REACTORS
330
3355
102
}
330
3355
100
DictionaryVariables
280
     0
  1
1
  0
DICTIONARYVAR
  5
3359
102
{ACAD_REACTORS
330
3355
102
}
330
3355
100
DictionaryVariables
280
     0
  1
127
  0
DICTIONARY
  5
3310
102
{ACAD_REACTORS
330
3302
102
}
330
3302
100
AcDbDictionary
281
     1
  0
DICTIONARY
  5
3250
102
{ACAD_REACTORS
330
324F
102
}
330
324F
100
AcDbDictionary
281
     1
  3
DWGSETTINGS
350
3251
  3
TRANSSETTINGS
350
3252
  0
LAYER_INDEX
  5
3346
102
{ACAD_REACTORS
330
3345
102
}
330
3345
100
AcDbIndex
 40
2456213.411788068
100
AcDbLayerIndex
  8
0
360
3347
 90
        0
  8
OUTLINE
360
3348
 90
       61
  8
SIZE
360
3349
 90
       40
  8
BASIS
360
334A
 90
        0
  8
DETAIL
360
334B
 90
       79
  8
ARRANGE
360
334C
 90
        3
  8
DEFPOINTS
360
334D
 90
        0
  8
ETC
360
334E
 90
        3
  8
FIX
360
334F
 90
        0
  8
NOTE
360
3350
 90
        7
  8
SERVICESPACE
360
3351
 90
        0
  8
SYMBOLLINE
360
3352
 90
        0
  8
BASIC
360
3353
 90
        2
  8
DETAIL___1
360
3354
 90
        2
  0
DICTIONARY
  5
336B
330
31D4
100
AcDbDictionary
280
     1
281
     1
  3
ACAD_XREC_ROUNDTRIP
360
336C
  0
DICTIONARY
  5
3369
330
31D0
100
AcDbDictionary
280
     1
281
     1
  3
ACAD_XREC_ROUNDTRIP
360
336A
  0
DICTIONARY
  5
3177
330
3176
100
AcDbDictionary
280
     1
281
     1
  3
ACAD_XREC_ROUNDTRIP
360
3366
  3
BUMPTILE
360
3179
  3
DIFFUSETILE
360
3178
  3
OPACITYTILE
360
317C
  3
REFLECTIONTILE
360
317B
  3
REFRACTIONTILE
360
317D
  3
SPECULARTILE
360
317A
  0
DICTIONARY
  5
316F
330
316E
100
AcDbDictionary
280
     1
281
     1
  3
ACAD_XREC_ROUNDTRIP
360
3365
  3
BUMPTILE
360
3171
  3
DIFFUSETILE
360
3170
  3
OPACITYTILE
360
3174
  3
REFLECTIONTILE
360
3173
  3
REFRACTIONTILE
360
3175
  3
SPECULARTILE
360
3172
  0
DICTIONARY
  5
317F
330
317E
100
AcDbDictionary
280
     1
281
     1
  3
ACAD_XREC_ROUNDTRIP
360
3367
  3
BUMPTILE
360
3181
  3
DIFFUSETILE
360
3180
  3
OPACITYTILE
360
3184
  3
REFLECTIONTILE
360
3183
  3
REFRACTIONTILE
360
3185
  3
SPECULARTILE
360
3182
  0
DICTIONARY
  5
335C
330
31C9
100
AcDbDictionary
280
     1
281
     1
  3
ACAD_ROUNDTRIP_2008_TABLESTYLE_CELLSTYLEMAP
360
335D
  3
ACAD_XREC_ROUNDTRIP
360
3368
  0
IDBUFFER
  5
3347
330
0
100
AcDbIdBuffer
  0
IDBUFFER
  5
3348
330
0
100
AcDbIdBuffer
330
30D8
330
30D9
330
30DA
330
30DB
330
30DC
330
30DD
330
30DE
330
30DF
330
30E8
330
30E9
330
30EA
330
30EB
330
30EC
330
953
330
954
330
955
330
956
330
957
330
958
330
30AD
330
30AE
330
30AF
330
30B0
330
30B1
330
30B2
330
30B3
330
30B4
330
30B5
330
30B6
330
30B7
330
30B8
330
30B9
330
30BA
330
30BB
330
30BC
330
30BD
330
30BE
330
30BF
330
30C0
330
30C1
330
30C2
330
30C3
330
30C4
330
30C5
330
30C6
330
30C7
330
30C8
330
30C9
330
30CA
330
30CB
330
30CC
330
30CD
330
30CE
330
30CF
330
30D0
330
30D1
330
30D2
330
30D3
330
30D4
330
30D5
330
30D6
  0
IDBUFFER
  5
3349
330
0
100
AcDbIdBuffer
330
30FD
330
30FE
330
30FF
330
3100
330
3101
330
3102
330
3103
330
3104
330
3105
330
3106
330
3107
330
3108
330
3109
330
310A
330
310B
330
310C
330
310D
330
310E
330
310F
330
3110
330
3111
330
3112
330
3113
330
3114
330
30ED
330
30EE
330
30EF
330
30F0
330
30F1
330
30F2
330
30F3
330
30F4
330
30F5
330
30F6
330
30F7
330
30F8
330
30F9
330
30FA
330
30FB
330
30FC
  0
IDBUFFER
  5
334A
330
0
100
AcDbIdBuffer
  0
IDBUFFER
  5
334B
330
0
100
AcDbIdBuffer
330
308E
330
308F
330
3090
330
3091
330
3092
330
3093
330
3094
330
3095
330
3096
330
3097
330
3098
330
3099
330
309A
330
309B
330
309C
330
309D
330
309E
330
309F
330
30A0
330
30A1
330
30A2
330
30AA
330
30D7
330
30E0
330
30E1
330
30E2
330
30E3
330
30E4
330
30E5
330
30E6
330
30E7
330
305B
330
305C
330
3060
330
3061
330
3062
330
3063
330
3064
330
3065
330
3066
330
3067
330
3068
330
3069
330
306A
330
306B
330
306C
330
306D
330
306E
330
306F
330
3070
330
3071
330
3072
330
3073
330
3074
330
3075
330
3076
330
3077
330
3078
330
3079
330
307A
330
307B
330
307C
330
307D
330
307E
330
307F
330
3080
330
3081
330
3082
330
3083
330
3084
330
3085
330
3086
330
3087
330
3088
330
3089
330
308A
330
308B
330
308C
330
308D
  0
IDBUFFER
  5
334C
330
0
100
AcDbIdBuffer
330
30A3
330
30A4
330
30A5
  0
IDBUFFER
  5
334D
330
0
100
AcDbIdBuffer
  0
IDBUFFER
  5
334E
330
0
100
AcDbIdBuffer
330
305D
330
305E
330
305F
  0
IDBUFFER
  5
334F
330
0
100
AcDbIdBuffer
  0
IDBUFFER
  5
3350
330
0
100
AcDbIdBuffer
330
30A8
330
30A9
330
30AB
330
30AC
330
3115
330
3116
330
3117
  0
IDBUFFER
  5
3351
330
0
100
AcDbIdBuffer
  0
IDBUFFER
  5
3352
330
0
100
AcDbIdBuffer
  0
IDBUFFER
  5
3353
330
0
100
AcDbIdBuffer
330
30A6
330
30A7
  0
IDBUFFER
  5
3354
330
0
100
AcDbIdBuffer
330
3059
330
305A
  0
XRECORD
  5
336C
102
{ACAD_REACTORS
330
336B
102
}
330
336B
100
AcDbXrecord
280
     1
102
SHADEPLOT
 70
     0
102
SHADEPLOTRESLEVEL
 70
     2
102
SHADEPLOTCUSTOMDPI
 70
   300
  0
XRECORD
  5
336A
102
{ACAD_REACTORS
330
3369
102
}
330
3369
100
AcDbXrecord
280
     1
102
SHADEPLOT
 70
     0
102
SHADEPLOTRESLEVEL
 70
     2
102
SHADEPLOTCUSTOMDPI
 70
   300
  0
XRECORD
  5
3366
102
{ACAD_REACTORS
330
3177
102
}
330
3177
100
AcDbXrecord
280
     1
102
MATERIAL
148
0.0
149
0.0
149
0.0
 93
        0
 94
      127
282
     0
 72
     0
 77
     0
171
     0
175
     0
179
     0
273
     0
  0
XRECORD
  5
3179
102
{ACAD_REACTORS
330
3177
102
}
330
3177
100
AcDbXrecord
280
     1
270
     1
271
     1
  0
XRECORD
  5
3178
102
{ACAD_REACTORS
330
3177
102
}
330
3177
100
AcDbXrecord
280
     1
270
     1
271
     1
  0
XRECORD
  5
317C
102
{ACAD_REACTORS
330
3177
102
}
330
3177
100
AcDbXrecord
280
     1
270
     1
271
     1
  0
XRECORD
  5
317B
102
{ACAD_REACTORS
330
3177
102
}
330
3177
100
AcDbXrecord
280
     1
270
     1
271
     1
  0
XRECORD
  5
317D
102
{ACAD_REACTORS
330
3177
102
}
330
3177
100
AcDbXrecord
280
     1
270
     1
271
     1
  0
XRECORD
  5
317A
102
{ACAD_REACTORS
330
3177
102
}
330
3177
100
AcDbXrecord
280
     1
270
     1
271
     1
  0
XRECORD
  5
3365
102
{ACAD_REACTORS
330
316F
102
}
330
316F
100
AcDbXrecord
280
     1
102
MATERIAL
148
0.0
149
0.0
149
0.0
 93
        0
 94
      127
282
     0
 72
     0
 77
     0
171
     0
175
     0
179
     0
273
     0
  0
XRECORD
  5
3171
102
{ACAD_REACTORS
330
316F
102
}
330
316F
100
AcDbXrecord
280
     1
270
     1
271
     1
  0
XRECORD
  5
3170
102
{ACAD_REACTORS
330
316F
102
}
330
316F
100
AcDbXrecord
280
     1
270
     1
271
     1
  0
XRECORD
  5
3174
102
{ACAD_REACTORS
330
316F
102
}
330
316F
100
AcDbXrecord
280
     1
270
     1
271
     1
  0
XRECORD
  5
3173
102
{ACAD_REACTORS
330
316F
102
}
330
316F
100
AcDbXrecord
280
     1
270
     1
271
     1
  0
XRECORD
  5
3175
102
{ACAD_REACTORS
330
316F
102
}
330
316F
100
AcDbXrecord
280
     1
270
     1
271
     1
  0
XRECORD
  5
3172
102
{ACAD_REACTORS
330
316F
102
}
330
316F
100
AcDbXrecord
280
     1
270
     1
271
     1
  0
XRECORD
  5
3367
102
{ACAD_REACTORS
330
317F
102
}
330
317F
100
AcDbXrecord
280
     1
102
MATERIAL
148
0.0
149
0.0
149
0.0
 93
        0
 94
      127
282
     0
 72
     0
 77
     0
171
     0
175
     0
179
     0
273
     0
  0
XRECORD
  5
3181
102
{ACAD_REACTORS
330
317F
102
}
330
317F
100
AcDbXrecord
280
     1
270
     1
271
     1
  0
XRECORD
  5
3180
102
{ACAD_REACTORS
330
317F
102
}
330
317F
100
AcDbXrecord
280
     1
270
     1
271
     1
  0
XRECORD
  5
3184
102
{ACAD_REACTORS
330
317F
102
}
330
317F
100
AcDbXrecord
280
     1
270
     1
271
     1
  0
XRECORD
  5
3183
102
{ACAD_REACTORS
330
317F
102
}
330
317F
100
AcDbXrecord
280
     1
270
     1
271
     1
  0
XRECORD
  5
3185
102
{ACAD_REACTORS
330
317F
102
}
330
317F
100
AcDbXrecord
280
     1
270
     1
271
     1
  0
XRECORD
  5
3182
102
{ACAD_REACTORS
330
317F
102
}
330
317F
100
AcDbXrecord
280
     1
270
     1
271
     1
  0
CELLSTYLEMAP
  5
335D
102
{ACAD_REACTORS
330
335C
102
}
330
335C
100
AcDbCellStyleMap
 90
        3
300
CELLSTYLE
  1
TABLEFORMAT_BEGIN
 90
        5
170
     1
 91
        0
 92
    32768
 62
   257
 93
        1
300
CONTENTFORMAT
  1
CONTENTFORMAT_BEGIN
 90
        0
 91
        0
 92
      512
 93
        0
300

 40
0.0
140
1.0
 94
        5
 62
     0
340
31BA
144
0.25
309
CONTENTFORMAT_END
171
     0
 94
        0
309
TABLEFORMAT_END
  1
CELLSTYLE_BEGIN
 90
        1
 91
        1
300
_TITLE
309
CELLSTYLE_END
300
CELLSTYLE
  1
TABLEFORMAT_BEGIN
 90
        5
170
     1
 91
        0
 92
        0
 62
   257
 93
        1
300
CONTENTFORMAT
  1
CONTENTFORMAT_BEGIN
 90
        0
 91
        0
 92
      512
 93
        0
300

 40
0.0
140
1.0
 94
        5
 62
     0
340
31BA
144
0.18
309
CONTENTFORMAT_END
171
     0
 94
        0
309
TABLEFORMAT_END
  1
CELLSTYLE_BEGIN
 90
        2
 91
        1
300
_HEADER
309
CELLSTYLE_END
300
CELLSTYLE
  1
TABLEFORMAT_BEGIN
 90
        5
170
     1
 91
        0
 92
        0
 62
   257
 93
        1
300
CONTENTFORMAT
  1
CONTENTFORMAT_BEGIN
 90
        0
 91
        0
 92
      512
 93
        0
300

 40
0.0
140
1.0
 94
        2
 62
     0
340
31BA
144
0.18
309
CONTENTFORMAT_END
171
     0
 94
        0
309
TABLEFORMAT_END
  1
CELLSTYLE_BEGIN
 90
        3
 91
        2
300
_DATA
309
CELLSTYLE_END
  0
XRECORD
  5
3368
102
{ACAD_REACTORS
330
335C
102
}
330
335C
100
AcDbXrecord
280
     1
102
ACAD_ROUNDTRIP_PRE2007_TABLESTYLE
 90
      512
 91
        0
  1

 92
      512
 93
        0
  2

 94
      512
 95
        0
  3

  0
ENDSEC
  0
EOF
