  0
SECTION
  2
HEADER
  9
$ACADVER
  1
AC1015
  9
$ACADMAINTVER
 70
    20
  9
$DWGCODEPAGE
  3
ANSI_932
  9
$INSBASE
 10
0.0
 20
0.0
 30
0.0
  9
$EXTMIN
 10
-1282.969649733242
 20
-1308.33433988543
 30
-0.0007624039136971
  9
$EXTMAX
 10
1549.896252411294
 20
804.6112143255431
 30
50.00076310244821
  9
$LIMMIN
 10
-2970.0
 20
-2100.0
  9
$LIMMAX
 10
2970.0
 20
2100.0
  9
$ORTHOMODE
 70
     1
  9
$REGENMODE
 70
     0
  9
$FILLMODE
 70
     1
  9
$QTEXTMODE
 70
     0
  9
$MIRRTEXT
 70
     0
  9
$LTSCALE
 40
20.0
  9
$ATTMODE
 70
     1
  9
$TEXTSIZE
 40
64.0
  9
$TRACEWID
 40
0.05
  9
$TEXTSTYLE
  7
STANDARD
  9
$CLAYER
  8
0
  9
$CELTYPE
  6
ByLayer
  9
$CECOLOR
 62
   256
  9
$CELTSCALE
 40
1.0
  9
$DISPSILH
 70
     0
  9
$DIMSCALE
 40
1.0
  9
$DIMASZ
 40
0.12
  9
$DIMEXO
 40
0.05
  9
$DIMDLI
 40
0.5
  9
$DIMRND
 40
0.0
  9
$DIMDLE
 40
0.0
  9
$DIMEXE
 40
0.1
  9
$DIMTP
 40
0.1
  9
$DIMTM
 40
0.1
  9
$DIMTXT
 40
0.12
  9
$DIMCEN
 40
0.0
  9
$DIMTSZ
 40
0.0
  9
$DIMTOL
 70
     0
  9
$DIMLIM
 70
     0
  9
$DIMTIH
 70
     1
  9
$DIMTOH
 70
     1
  9
$DIMSE1
 70
     0
  9
$DIMSE2
 70
     0
  9
$DIMTAD
 70
     0
  9
$DIMZIN
 70
     7
  9
$DIMBLK
  1

  9
$DIMASO
 70
     1
  9
$DIMSHO
 70
     0
  9
$DIMPOST
  1

  9
$DIMAPOST
  1
mm
  9
$DIMALT
 70
     0
  9
$DIMALTD
 70
     2
  9
$DIMALTF
 40
25.4
  9
$DIMLFAC
 40
1.0
  9
$DIMTOFL
 70
     0
  9
$DIMTVP
 40
0.0
  9
$DIMTIX
 70
     0
  9
$DIMSOXD
 70
     0
  9
$DIMSAH
 70
     0
  9
$DIMBLK1
  1

  9
$DIMBLK2
  1

  9
$DIMSTYLE
  2
AM_ANSI
  9
$DIMCLRD
 70
   256
  9
$DIMCLRE
 70
   256
  9
$DIMCLRT
 70
     2
  9
$DIMTFAC
 40
0.71
  9
$DIMGAP
 40
0.06
  9
$DIMJUST
 70
     0
  9
$DIMSD1
 70
     0
  9
$DIMSD2
 70
     0
  9
$DIMTOLJ
 70
     1
  9
$DIMTZIN
 70
     7
  9
$DIMALTZ
 70
     0
  9
$DIMALTTZ
 70
     0
  9
$DIMUPT
 70
     0
  9
$DIMDEC
 70
     4
  9
$DIMTDEC
 70
     4
  9
$DIMALTU
 70
     2
  9
$DIMALTTD
 70
     4
  9
$DIMTXSTY
  7
STANDARD
  9
$DIMAUNIT
 70
     0
  9
$DIMADEC
 70
     0
  9
$DIMALTRND
 40
0.0
  9
$DIMAZIN
 70
     2
  9
$DIMDSEP
 70
    46
  9
$DIMATFIT
 70
     3
  9
$DIMFRAC
 70
     0
  9
$DIMLDRBLK
  1

  9
$DIMLUNIT
 70
     2
  9
$DIMLWD
 70
    -1
  9
$DIMLWE
 70
    -1
  9
$DIMTMOVE
 70
     0
  9
$LUNITS
 70
     2
  9
$LUPREC
 70
     4
  9
$SKETCHINC
 40
0.1
  9
$FILLETRAD
 40
4.0
  9
$AUNITS
 70
     1
  9
$AUPREC
 70
     3
  9
$MENU
  1
ACAD
  9
$ELEVATION
 40
0.0
  9
$PELEVATION
 40
0.0
  9
$THICKNESS
 40
50.0
  9
$LIMCHECK
 70
     0
  9
$CHAMFERA
 40
0.0
  9
$CHAMFERB
 40
0.0
  9
$CHAMFERC
 40
0.0
  9
$CHAMFERD
 40
0.0
  9
$SKPOLY
 70
     0
  9
$TDCREATE
 40
2452321.396199653
  9
$TDUCREATE
 40
2452321.021199653
  9
$TDUPDATE
 40
2456210.596823507
  9
$TDUUPDATE
 40
2456210.221823507
  9
$TDINDWG
 40
1.0407772106
  9
$TDUSRTIMER
 40
1.0407714468
  9
$USRTIMER
 70
     1
  9
$ANGBASE
 50
0.0
  9
$ANGDIR
 70
     0
  9
$PDMODE
 70
     3
  9
$PDSIZE
 40
-2.0
  9
$PLINEWID
 40
0.0
  9
$SPLFRAME
 70
     0
  9
$SPLINETYPE
 70
     6
  9
$SPLINESEGS
 70
     8
  9
$HANDSEED
  5
28D1
  9
$SURFTAB1
 70
     6
  9
$SURFTAB2
 70
     6
  9
$SURFTYPE
 70
     6
  9
$SURFU
 70
     6
  9
$SURFV
 70
     6
  9
$UCSBASE
  2

  9
$UCSNAME
  2

  9
$UCSORG
 10
0.0
 20
0.0
 30
0.0
  9
$UCSXDIR
 10
1.0
 20
0.0
 30
0.0
  9
$UCSYDIR
 10
0.0
 20
1.0
 30
0.0
  9
$UCSORTHOREF
  2

  9
$UCSORTHOVIEW
 70
     0
  9
$UCSORGTOP
 10
0.0
 20
0.0
 30
0.0
  9
$UCSORGBOTTOM
 10
0.0
 20
0.0
 30
0.0
  9
$UCSORGLEFT
 10
0.0
 20
0.0
 30
0.0
  9
$UCSORGRIGHT
 10
0.0
 20
0.0
 30
0.0
  9
$UCSORGFRONT
 10
0.0
 20
0.0
 30
0.0
  9
$UCSORGBACK
 10
0.0
 20
0.0
 30
0.0
  9
$PUCSBASE
  2

  9
$PUCSNAME
  2

  9
$PUCSORG
 10
0.0
 20
0.0
 30
0.0
  9
$PUCSXDIR
 10
1.0
 20
0.0
 30
0.0
  9
$PUCSYDIR
 10
0.0
 20
1.0
 30
0.0
  9
$PUCSORTHOREF
  2

  9
$PUCSORTHOVIEW
 70
     0
  9
$PUCSORGTOP
 10
0.0
 20
0.0
 30
0.0
  9
$PUCSORGBOTTOM
 10
0.0
 20
0.0
 30
0.0
  9
$PUCSORGLEFT
 10
0.0
 20
0.0
 30
0.0
  9
$PUCSORGRIGHT
 10
0.0
 20
0.0
 30
0.0
  9
$PUCSORGFRONT
 10
0.0
 20
0.0
 30
0.0
  9
$PUCSORGBACK
 10
0.0
 20
0.0
 30
0.0
  9
$USERI1
 70
     0
  9
$USERI2
 70
     0
  9
$USERI3
 70
     0
  9
$USERI4
 70
     0
  9
$USERI5
 70
     0
  9
$USERR1
 40
20.0
  9
$USERR2
 40
0.0
  9
$USERR3
 40
0.0
  9
$USERR4
 40
0.0
  9
$USERR5
 40
0.0
  9
$WORLDVIEW
 70
     1
  9
$SHADEDGE
 70
     3
  9
$SHADEDIF
 70
    70
  9
$TILEMODE
 70
     1
  9
$MAXACTVP
 70
    64
  9
$PINSBASE
 10
0.0
 20
0.0
 30
0.0
  9
$PLIMCHECK
 70
     0
  9
$PEXTMIN
 10
1.000000000000000E+20
 20
1.000000000000000E+20
 30
1.000000000000000E+20
  9
$PEXTMAX
 10
-1.000000000000000E+20
 20
-1.000000000000000E+20
 30
-1.000000000000000E+20
  9
$PLIMMIN
 10
0.0
 20
0.0
  9
$PLIMMAX
 10
12.0
 20
9.0
  9
$UNITMODE
 70
     0
  9
$VISRETAIN
 70
     1
  9
$PLINEGEN
 70
     0
  9
$PSLTSCALE
 70
     1
  9
$TREEDEPTH
 70
  3020
  9
$CMLSTYLE
  2
Standard
  9
$CMLJUST
 70
     0
  9
$CMLSCALE
 40
1.0
  9
$PROXYGRAPHICS
 70
     1
  9
$MEASUREMENT
 70
     0
  9
$CELWEIGHT
370
    -1
  9
$ENDCAPS
280
     0
  9
$JOINSTYLE
280
     0
  9
$LWDISPLAY
290
     0
  9
$INSUNITS
 70
     0
  9
$HYPERLINKBASE
  1

  9
$STYLESHEET
  1

  9
$XEDIT
290
     1
  9
$CEPSNTYPE
380
     0
  9
$PSTYLEMODE
290
     1
  9
$FINGERPRINTGUID
  2
{35D6563C-AD12-4005-A65E-FC55726DC9C8}
  9
$VERSIONGUID
  2
{32E2F804-5A6D-45EE-8500-371DFD782296}
  9
$EXTNAMES
290
     1
  9
$PSVPSCALE
 40
0.0
  9
$OLESTARTUP
290
     0
  0
ENDSEC
  0
SECTION
  2
CLASSES
  0
CLASS
  1
ACDBDICTIONARYWDFLT
  2
AcDbDictionaryWithDefault
  3
ObjectDBX Classes
 90
        0
280
     0
281
     0
  0
CLASS
  1
MATERIAL
  2
AcDbMaterial
  3
ObjectDBX Classes
 90
     1153
280
     0
281
     0
  0
CLASS
  1
VISUALSTYLE
  2
AcDbVisualStyle
  3
ObjectDBX Classes
 90
     4095
280
     0
281
     0
  0
CLASS
  1
SCALE
  2
AcDbScale
  3
ObjectDBX Classes
 90
     1153
280
     0
281
     0
  0
CLASS
  1
TABLESTYLE
  2
AcDbTableStyle
  3
ObjectDBX Classes
 90
     4095
280
     0
281
     0
  0
CLASS
  1
MLEADERSTYLE
  2
AcDbMLeaderStyle
  3
ACDB_MLEADERSTYLE_CLASS
 90
     4095
280
     0
281
     0
  0
CLASS
  1
AMGSETTINGSOBJ
  2
AmgSettingsObj
  3
"AcadM|Product Description: AutoCAD Mechanical|Company: Autodesk, Inc."
 90
     1024
280
     0
281
     0
  0
CLASS
  1
ACME_DOCUMENT
  2
AcMeDbDoc
  3
AcMeServices
 90
     1024
280
     0
281
     0
  0
CLASS
  1
ACMESCOPE
  2
AcMeScope
  3
AcMeServices
 90
     1024
280
     0
281
     0
  0
CLASS
  1
ACMECOMMANDHISTORY
  2
AcMeCommandHistory
  3
AcMeServices
 90
     1024
280
     0
281
     0
  0
CLASS
  1
ACIMSYSVARMAN
  2
AcImSysVarManager
  3
AcMeServices
 90
     1024
280
     0
281
     0
  0
CLASS
  1
ACIMREALSYSVAR
  2
AcImRealSysVar
  3
AcMeServices
 90
     1024
280
     0
281
     0
  0
CLASS
  1
ACIMINTSYSVAR
  2
AcImIntSysVar
  3
AcMeServices
 90
     1024
280
     0
281
     0
  0
CLASS
  1
ACMEDRAWINGMAN
  2
AcMeDrawingMan
  3
AcMeServices
 90
     1024
280
     0
281
     0
  0
CLASS
  1
ACMEVIEW
  2
AcMeView
  3
AcMeServices
 90
     1024
280
     0
281
     0
  0
CLASS
  1
ACDBENTITYCACHE
  2
AcMeEntityCache
  3
AcMeServices
 90
     1024
280
     0
281
     0
  0
CLASS
  1
GSMANAGER
  2
AcMeGSManager
  3
AcMeServices
 90
     1024
280
     0
281
     0
  0
CLASS
  1
AMDTINTERNALREACTOR
  2
AmdtInternalReactor
  3
AcMeServices
 90
     1024
280
     0
281
     0
  0
CLASS
  1
ACMESTATEMGR
  2
AcMeStateMgr
  3
AcMeServices
 90
     1024
280
     0
281
     0
  0
CLASS
  1
ACGREFMASTER
  2
AcGrefMaster
  3
AcAttribServices
 90
     1024
280
     0
281
     0
  0
CLASS
  1
AM_DRAWING_MGR
  2
AcDmDwgMgr
  3
AcMechDwgViewMgmt
 90
     1024
280
     0
281
     0
  0
CLASS
  1
AM_DWG_DOCUMENT
  2
AcDmDwgDocument
  3
AcMechDwgViewMgmt
 90
     1024
280
     0
281
     0
  0
CLASS
  1
AM_DWG_SHEET
  2
AcDmSheet
  3
AcMechDwgViewMgmt
 90
     1024
280
     0
281
     0
  0
CLASS
  1
AM_VIEWDIMPARMAP
  2
AcDmViewDimParMap
  3
AcMechDwgViewMgmt
 90
     1024
280
     0
281
     0
  0
CLASS
  1
AM_DWGMGR_NAME
  2
AcDmDwgMgrName
  3
AcMechDwgViewMgmt
 90
     1024
280
     0
281
     0
  0
CLASS
  1
ACME_DATABASE
  2
AcMeDbDatabase
  3
AcMeServices
 90
     1024
280
     0
281
     0
  0
CLASS
  1
ACRFINSADJUSTERMGR
  2
AcRfInsAdjusterMgr
  3
AcMeServices
 90
     1024
280
     0
281
     0
  0
CLASS
  1
ACGREFACADMASTER
  2
AcGrefacadMaster
  3
AcGrefServices
 90
     1024
280
     0
281
     0
  0
CLASS
  1
AMDTMENUSTATEMGR
  2
AmdtMenuStateMgr
  3
McadcomServices
 90
     1024
280
     0
281
     0
  0
CLASS
  1
AMDTMCOMMENUSTATE
  2
AmdtMcomMenuState
  3
McadcomServices
 90
     1024
280
     0
281
     0
  0
CLASS
  1
AMIMASTER
  2
AmiMaster
  3
AmiServices
 90
     1024
280
     0
281
     0
  0
CLASS
  1
ASAPP
  2
AcAsAppObject
  3
AutoSurfServices
 90
     1024
280
     0
281
     0
  0
CLASS
  1
IM_STATIC_MAN
  2
AcImStaticVarManager
  3
AcMeServices
 90
     1024
280
     0
281
     0
  0
CLASS
  1
ACIMSTRSYSVAR
  2
AcImStrSysVar
  3
AcMeServices
 90
     1024
280
     0
281
     0
  0
CLASS
  1
ACIMDBLSTATICVAR
  2
AcImDblStaticVar
  3
AcMeServices
 90
     1024
280
     0
281
     0
  0
CLASS
  1
ACIMSTRSTATICVAR
  2
AcImStrStaticVar
  3
AcMeServices
 90
     1024
280
     0
281
     0
  0
CLASS
  1
ACIMINTSTATICVAR
  2
AcImIntStaticVar
  3
AcMeServices
 90
     1024
280
     0
281
     0
  0
CLASS
  1
ACASGREFMASTER
  2
AcAsGrefMaster
  3
AutoSurfResolverServices
 90
     1024
280
     0
281
     0
  0
CLASS
  1
ACADGREFMODULE
  2
AcAdGrefModule
  3
AdGrefServices
 90
     1024
280
     0
281
     0
  0
CLASS
  1
AMDTMAPISURFMOUDULE
  2
AmdtMApiSurfModule
  3
MApiSurfServices
 90
     1024
280
     0
281
     0
  0
CLASS
  1
MAPIAMMOUDLE
  2
MApiAmModule
  3
MApiAmServices
 90
     1024
280
     0
281
     0
  0
CLASS
  1
AMDTADMENUSTATE
  2
AmdtAdMenuState
  3
DesignerServices
 90
     1024
280
     0
281
     0
  0
CLASS
  1
ADAPPL
  2
AcAdAppl
  3
DesignerServices
 90
     1024
280
     0
281
     0
  0
CLASS
  1
DEPMGR
  2
AcAdDepMgr
  3
DesignerServices
 90
     1024
280
     0
281
     0
  0
CLASS
  1
PARAMMGR
  2
AcAdParamMgr
  3
DesignerServices
 90
     1024
280
     0
281
     0
  0
CLASS
  1
PARAMSCOPE
  2
AcAdParamScope
  3
DesignerServices
 90
     1024
280
     0
281
     0
  0
CLASS
  1
NAMEDAPPL
  2
AcAdNamedAppl
  3
DesignerServices
 90
     1024
280
     0
281
     0
  0
CLASS
  1
AMDTDMMENUSTATE
  2
AmdtDmMenuState
  3
AcMechDwgViewMgmt
 90
     1024
280
     0
281
     0
  0
CLASS
  1
MAPIADMODULE
  2
MApiAdModule
  3
MApiAdServices
 90
     1024
280
     0
281
     0
  0
CLASS
  1
AMDTAMMENUSTATE
  2
AmdtAmMenuState
  3
DesignerAssemblies
 90
     1024
280
     0
281
     0
  0
CLASS
  1
ACAMPROJECT
  2
AcAmProject
  3
DesignerAssemblies
 90
     1024
280
     0
281
     0
  0
CLASS
  1
ACAMGRCOMPDEF
  2
AcAmGrCompDef
  3
DesignerAssemblies
 90
     1024
280
     0
281
     0
  0
CLASS
  1
ACCMCONTEXT
  2
AcCmContext
  3
DesignerAssemblies
 90
     1024
280
     0
281
     0
  0
CLASS
  1
ACAMCOMPDEF
  2
AcAmCompDef
  3
DesignerAssemblies
 90
     1024
280
     0
281
     0
  0
CLASS
  1
ACAMCOMPDEFMGR
  2
AcAmCompDefMgr
  3
DesignerAssemblies
 90
     1024
280
     0
281
     0
  0
CLASS
  1
AMCONTEXTMGR
  2
AcAmContextMgr
  3
DesignerAssemblies
 90
     1024
280
     0
281
     0
  0
CLASS
  1
ACAMCONTEXTMODELER
  2
AcAmContextModeler
  3
DesignerAssemblies
 90
     1024
280
     0
281
     0
  0
CLASS
  1
ACMDATADICTIONARY
  2
AcmDataDictionary
  3
"AcmSymBB|Product Description: AutoCAD Mechanical|Company: Autodesk, Inc."
 90
     1024
280
     0
281
     0
  0
CLASS
  1
ACMDATAENTRYBLOCK
  2
AcmDataEntryBlock
  3
AcmSymBB|Product Description: AutoCAD Mechanical|Company: Autodesk, Inc.
 90
     1024
280
     0
281
     0
  0
CLASS
  1
ACRFATTGENMGR
  2
AcRfAttGeneralMgr
  3
AcAttribServices
 90
     1024
280
     0
281
     0
  0
CLASS
  1
ACRFOBJATTMGR
  2
AcRfObjAttGroupMgr
  3
AcAttribServices
 90
     1024
280
     0
281
     0
  0
CLASS
  1
ACRFMCADAPIATTHOLDER
  2
AcRfMCADAPIAttHolder
  3
AcAttribServices
 90
     1024
280
     0
281
     0
  0
CLASS
  1
AMDTSYSATTR
  2
AmdtSystemAttribute
  3
AcAttribServices
 90
     1024
280
     0
281
     0
  0
CLASS
  1
CATALOGSTATE
  2
AcAmCatalogState
  3
DesignerAssemblies
 90
     1024
280
     0
281
     0
  0
CLASS
  1
ACAMGRCOMPDEFSET
  2
AcAmGrCompDefSet
  3
DesignerAssemblies
 90
     1024
280
     0
281
     0
  0
CLASS
  1
AMDTBROWSERDBTAB
  2
AmdtBrowserDbTab
  3
McadcomServices
 90
     1024
280
     0
281
     0
  0
CLASS
  1
CBROWSERAPPOBJECT
  2
CBrowserAppObject
  3
McadcomServices
 90
     1024
280
     0
281
     0
  0
CLASS
  1
DM_PLACEHOLDER
  2
AcDmSelsetPlaceholder
  3
AcMechDwgViewMgmt
 90
     1024
280
     0
281
     0
  0
CLASS
  1
ACMSTANDARDANSI
  2
AcmStandardANSI
  3
"Amdt_StdImp|Product Description: AutoCAD Mechanical|Company: Autodesk, Inc."
 90
     1024
280
     0
281
     0
  0
CLASS
  1
ACMSURFSTANDARDANSI
  2
AcmSurfTextStdANSI
  3
"Amdt_StdImp|Product Description: AutoCAD Mechanical|Company: Autodesk, Inc."
 90
     1024
280
     0
281
     0
  0
CLASS
  1
ACMFCFSTANDARDANSI
  2
AcmFCFStdANSI
  3
"Amdt_StdImp|Product Description: AutoCAD Mechanical|Company: Autodesk, Inc."
 90
     1024
280
     0
281
     0
  0
CLASS
  1
ACMWELDSTANDARDANSI
  2
AcmWeldingStdANSI
  3
"Amdt_StdImp|Product Description: AutoCAD Mechanical|Company: Autodesk, Inc."
 90
     1024
280
     0
281
     0
  0
CLASS
  1
ACMIDSTANDARDANSI
  2
AcmIdStdANSI
  3
"Amdt_StdImp|Product Description: AutoCAD Mechanical|Company: Autodesk, Inc."
 90
     1024
280
     0
281
     0
  0
CLASS
  1
ACMDATUMSTANDARDANSI
  2
AcmDatumStdANSI
  3
"Amdt_StdImp|Product Description: AutoCAD Mechanical|Company: Autodesk, Inc."
 90
     1024
280
     0
281
     0
  0
CLASS
  1
ACMBOMSTANDARDANSI
  2
AcmBOMStdANSI
  3
"Amdt_StdImp|Product Description: AutoCAD Mechanical|Company: Autodesk, Inc."
 90
     1024
280
     0
281
     0
  0
CLASS
  1
ACMDETAILSTANDARDANSI
  2
AmdtDetailSymStdANSI
  3
"Amdt_StdImp|Product Description: AutoCAD Mechanical|Company: Autodesk, Inc."
 90
     1024
280
     0
281
     0
  0
CLASS
  1
ACMSECTIONSTANDARDANSI
  2
AmdtSectionSymStdANSI
  3
"Amdt_StdImp|Product Description: AutoCAD Mechanical|Company: Autodesk, Inc."
 90
     1024
280
     0
281
     0
  0
CLASS
  1
ACMCENTERLINESTANDARDANSI
  2
AmdtCenterLineStdANSI
  3
"Amdt_StdImp|Product Description: AutoCAD Mechanical|Company: Autodesk, Inc."
 90
     1024
280
     0
281
     0
  0
CLASS
  1
ACMTHREADLINESTANDARDANSI
  2
AmdtThreadLineStdANSI
  3
"Amdt_StdImp|Product Description: AutoCAD Mechanical|Company: Autodesk, Inc."
 90
     1024
280
     0
281
     0
  0
CLASS
  1
ACMNOTESTANDARDANSI
  2
AmdtNoteStdANSI
  3
"Amdt_StdImp|Product Description: AutoCAD Mechanical|Company: Autodesk, Inc."
 90
     1024
280
     0
281
     0
  0
CLASS
  1
ACMTAPERSTANDARDANSI
  2
AcmTaperStdANSI
  3
"Amdt_StdImp|Product Description: AutoCAD Mechanical|Company: Autodesk, Inc."
 90
     1024
280
     0
281
     0
  0
CLASS
  1
ACMANOOTATIONVIEWSTANDARDANSI
  2
AmdtAnViewStdANSI
  3
"Amdt_StdImp|Product Description: AutoCAD Mechanical|Company: Autodesk, Inc."
 90
     1024
280
     0
281
     0
  0
CLASS
  1
ACAMGLAYSTD
  2
AcAmgLayStd
  3
"AmgLay|Product Description: AutoCAD Mechanical|Company: Autodesk, Inc."
 90
     1024
280
     0
281
     0
  0
CLASS
  1
ACAMGDIMSTD
  2
AcAmgDimStd
  3
"AmgDim|Product Description: AutoCAD Mechanical|Company: Autodesk, Inc."
 90
     1024
280
     0
281
     0
  0
CLASS
  1
ACAMGHOLECHARTSTDANSI
  2
AcAmgHoleChartStdANSI
  3
AmgDim|Product Description: AutoCAD Mechanical|Company: Autodesk, Inc.
 90
     1024
280
     0
281
     0
  0
CLASS
  1
AMGOBJPROPCFG
  2
AmgObjPropCfg
  3
"AmgLay|Product Description: AutoCAD Mechanical|Company: Autodesk, Inc."
 90
     1025
280
     0
281
     0
  0
CLASS
  1
ACAMGTITLESTD
  2
AcAmgTitleStd
  3
"AmgTitle|Product Description: AutoCAD Mechanical|Company: Autodesk, Inc."
 90
     4095
280
     0
281
     0
  0
CLASS
  1
AMDTNOTETEMPLATEDB
  2
AmdtNoteTemplateDB
  3
AcmSymBB|Product Description: AutoCAD Mechanical|Company: Autodesk, Inc.
 90
     1024
280
     0
281
     0
  0
CLASS
  1
ACAMGFILTERDAT
  2
AcAmgFilterDat
  3
"AcadM|Product Description: AutoCAD Mechanical|Company: Autodesk, Inc."
 90
     1024
280
     0
281
     0
  0
CLASS
  1
LAYER_INDEX
  2
AcDbLayerIndex
  3
ObjectDBX Classes
 90
        0
280
     0
281
     0
  0
CLASS
  1
IDBUFFER
  2
AcDbIdBuffer
  3
ObjectDBX Classes
 90
        0
280
     0
281
     0
  0
CLASS
  1
DICTIONARYVAR
  2
AcDbDictionaryVar
  3
ObjectDBX Classes
 90
        0
280
     0
281
     0
  0
CLASS
  1
CELLSTYLEMAP
  2
AcDbCellStyleMap
  3
ObjectDBX Classes
 90
     1152
280
     0
281
     0
  0
CLASS
  1
ACDBPLACEHOLDER
  2
AcDbPlaceHolder
  3
ObjectDBX Classes
 90
        0
280
     0
281
     0
  0
CLASS
  1
LAYOUT
  2
AcDbLayout
  3
ObjectDBX Classes
 90
        0
280
     0
281
     0
  0
ENDSEC
  0
SECTION
  2
TABLES
  0
TABLE
  2
VPORT
  5
2671
330
0
100
AcDbSymbolTable
 70
     1
  0
VPORT
  5
26E1
330
2671
100
AcDbSymbolTableRecord
100
AcDbViewportTableRecord
  2
*ACTIVE
 70
     0
 10
0.0
 20
0.0
 11
1.0
 21
1.0
 12
-363.0708374235758
 22
0.0
 13
0.0
 23
0.0
 14
1.0
 24
1.0
 15
0.0
 25
0.0
 16
0.0
 26
0.0
 36
1.0
 17
496.5341387626014
 27
-251.8615627799436
 37
0.0
 40
2126.8923895523
 41
1.712555066079295
 42
50.0
 43
0.0
 44
0.0
 50
0.0
 51
0.0
 71
     0
 72
   100
 73
     1
 74
     0
 75
     0
 76
     0
 77
     0
 78
     0
281
     0
 65
     0
110
0.0
120
0.0
130
0.0
111
1.0
121
0.0
131
0.0
112
0.0
122
1.0
132
0.0
 79
     0
146
0.0
  0
ENDTAB
  0
TABLE
  2
LTYPE
  5
266E
330
0
100
AcDbSymbolTable
 70
    19
  0
LTYPE
  5
26CB
330
266E
100
AcDbSymbolTableRecord
100
AcDbLinetypeTableRecord
  2
ByBlock
 70
     0
  3

 72
    65
 73
     0
 40
0.0
  0
LTYPE
  5
26CC
330
266E
100
AcDbSymbolTableRecord
100
AcDbLinetypeTableRecord
  2
ByLayer
 70
     0
  3

 72
    65
 73
     0
 40
0.0
  0
LTYPE
  5
26CD
330
266E
100
AcDbSymbolTableRecord
100
AcDbLinetypeTableRecord
  2
CONTINUOUS
 70
     0
  3
実線
 72
    65
 73
     0
 40
0.0
  0
LTYPE
  5
26E2
330
266E
100
AcDbSymbolTableRecord
100
AcDbLinetypeTableRecord
  2
DASHDOT
 70
     0
  3
____ _ ____ _ ____ _ ____ _ ____ _ ____ _ ____
 72
    65
 73
     4
 40
5.5
 49
4.0
 74
     0
 49
-0.6
 74
     0
 49
0.3
 74
     0
 49
-0.6
 74
     0
  0
LTYPE
  5
26E3
330
266E
100
AcDbSymbolTableRecord
100
AcDbLinetypeTableRecord
  2
HIDDEN
 70
     0
  3
Hidden __ __ __ __ __ __ __ __ __ __ __ __ __ _
 72
    65
 73
     2
 40
0.375
 49
0.25
 74
     0
 49
-0.125
 74
     0
  0
LTYPE
  5
26E4
330
266E
100
AcDbSymbolTableRecord
100
AcDbLinetypeTableRecord
  2
PHANTOM2
 70
     0
  3
Phantom (.5x) ___ _ _ ___ _ _ ___ _ _ ___ _ _
 72
    65
 73
     6
 40
1.25
 49
0.625
 74
     0
 49
-0.125
 74
     0
 49
0.125
 74
     0
 49
-0.125
 74
     0
 49
0.125
 74
     0
 49
-0.125
 74
     0
  0
LTYPE
  5
26E5
330
266E
100
AcDbSymbolTableRecord
100
AcDbLinetypeTableRecord
  2
CENTER
 70
     0
  3
Center ____ _ ____ _ ____ _ ____ _ ____ _ ____
 72
    65
 73
     4
 40
2.0
 49
1.25
 74
     0
 49
-0.25
 74
     0
 49
0.25
 74
     0
 49
-0.25
 74
     0
  0
LTYPE
  5
26E6
330
266E
100
AcDbSymbolTableRecord
100
AcDbLinetypeTableRecord
  2
ASULTYPE
 70
     0
  3
実線
 72
    65
 73
     2
 40
3.0
 49
2.5
 74
     0
 49
0.5
 74
     0
  0
LTYPE
  5
26E7
330
266E
100
AcDbSymbolTableRecord
100
AcDbLinetypeTableRecord
  2
ASVLTYPE
 70
     0
  3
__ __ __ __ __ __ __ __ __ __ __ __ __ __ __ __ __ __ __ __ __
 72
    65
 73
     2
 40
0.75
 49
0.5
 74
     0
 49
-0.25
 74
     0
  0
LTYPE
  5
26E8
330
266E
100
AcDbSymbolTableRecord
100
AcDbLinetypeTableRecord
  2
AM_ISO02W050
 70
     0
  3
__ __ __ __ __ __ __ __ __ __ __ __ __ __ __
 72
    65
 73
     2
 40
7.5
 49
6.0
 74
     0
 49
-1.5
 74
     0
  0
LTYPE
  5
26E9
330
266E
100
AcDbSymbolTableRecord
100
AcDbLinetypeTableRecord
  2
AM_ISO08W050
 70
     0
  3
____ . ____ . ____ . ____ . ____ . ____ . ____
 72
    65
 73
     4
 40
18.0
 49
12.0
 74
     0
 49
-1.5
 74
     0
 49
3.0
 74
     0
 49
-1.5
 74
     0
  0
LTYPE
  5
26EA
330
266E
100
AcDbSymbolTableRecord
100
AcDbLinetypeTableRecord
  2
AM_ISO09W050
 70
     0
  3
_____ . . _____ . . _____ . . ____ .. ____
 72
    65
 73
     6
 40
22.5
 49
12.0
 74
     0
 49
-1.5
 74
     0
 49
3.0
 74
     0
 49
-1.5
 74
     0
 49
3.0
 74
     0
 49
-1.5
 74
     0
  0
LTYPE
  5
26EB
330
266E
100
AcDbSymbolTableRecord
100
AcDbLinetypeTableRecord
  2
AMCONSTR
 70
     0
  3
_______________________
 72
    65
 73
     2
 40
9999.0
 49
9999.0
 74
     0
 49
0.0
 74
     0
  0
LTYPE
  5
26EC
330
266E
100
AcDbSymbolTableRecord
100
AcDbLinetypeTableRecord
  2
AM_ISO08W050X2
 70
     0
  3
__ . __ . __ . __ . __ . __
 72
    65
 73
     4
 40
9.0
 49
6.0
 74
     0
 49
-0.75
 74
     0
 49
1.5
 74
     0
 49
-0.75
 74
     0
  0
LTYPE
  5
26ED
330
266E
100
AcDbSymbolTableRecord
100
AcDbLinetypeTableRecord
  2
AM_ISO02W050X2
 70
     0
  3
 _ _ _ _ _ _ _ _ _ _ _ _
 72
    65
 73
     2
 40
3.75
 49
3.0
 74
     0
 49
-0.75
 74
     0
  0
LTYPE
  5
26EE
330
266E
100
AcDbSymbolTableRecord
100
AcDbLinetypeTableRecord
  2
AMZIGZAG
 70
     0
  3
/\/-/\/-/\/-/\/-/\/-/\/
 72
    65
 73
     2
 40
11.0001
 49
0.0001
 74
     0
 49
-11.0
 74
     0
  0
LTYPE
  5
26EF
330
266E
100
AcDbSymbolTableRecord
100
AcDbLinetypeTableRecord
  2
CENTER2
 70
     0
  3
Center (.5x) ___ _ ___ _ ___ _ ___ _ ___ _ ___
 72
    65
 73
     4
 40
1.125
 49
0.75
 74
     0
 49
-0.125
 74
     0
 49
0.125
 74
     0
 49
-0.125
 74
     0
  0
LTYPE
  5
26F0
330
266E
100
AcDbSymbolTableRecord
100
AcDbLinetypeTableRecord
  2
HIDDEN2
 70
     0
  3
Hidden (.5x) _ _ _ _ _ _ _ _ _ _ _ _ _ _ _ _ _
 72
    65
 73
     2
 40
0.1875
 49
0.125
 74
     0
 49
-0.0625
 74
     0
  0
LTYPE
  5
26F1
330
266E
100
AcDbSymbolTableRecord
100
AcDbLinetypeTableRecord
  2
AMZIGZAG2
 70
     0
  3
/\/-/\/-/\/-/\/-/\/-/\/
 72
    65
 73
     2
 40
0.4401
 49
0.0001
 74
     0
 49
-0.4400000000000003
 74
     0
  0
LTYPE
  5
26F2
330
266E
100
AcDbSymbolTableRecord
100
AcDbLinetypeTableRecord
  2
ACANSTGB
 70
     0
  3
__ . . __ . .
 72
    65
 73
     6
 40
0.35433070866
 49
0.15748031496
 74
     0
 49
-0.03937007874
 74
     0
 49
0.03937007874
 74
     0
 49
-0.03937007874
 74
     0
 49
0.03937007874
 74
     0
 49
-0.03937007874
 74
     0
  0
LTYPE
  5
26F3
330
266E
100
AcDbSymbolTableRecord
100
AcDbLinetypeTableRecord
  2
ACANSTGL
 70
     0
  3
_ _ _ _ _
 72
    65
 73
     2
 40
0.11811023622
 49
0.07874015748
 74
     0
 49
-0.03937007874
 74
     0
  0
ENDTAB
  0
TABLE
  2
LAYER
  5
266B
330
0
100
AcDbSymbolTable
 70
    12
  0
LAYER
  5
26C5
102
{ACAD_XDICTIONARY
360
2890
102
}
330
266B
100
AcDbSymbolTableRecord
100
AcDbLayerTableRecord
  2
0
 70
     0
 62
     7
  6
CONTINUOUS
370
    -3
390
2678
  0
LAYER
  5
26F4
102
{ACAD_XDICTIONARY
360
2892
102
}
330
266B
100
AcDbSymbolTableRecord
100
AcDbLayerTableRecord
  2
OUTLINE
 70
     0
 62
     3
  6
CONTINUOUS
370
    -3
390
2678
  0
LAYER
  5
26F5
102
{ACAD_XDICTIONARY
360
2894
102
}
330
266B
100
AcDbSymbolTableRecord
100
AcDbLayerTableRecord
  2
SIZE
 70
     0
 62
    30
  6
CONTINUOUS
370
    -3
390
2678
  0
LAYER
  5
26F6
102
{ACAD_XDICTIONARY
360
2896
102
}
330
266B
100
AcDbSymbolTableRecord
100
AcDbLayerTableRecord
  2
BASIS
 70
     0
 62
     6
  6
DASHDOT
370
    -3
390
2678
  0
LAYER
  5
26F7
102
{ACAD_XDICTIONARY
360
2898
102
}
330
266B
100
AcDbSymbolTableRecord
100
AcDbLayerTableRecord
  2
DETAIL
 70
     0
 62
     5
  6
CONTINUOUS
370
    -3
390
2678
  0
LAYER
  5
26F8
102
{ACAD_XDICTIONARY
360
289A
102
}
330
266B
100
AcDbSymbolTableRecord
100
AcDbLayerTableRecord
  2
ARRANGE
 70
     0
 62
     1
  6
CONTINUOUS
370
    -3
390
2678
  0
LAYER
  5
26F9
330
266B
100
AcDbSymbolTableRecord
100
AcDbLayerTableRecord
  2
DEFPOINTS
 70
     0
 62
     7
  6
CONTINUOUS
290
     0
370
    -3
390
2678
  0
LAYER
  5
26FA
102
{ACAD_XDICTIONARY
360
289C
102
}
330
266B
100
AcDbSymbolTableRecord
100
AcDbLayerTableRecord
  2
ETC
 70
     0
 62
    61
  6
CONTINUOUS
370
    -3
390
2678
  0
LAYER
  5
26FB
102
{ACAD_XDICTIONARY
360
289E
102
}
330
266B
100
AcDbSymbolTableRecord
100
AcDbLayerTableRecord
  2
FIX
 70
     0
 62
    11
  6
CONTINUOUS
370
    -3
390
2678
  0
LAYER
  5
26FC
102
{ACAD_XDICTIONARY
360
28A0
102
}
330
266B
100
AcDbSymbolTableRecord
100
AcDbLayerTableRecord
  2
NOTE
 70
     0
 62
     4
  6
CONTINUOUS
370
    -3
390
2678
  0
LAYER
  5
26FD
102
{ACAD_XDICTIONARY
360
28A2
102
}
330
266B
100
AcDbSymbolTableRecord
100
AcDbLayerTableRecord
  2
SERVICESPACE
 70
     0
 62
     2
  6
DASHDOT
370
    -3
390
2678
  0
LAYER
  5
26FE
102
{ACAD_XDICTIONARY
360
28A4
102
}
330
266B
100
AcDbSymbolTableRecord
100
AcDbLayerTableRecord
  2
SYMBOLLINE
 70
     0
 62
    15
  6
CONTINUOUS
370
    -3
390
2678
  0
ENDTAB
  0
TABLE
  2
STYLE
  5
266C
330
0
100
AcDbSymbolTable
 70
     5
  0
STYLE
  5
26C6
330
266C
100
AcDbSymbolTableRecord
100
AcDbTextStyleTableRecord
  2
STANDARD
 70
     0
 40
64.0
 41
0.9
 50
0.0
 71
     0
 42
64.0
  3
SIMPLEX.shx
  4
BIGFONT.shx
  0
STYLE
  5
26CA
330
266C
100
AcDbSymbolTableRecord
100
AcDbTextStyleTableRecord
  2
ANNOTATIVE
 70
     0
 40
0.0
 41
1.0
 50
0.0
 71
     0
 42
0.2
  3
txt
  4

1001
ACADANNOTATIVE
1000
AnnotativeData
1002
{
1070
     1
1070
     1
1002
}
  0
STYLE
  5
26FF
330
266C
100
AcDbSymbolTableRecord
100
AcDbTextStyleTableRecord
  2

 70
     1
 40
0.0
 41
1.0
 50
0.0
 71
     0
 42
64.0
  3
genltshp.shx
  4

  0
STYLE
  5
2700
330
266C
100
AcDbSymbolTableRecord
100
AcDbTextStyleTableRecord
  2
ACANSTS
 70
     0
 40
1.0
 41
1.0
 50
0.0
 71
     0
 42
64.0
  3
romans.shx
  4
extfont.shx
  0
STYLE
  5
2701
330
266C
100
AcDbSymbolTableRecord
100
AcDbTextStyleTableRecord
  2
ACANSGDT
 70
     0
 40
0.0
 41
1.0
 50
0.0
 71
     0
 42
64.0
  3
amgdt.shx
  4

  0
ENDTAB
  0
TABLE
  2
VIEW
  5
266F
330
0
100
AcDbSymbolTable
 70
     1
  0
VIEW
  5
2702
330
266F
100
AcDbSymbolTableRecord
100
AcDbViewTableRecord
  2
ALL
 70
     0
 40
4282.619807999997
 10
0.0
 20
41.30990399999999
 41
5940.0
 11
0.0
 21
0.0
 31
1.0
 12
0.0
 22
0.0
 32
0.0
 42
50.0
 43
0.0
 44
0.0
 50
0.0
 71
     0
281
     0
 72
     1
110
0.0
120
0.0
130
0.0
111
1.0
121
0.0
131
0.0
112
0.0
122
1.0
132
0.0
 79
     0
146
0.0
  0
ENDTAB
  0
TABLE
  2
UCS
  5
2670
330
0
100
AcDbSymbolTable
 70
     0
  0
ENDTAB
  0
TABLE
  2
APPID
  5
2672
330
0
100
AcDbSymbolTable
 70
    28
  0
APPID
  5
26C7
330
2672
100
AcDbSymbolTableRecord
100
AcDbRegAppTableRecord
  2
ACAD
 70
     0
  0
APPID
  5
26CE
330
2672
100
AcDbSymbolTableRecord
100
AcDbRegAppTableRecord
  2
ACADANNOTATIVE
 70
     0
  0
APPID
  5
26D8
330
2672
100
AcDbSymbolTableRecord
100
AcDbRegAppTableRecord
  2
ACAD_MLEADERVER
 70
     0
  0
APPID
  5
2703
330
2672
100
AcDbSymbolTableRecord
100
AcDbRegAppTableRecord
  2
GENIUS_GENDIM_13
 70
     0
  0
APPID
  5
2704
330
2672
100
AcDbSymbolTableRecord
100
AcDbRegAppTableRecord
  2
GENIUS_GENDTOL_13
 70
     0
  0
APPID
  5
2705
330
2672
100
AcDbSymbolTableRecord
100
AcDbRegAppTableRecord
  2
GENIUS_GE3DTOL_13
 70
     0
  0
APPID
  5
2706
330
2672
100
AcDbSymbolTableRecord
100
AcDbRegAppTableRecord
  2
MCAD_NO_VIS
 70
     0
  0
APPID
  5
2707
330
2672
100
AcDbSymbolTableRecord
100
AcDbRegAppTableRecord
  2
ACAD_TEMP_GRAPHIC
 70
     0
  0
APPID
  5
2708
330
2672
100
AcDbSymbolTableRecord
100
AcDbRegAppTableRecord
  2
AD_DRAW
 70
     0
  0
APPID
  5
2709
330
2672
100
AcDbSymbolTableRecord
100
AcDbRegAppTableRecord
  2
ACATTRIBSERVICES
 70
     0
  0
APPID
  5
270A
330
2672
100
AcDbSymbolTableRecord
100
AcDbRegAppTableRecord
  2
ASURF_PCURVE_APPNAME
 70
     0
  0
APPID
  5
270B
330
2672
100
AcDbSymbolTableRecord
100
AcDbRegAppTableRecord
  2
AMG_3D2D_5_0
 70
     0
  0
APPID
  5
270C
330
2672
100
AcDbSymbolTableRecord
100
AcDbRegAppTableRecord
  2
DESIGNERASSEMBLIES
 70
     0
  0
APPID
  5
270D
330
2672
100
AcDbSymbolTableRecord
100
AcDbRegAppTableRecord
  2
ACADM_DIM_EDIT
 70
     0
  0
APPID
  5
270E
330
2672
100
AcDbSymbolTableRecord
100
AcDbRegAppTableRecord
  2
AMDT_DM_ADJ
 70
     0
  0
APPID
  5
270F
330
2672
100
AcDbSymbolTableRecord
100
AcDbRegAppTableRecord
  2
ACAD_DSTYLE_DIMARC_LENGTH_
 70
     0
  0
APPID
  5
2710
330
2672
100
AcDbSymbolTableRecord
100
AcDbRegAppTableRecord
  2
ACAD_DSTYLE_DIMJOGGED_JOGA
 70
     0
  0
APPID
  5
2711
330
2672
100
AcDbSymbolTableRecord
100
AcDbRegAppTableRecord
  2
ACAD_PSEXT
 70
     0
  0
APPID
  5
2712
330
2672
100
AcDbSymbolTableRecord
100
AcDbRegAppTableRecord
  2
ACAD_EXEMPT_FROM_CAD_STANDARDS
 70
     0
  0
APPID
  5
2713
330
2672
100
AcDbSymbolTableRecord
100
AcDbRegAppTableRecord
  2
ACAD_DSTYLE_DIMJAG
 70
     0
  0
APPID
  5
2714
330
2672
100
AcDbSymbolTableRecord
100
AcDbRegAppTableRecord
  2
ACAD_DSTYLE_DIMTALN
 70
     0
  0
APPID
  5
2715
330
2672
100
AcDbSymbolTableRecord
100
AcDbRegAppTableRecord
  2
AMG_3D2D_5_00
 70
     0
  0
APPID
  5
2716
330
2672
100
AcDbSymbolTableRecord
100
AcDbRegAppTableRecord
  2
AMG_3D2D_5_01
 70
     0
  0
APPID
  5
2830
330
2672
100
AcDbSymbolTableRecord
100
AcDbRegAppTableRecord
  2
AMG_3D2D_5.0
 70
     0
  0
APPID
  5
28CD
330
2672
100
AcDbSymbolTableRecord
100
AcDbRegAppTableRecord
  2
ACAD_DSTYLE_DIMARC_LENGTH_SYMBOL
 70
     0
  0
APPID
  5
28CE
330
2672
100
AcDbSymbolTableRecord
100
AcDbRegAppTableRecord
  2
ACAD_DSTYLE_DIM_LINETYPE
 70
     0
  0
APPID
  5
28CF
330
2672
100
AcDbSymbolTableRecord
100
AcDbRegAppTableRecord
  2
ACAD_DSTYLE_DIM_EXT1_LINETYPE
 70
     0
  0
APPID
  5
28D0
330
2672
100
AcDbSymbolTableRecord
100
AcDbRegAppTableRecord
  2
ACAD_DSTYLE_DIM_EXT2_LINETYPE
 70
     0
  0
ENDTAB
  0
TABLE
  2
DIMSTYLE
  5
2673
330
0
100
AcDbSymbolTable
 70
    10
100
AcDbDimStyleTable
 71
     1
340
2717
  0
DIMSTYLE
105
26C8
330
2673
100
AcDbSymbolTableRecord
100
AcDbDimStyleTableRecord
  2
STANDARD
 70
     0
 41
12.0
 42
20.0
 44
20.0
 77
     1
 78
     8
140
64.0
141
0.0
147
10.0
275
     1
279
     2
284
     7
285
     7
286
     7
340
26C6
  0
DIMSTYLE
105
26C9
330
2673
100
AcDbSymbolTableRecord
100
AcDbDimStyleTableRecord
  2
ANNOTATIVE
 70
     0
275
     1
279
     2
284
     7
285
     7
286
     7
340
26C6
1001
ACADANNOTATIVE
1000
AnnotativeData
1002
{
1070
     1
1070
     1
1002
}
  0
DIMSTYLE
105
2717
330
2673
100
AcDbSymbolTableRecord
100
AcDbDimStyleTableRecord
  2
AM_ANSI
 70
     0
  4
mm
 41
0.12
 42
0.05
 43
0.5
 44
0.1
 47
0.1
 48
0.1
 78
     7
 79
     2
140
0.12
141
0.0
146
0.71
147
0.06
176
   256
177
   256
178
     2
274
     4
284
     7
340
26C6
371
    -1
372
    -1
1001
ACAD_DSTYLE_DIMARC_LENGTH_SYMBOL
1070
   379
1070
     1
1001
ACAD_DSTYLE_DIM_LINETYPE
1070
   380
1005
26CB
1001
ACAD_DSTYLE_DIM_EXT1_LINETYPE
1070
   381
1005
26CB
1001
ACAD_DSTYLE_DIM_EXT2_LINETYPE
1070
   382
1005
26CB
  0
DIMSTYLE
105
2718
330
2673
100
AcDbSymbolTableRecord
100
AcDbDimStyleTableRecord
  2
AM_ANSI$3
 70
     0
  4
mm
 41
0.12
 42
0.05
 43
0.5
 44
0.1
 47
0.1
 48
0.1
 78
     7
 79
     2
140
0.12
141
0.0
146
0.71
147
0.06
176
   256
177
   256
178
     2
274
     4
284
     7
288
     1
289
     0
340
26C6
371
    -1
372
    -1
1001
ACAD_DSTYLE_DIMARC_LENGTH_SYMBOL
1070
   379
1070
     1
1001
ACAD_DSTYLE_DIM_LINETYPE
1070
   380
1005
26CB
1001
ACAD_DSTYLE_DIM_EXT1_LINETYPE
1070
   381
1005
26CB
1001
ACAD_DSTYLE_DIM_EXT2_LINETYPE
1070
   382
1005
26CB
  0
DIMSTYLE
105
2719
330
2673
100
AcDbSymbolTableRecord
100
AcDbDimStyleTableRecord
  2
AM_ANSI$4
 70
     0
  4
mm
 41
0.12
 42
0.05
 43
0.5
 44
0.1
 47
0.1
 48
0.1
 78
     7
 79
     2
140
0.12
141
0.0
146
0.71
147
0.06
176
   256
177
   256
178
     2
274
     4
284
     7
340
26C6
371
    -1
372
    -1
1001
ACAD_DSTYLE_DIMARC_LENGTH_SYMBOL
1070
   379
1070
     1
1001
ACAD_DSTYLE_DIM_LINETYPE
1070
   380
1005
26CB
1001
ACAD_DSTYLE_DIM_EXT1_LINETYPE
1070
   381
1005
26CB
1001
ACAD_DSTYLE_DIM_EXT2_LINETYPE
1070
   382
1005
26CB
  0
DIMSTYLE
105
271A
330
2673
100
AcDbSymbolTableRecord
100
AcDbDimStyleTableRecord
  2
AM_ANSI$7
 70
     0
  4
mm
 41
0.12
 42
0.05
 43
0.5
 44
0.1
 47
0.1
 48
0.1
 78
     7
 79
     2
140
0.12
141
0.0
146
0.71
147
0.06
176
   256
177
   256
178
     2
274
     4
284
     7
340
26C6
371
    -1
372
    -1
1001
ACAD_DSTYLE_DIMARC_LENGTH_SYMBOL
1070
   379
1070
     1
1001
ACAD_DSTYLE_DIM_LINETYPE
1070
   380
1005
26CB
1001
ACAD_DSTYLE_DIM_EXT1_LINETYPE
1070
   381
1005
26CB
1001
ACAD_DSTYLE_DIM_EXT2_LINETYPE
1070
   382
1005
26CB
  0
DIMSTYLE
105
271B
330
2673
100
AcDbSymbolTableRecord
100
AcDbDimStyleTableRecord
  2
AM_ANSI$SF
 70
     0
  4
mm
 41
0.12
 42
0.05
 43
0.5
 44
0.1
 47
0.1
 48
0.1
 75
     1
 76
     1
 78
     7
 79
     2
140
0.12
141
0.0
146
0.71
147
0.06
176
   256
177
   256
178
     2
274
     4
284
     7
340
26C6
371
    -1
372
    -1
1001
ACAD_DSTYLE_DIMARC_LENGTH_SYMBOL
1070
   379
1070
     1
1001
ACAD_DSTYLE_DIM_LINETYPE
1070
   380
1005
26CB
1001
ACAD_DSTYLE_DIM_EXT1_LINETYPE
1070
   381
1005
26CB
1001
ACAD_DSTYLE_DIM_EXT2_LINETYPE
1070
   382
1005
26CB
  0
DIMSTYLE
105
271C
330
2673
100
AcDbSymbolTableRecord
100
AcDbDimStyleTableRecord
  2
AM_ANSI$SH
 70
     0
  4
mm
 41
0.12
 42
0.05
 43
0.5
 44
0.1
 47
0.1
 48
0.1
 75
     1
 76
     1
 78
     7
 79
     2
140
0.12
141
0.0
146
0.71
147
0.06
173
     1
176
   256
177
   256
178
     2
274
     4
284
     7
340
26C6
343
273C
371
    -1
372
    -1
1001
ACAD_DSTYLE_DIMARC_LENGTH_SYMBOL
1070
   379
1070
     1
1001
ACAD_DSTYLE_DIM_LINETYPE
1070
   380
1005
26CB
1001
ACAD_DSTYLE_DIM_EXT1_LINETYPE
1070
   381
1005
26CB
1001
ACAD_DSTYLE_DIM_EXT2_LINETYPE
1070
   382
1005
26CB
  0
DIMSTYLE
105
271D
330
2673
100
AcDbSymbolTableRecord
100
AcDbDimStyleTableRecord
  2
STANDARD1
 70
     0
 40
6.0
 41
2.5
 42
0.625
 43
6.0
 44
1.25
 47
1.0
 48
0.5
 77
     1
 78
     8
140
2.5
141
0.0
146
0.6
147
1.0
173
     1
275
     1
279
     2
284
     7
285
     7
286
     7
340
26C6
  0
DIMSTYLE
105
271E
330
2673
100
AcDbSymbolTableRecord
100
AcDbDimStyleTableRecord
  2
STANDARD$0
 70
     0
 41
12.0
 42
20.0
 44
20.0
 73
     0
 74
     0
 77
     1
 78
     8
140
64.0
141
0.0
147
10.0
275
     1
279
     2
284
     7
285
     7
286
     7
340
26C6
  0
ENDTAB
  0
TABLE
  2
BLOCK_RECORD
  5
266A
330
0
100
AcDbSymbolTable
 70
    69
  0
BLOCK_RECORD
  5
26DD
102
{ACAD_XDICTIONARY
360
28A6
102
}
330
266A
100
AcDbSymbolTableRecord
100
AcDbBlockTableRecord
  2
*Model_Space
340
26E0
  0
BLOCK_RECORD
  5
26D9
330
266A
100
AcDbSymbolTableRecord
100
AcDbBlockTableRecord
  2
*Paper_Space
340
26DC
  0
BLOCK_RECORD
  5
2726
330
266A
100
AcDbSymbolTableRecord
100
AcDbBlockTableRecord
  2
$MODEL_SPACE
340
0
  0
BLOCK_RECORD
  5
2728
330
266A
100
AcDbSymbolTableRecord
100
AcDbBlockTableRecord
  2
$PAPER_SPACE
340
0
  0
BLOCK_RECORD
  5
272A
330
266A
100
AcDbSymbolTableRecord
100
AcDbBlockTableRecord
  2
_ORIGIN
340
0
  0
BLOCK_RECORD
  5
272C
330
266A
100
AcDbSymbolTableRecord
100
AcDbBlockTableRecord
  2
_DOTBLANK
340
0
102
{BLKREFS
331
1299
331
129A
331
11AA
331
11AB
331
E80
331
E81
331
1123
331
1124
331
11C2
331
11C3
331
11EC
331
11ED
331
11F9
331
11FA
331
1287
331
1288
331
1417
331
1418
331
1423
331
1424
331
142F
331
1430
331
143B
331
143C
331
166E
331
166F
331
1677
331
1678
331
1680
331
1681
331
1689
331
168A
331
1696
331
1697
331
16A3
331
16A4
331
16AF
331
16B0
331
16BB
331
16BC
331
16C7
331
16C8
331
16D3
331
16D4
331
1D86
331
1D87
331
1D8F
331
1D90
331
1D98
331
1D99
331
1DA1
331
1DA2
331
1DAB
331
1DAC
331
1DB5
331
1DB6
331
2614
331
2615
331
2619
331
261A
331
261E
331
261F
331
2623
331
2624
331
2628
331
2629
102
}
  0
BLOCK_RECORD
  5
272E
330
266A
100
AcDbSymbolTableRecord
100
AcDbBlockTableRecord
  2
_OPEN30
340
0
102
{BLKREFS
331
2088
331
25A0
102
}
  0
BLOCK_RECORD
  5
2730
330
266A
100
AcDbSymbolTableRecord
100
AcDbBlockTableRecord
  2
*D5
340
0
  0
BLOCK_RECORD
  5
2732
330
266A
100
AcDbSymbolTableRecord
100
AcDbBlockTableRecord
  2
*U6
340
0
102
{BLKREFS
331
129B
102
}
  0
BLOCK_RECORD
  5
2734
330
266A
100
AcDbSymbolTableRecord
100
AcDbBlockTableRecord
  2
*D7
340
0
  0
BLOCK_RECORD
  5
2736
330
266A
100
AcDbSymbolTableRecord
100
AcDbBlockTableRecord
  2
*U8
340
0
102
{BLKREFS
331
11AC
102
}
  0
BLOCK_RECORD
  5
2738
330
266A
100
AcDbSymbolTableRecord
100
AcDbBlockTableRecord
  2
*D9
340
0
  0
BLOCK_RECORD
  5
273A
330
266A
100
AcDbSymbolTableRecord
100
AcDbBlockTableRecord
  2
*U10
340
0
102
{BLKREFS
331
E82
102
}
  0
BLOCK_RECORD
  5
273C
330
266A
100
AcDbSymbolTableRecord
100
AcDbBlockTableRecord
  2
GENAXEH
340
0
  0
BLOCK_RECORD
  5
273E
330
266A
100
AcDbSymbolTableRecord
100
AcDbBlockTableRecord
  2
*D12
340
0
  0
BLOCK_RECORD
  5
2740
330
266A
100
AcDbSymbolTableRecord
100
AcDbBlockTableRecord
  2
*U13
340
0
102
{BLKREFS
331
1125
102
}
  0
BLOCK_RECORD
  5
2742
330
266A
100
AcDbSymbolTableRecord
100
AcDbBlockTableRecord
  2
*D14
340
0
  0
BLOCK_RECORD
  5
2744
330
266A
100
AcDbSymbolTableRecord
100
AcDbBlockTableRecord
  2
*U15
340
0
102
{BLKREFS
331
11C4
102
}
  0
BLOCK_RECORD
  5
2746
330
266A
100
AcDbSymbolTableRecord
100
AcDbBlockTableRecord
  2
*D16
340
0
  0
BLOCK_RECORD
  5
2748
330
266A
100
AcDbSymbolTableRecord
100
AcDbBlockTableRecord
  2
*U17
340
0
102
{BLKREFS
331
11EE
102
}
  0
BLOCK_RECORD
  5
274A
330
266A
100
AcDbSymbolTableRecord
100
AcDbBlockTableRecord
  2
*D18
340
0
  0
BLOCK_RECORD
  5
274C
330
266A
100
AcDbSymbolTableRecord
100
AcDbBlockTableRecord
  2
*U19
340
0
102
{BLKREFS
331
11FB
102
}
  0
BLOCK_RECORD
  5
274E
330
266A
100
AcDbSymbolTableRecord
100
AcDbBlockTableRecord
  2
*D20
340
0
  0
BLOCK_RECORD
  5
2750
330
266A
100
AcDbSymbolTableRecord
100
AcDbBlockTableRecord
  2
*U21
340
0
102
{BLKREFS
331
1289
102
}
  0
BLOCK_RECORD
  5
2752
330
266A
100
AcDbSymbolTableRecord
100
AcDbBlockTableRecord
  2
*D22
340
0
  0
BLOCK_RECORD
  5
2754
330
266A
100
AcDbSymbolTableRecord
100
AcDbBlockTableRecord
  2
*U23
340
0
102
{BLKREFS
331
1419
102
}
  0
BLOCK_RECORD
  5
2756
330
266A
100
AcDbSymbolTableRecord
100
AcDbBlockTableRecord
  2
*D24
340
0
  0
BLOCK_RECORD
  5
2758
330
266A
100
AcDbSymbolTableRecord
100
AcDbBlockTableRecord
  2
*U25
340
0
102
{BLKREFS
331
1425
102
}
  0
BLOCK_RECORD
  5
275A
330
266A
100
AcDbSymbolTableRecord
100
AcDbBlockTableRecord
  2
*D26
340
0
  0
BLOCK_RECORD
  5
275C
330
266A
100
AcDbSymbolTableRecord
100
AcDbBlockTableRecord
  2
*U27
340
0
102
{BLKREFS
331
1431
102
}
  0
BLOCK_RECORD
  5
275E
330
266A
100
AcDbSymbolTableRecord
100
AcDbBlockTableRecord
  2
*D28
340
0
  0
BLOCK_RECORD
  5
2760
330
266A
100
AcDbSymbolTableRecord
100
AcDbBlockTableRecord
  2
*U29
340
0
102
{BLKREFS
331
143D
102
}
  0
BLOCK_RECORD
  5
2762
330
266A
100
AcDbSymbolTableRecord
100
AcDbBlockTableRecord
  2
*D30
340
0
  0
BLOCK_RECORD
  5
2764
330
266A
100
AcDbSymbolTableRecord
100
AcDbBlockTableRecord
  2
*U31
340
0
102
{BLKREFS
331
1670
102
}
  0
BLOCK_RECORD
  5
2766
330
266A
100
AcDbSymbolTableRecord
100
AcDbBlockTableRecord
  2
*D32
340
0
  0
BLOCK_RECORD
  5
2768
330
266A
100
AcDbSymbolTableRecord
100
AcDbBlockTableRecord
  2
*U33
340
0
102
{BLKREFS
331
1679
102
}
  0
BLOCK_RECORD
  5
276A
330
266A
100
AcDbSymbolTableRecord
100
AcDbBlockTableRecord
  2
*D34
340
0
  0
BLOCK_RECORD
  5
276C
330
266A
100
AcDbSymbolTableRecord
100
AcDbBlockTableRecord
  2
*U35
340
0
102
{BLKREFS
331
1682
102
}
  0
BLOCK_RECORD
  5
276E
330
266A
100
AcDbSymbolTableRecord
100
AcDbBlockTableRecord
  2
*D36
340
0
  0
BLOCK_RECORD
  5
2770
330
266A
100
AcDbSymbolTableRecord
100
AcDbBlockTableRecord
  2
*U37
340
0
102
{BLKREFS
331
168B
102
}
  0
BLOCK_RECORD
  5
2772
330
266A
100
AcDbSymbolTableRecord
100
AcDbBlockTableRecord
  2
*U38
340
0
  0
BLOCK_RECORD
  5
2774
330
266A
100
AcDbSymbolTableRecord
100
AcDbBlockTableRecord
  2
*D39
340
0
  0
BLOCK_RECORD
  5
2776
330
266A
100
AcDbSymbolTableRecord
100
AcDbBlockTableRecord
  2
*U40
340
0
102
{BLKREFS
331
1698
102
}
  0
BLOCK_RECORD
  5
2778
330
266A
100
AcDbSymbolTableRecord
100
AcDbBlockTableRecord
  2
*D41
340
0
  0
BLOCK_RECORD
  5
277A
330
266A
100
AcDbSymbolTableRecord
100
AcDbBlockTableRecord
  2
*U42
340
0
102
{BLKREFS
331
16A5
102
}
  0
BLOCK_RECORD
  5
277C
330
266A
100
AcDbSymbolTableRecord
100
AcDbBlockTableRecord
  2
*D43
340
0
  0
BLOCK_RECORD
  5
277E
330
266A
100
AcDbSymbolTableRecord
100
AcDbBlockTableRecord
  2
*U44
340
0
102
{BLKREFS
331
16B1
102
}
  0
BLOCK_RECORD
  5
2780
330
266A
100
AcDbSymbolTableRecord
100
AcDbBlockTableRecord
  2
*D45
340
0
  0
BLOCK_RECORD
  5
2782
330
266A
100
AcDbSymbolTableRecord
100
AcDbBlockTableRecord
  2
*U46
340
0
102
{BLKREFS
331
16BD
102
}
  0
BLOCK_RECORD
  5
2784
330
266A
100
AcDbSymbolTableRecord
100
AcDbBlockTableRecord
  2
*D47
340
0
  0
BLOCK_RECORD
  5
2786
330
266A
100
AcDbSymbolTableRecord
100
AcDbBlockTableRecord
  2
*U48
340
0
102
{BLKREFS
331
16C9
102
}
  0
BLOCK_RECORD
  5
2788
330
266A
100
AcDbSymbolTableRecord
100
AcDbBlockTableRecord
  2
*D49
340
0
  0
BLOCK_RECORD
  5
278A
330
266A
100
AcDbSymbolTableRecord
100
AcDbBlockTableRecord
  2
*U50
340
0
102
{BLKREFS
331
16D5
102
}
  0
BLOCK_RECORD
  5
278C
330
266A
100
AcDbSymbolTableRecord
100
AcDbBlockTableRecord
  2
*D51
340
0
  0
BLOCK_RECORD
  5
278E
330
266A
100
AcDbSymbolTableRecord
100
AcDbBlockTableRecord
  2
*U52
340
0
102
{BLKREFS
331
1D88
102
}
  0
BLOCK_RECORD
  5
2790
330
266A
100
AcDbSymbolTableRecord
100
AcDbBlockTableRecord
  2
*D53
340
0
  0
BLOCK_RECORD
  5
2792
330
266A
100
AcDbSymbolTableRecord
100
AcDbBlockTableRecord
  2
*U54
340
0
102
{BLKREFS
331
1D91
102
}
  0
BLOCK_RECORD
  5
2794
330
266A
100
AcDbSymbolTableRecord
100
AcDbBlockTableRecord
  2
*D55
340
0
  0
BLOCK_RECORD
  5
2796
330
266A
100
AcDbSymbolTableRecord
100
AcDbBlockTableRecord
  2
*U56
340
0
102
{BLKREFS
331
1D9A
102
}
  0
BLOCK_RECORD
  5
2798
330
266A
100
AcDbSymbolTableRecord
100
AcDbBlockTableRecord
  2
*D57
340
0
  0
BLOCK_RECORD
  5
279A
330
266A
100
AcDbSymbolTableRecord
100
AcDbBlockTableRecord
  2
*U58
340
0
102
{BLKREFS
331
1DA3
102
}
  0
BLOCK_RECORD
  5
279C
330
266A
100
AcDbSymbolTableRecord
100
AcDbBlockTableRecord
  2
*D59
340
0
  0
BLOCK_RECORD
  5
279E
330
266A
100
AcDbSymbolTableRecord
100
AcDbBlockTableRecord
  2
*U60
340
0
102
{BLKREFS
331
1DAD
102
}
  0
BLOCK_RECORD
  5
27A0
330
266A
100
AcDbSymbolTableRecord
100
AcDbBlockTableRecord
  2
*D61
340
0
  0
BLOCK_RECORD
  5
27A2
330
266A
100
AcDbSymbolTableRecord
100
AcDbBlockTableRecord
  2
*U62
340
0
102
{BLKREFS
331
1DB7
102
}
  0
BLOCK_RECORD
  5
27A4
330
266A
100
AcDbSymbolTableRecord
100
AcDbBlockTableRecord
  2
*U63
340
0
  0
BLOCK_RECORD
  5
27A6
330
266A
100
AcDbSymbolTableRecord
100
AcDbBlockTableRecord
  2
*U64
340
0
  0
BLOCK_RECORD
  5
27A8
330
266A
100
AcDbSymbolTableRecord
100
AcDbBlockTableRecord
  2
*U65
340
0
  0
BLOCK_RECORD
  5
27AA
330
266A
100
AcDbSymbolTableRecord
100
AcDbBlockTableRecord
  2
*U66
340
0
102
{BLKREFS
331
2604
102
}
  0
BLOCK_RECORD
  5
27AC
330
266A
100
AcDbSymbolTableRecord
100
AcDbBlockTableRecord
  2
*U67
340
0
102
{BLKREFS
331
2605
102
}
  0
ENDTAB
  0
ENDSEC
  0
SECTION
  2
BLOCKS
  0
BLOCK
  5
26DE
330
26DD
100
AcDbEntity
  8
0
100
AcDbBlockBegin
  2
*Model_Space
 70
     0
 10
0.0
 20
0.0
 30
0.0
  3
*Model_Space
  1

  0
ENDBLK
  5
26DF
330
26DD
100
AcDbEntity
  8
0
100
AcDbBlockEnd
  0
BLOCK
  5
26DA
330
26D9
100
AcDbEntity
 67
     1
  8
0
100
AcDbBlockBegin
  2
*Paper_Space
 70
     0
 10
0.0
 20
0.0
 30
0.0
  3
*Paper_Space
  1

  0
ENDBLK
  5
26DB
330
26D9
100
AcDbEntity
 67
     1
  8
0
100
AcDbBlockEnd
  0
BLOCK
  5
2727
330
2726
100
AcDbEntity
  8
0
100
AcDbBlockBegin
  2
$MODEL_SPACE
 70
     0
 10
0.0
 20
0.0
 30
0.0
  3
$MODEL_SPACE
  1

  0
ENDBLK
  5
23F8
330
2726
100
AcDbEntity
  8
0
100
AcDbBlockEnd
  0
BLOCK
  5
2729
330
2728
100
AcDbEntity
  8
0
100
AcDbBlockBegin
  2
$PAPER_SPACE
 70
     0
 10
0.0
 20
0.0
 30
0.0
  3
$PAPER_SPACE
  1

  0
ENDBLK
  5
23F4
330
2728
100
AcDbEntity
  8
0
100
AcDbBlockEnd
  0
BLOCK
  5
272B
330
272A
100
AcDbEntity
  8
0
100
AcDbBlockBegin
  2
_ORIGIN
 70
     0
 10
0.0
 20
0.0
 30
0.0
  3
_ORIGIN
  1

  0
CIRCLE
  5
880
330
272A
100
AcDbEntity
  8
0
  6
Continuous
 62
     7
100
AcDbCircle
 10
0.0
 20
0.0
 30
0.0
 40
0.5
  0
LINE
  5
881
330
272A
100
AcDbEntity
  8
0
  6
Continuous
 62
     7
100
AcDbLine
 10
0.0
 20
0.0
 30
0.0
 11
-1.0
 21
0.0
 31
0.0
  0
ENDBLK
  5
882
330
272A
100
AcDbEntity
  8
0
100
AcDbBlockEnd
  0
BLOCK
  5
272D
330
272C
100
AcDbEntity
  8
0
 62
     1
100
AcDbBlockBegin
  2
_DOTBLANK
 70
     0
 10
0.0
 20
0.0
 30
0.0
  3
_DOTBLANK
  1

  0
CIRCLE
  5
AB3
330
272C
100
AcDbEntity
  8
0
  6
ByBlock
 62
     0
100
AcDbCircle
 10
0.0
 20
0.0
 30
0.0
 40
0.5
  0
LINE
  5
AB4
330
272C
100
AcDbEntity
  8
0
  6
ByBlock
 62
     0
100
AcDbLine
 10
-0.5
 20
0.0
 30
0.0
 11
-1.0
 21
0.0
 31
0.0
  0
ENDBLK
  5
AB6
330
272C
100
AcDbEntity
  8
0
 62
     1
100
AcDbBlockEnd
  0
BLOCK
  5
272F
330
272E
100
AcDbEntity
  8
0
 62
     1
100
AcDbBlockBegin
  2
_OPEN30
 70
     0
 10
0.0
 20
0.0
 30
0.0
  3
_OPEN30
  1

  0
LINE
  5
AB8
330
272E
100
AcDbEntity
  8
0
  6
ByBlock
 62
     0
100
AcDbLine
 10
-1.0
 20
0.26794919
 30
0.0
 11
0.0
 21
0.0
 31
0.0
  0
LINE
  5
AB9
330
272E
100
AcDbEntity
  8
0
  6
ByBlock
 62
     0
100
AcDbLine
 10
0.0
 20
0.0
 30
0.0
 11
-1.0
 21
-0.26794919
 31
0.0
  0
LINE
  5
ABA
330
272E
100
AcDbEntity
  8
0
  6
ByBlock
 62
     0
100
AcDbLine
 10
0.0
 20
0.0
 30
0.0
 11
-1.0
 21
0.0
 31
0.0
  0
ENDBLK
  5
ABC
330
272E
100
AcDbEntity
  8
0
 62
     1
100
AcDbBlockEnd
  0
BLOCK
  5
2731
330
2730
100
AcDbEntity
  8
0
100
AcDbBlockBegin
  2
*D5
 70
     1
 10
0.0
 20
0.0
 30
0.0
  3
*D5
  1

  0
LINE
  5
1296
330
2730
100
AcDbEntity
  8
SIZE
 62
     0
100
AcDbLine
 10
-134.5
 20
-320.0
 30
0.0
 11
-134.5
 21
-468.0173952306001
 31
0.0
  0
LINE
  5
1297
330
2730
100
AcDbEntity
  8
SIZE
 62
     0
100
AcDbLine
 10
134.5
 20
-320.0
 30
0.0
 11
134.5
 21
-468.0173952306001
 31
0.0
  0
LINE
  5
1298
330
2730
100
AcDbEntity
  8
SIZE
 62
     0
100
AcDbLine
 10
-122.5
 20
-448.0173952306
 30
0.0
 11
122.5
 21
-448.0173952306
 31
0.0
  0
INSERT
  5
1299
330
2730
100
AcDbEntity
  8
SIZE
 62
     0
100
AcDbBlockReference
  2
_DOTBLANK
 10
-134.5
 20
-448.0173952306
 30
0.0
 41
12.0
 42
12.0
 43
12.0
 50
180.0
  0
INSERT
  5
129A
330
2730
100
AcDbEntity
  8
SIZE
 62
     0
100
AcDbBlockReference
  2
_DOTBLANK
 10
134.5
 20
-448.0173952306
 30
0.0
 41
12.0
 42
12.0
 43
12.0
  0
INSERT
  5
129B
330
2730
100
AcDbEntity
  8
0
100
AcDbBlockReference
  2
*U6
 10
0.0
 20
0.0
 30
0.0
  0
POINT
  5
129C
330
2730
100
AcDbEntity
  8
DEFPOINTS
 62
     0
100
AcDbPoint
 10
-134.5
 20
-300.0
 30
0.0
  0
POINT
  5
129D
330
2730
100
AcDbEntity
  8
DEFPOINTS
 62
     0
100
AcDbPoint
 10
134.5
 20
-300.0
 30
0.0
  0
POINT
  5
129E
330
2730
100
AcDbEntity
  8
DEFPOINTS
 62
     0
100
AcDbPoint
 10
134.5
 20
-448.0173952306
 30
0.0
  0
ENDBLK
  5
D72
330
2730
100
AcDbEntity
  8
0
100
AcDbBlockEnd
  0
BLOCK
  5
2733
330
2732
100
AcDbEntity
  8
0
100
AcDbBlockBegin
  2
*U6
 70
     1
 10
0.0
 20
0.0
 30
0.0
  3
*U6
  1

  0
TEXT
  5
1EF5
330
2732
100
AcDbEntity
  8
SIZE
 62
     0
100
AcDbText
 10
-72.68571428571426
 20
-438.0173952305999
 30
0.0
 40
64.0
  1
269
 41
0.9
100
AcDbText
  0
ENDBLK
  5
1EF7
330
2732
100
AcDbEntity
  8
0
100
AcDbBlockEnd
  0
BLOCK
  5
2735
330
2734
100
AcDbEntity
  8
0
100
AcDbBlockBegin
  2
*D7
 70
     1
 10
0.0
 20
0.0
 30
0.0
  3
*D7
  1

  0
LINE
  5
11A7
330
2734
100
AcDbEntity
  8
SIZE
  6
Continuous
 62
     0
100
AcDbLine
 10
143.5
 20
-300.0
 30
0.0
 11
304.6432844803791
 21
-300.0
 31
0.0
  0
LINE
  5
11A8
330
2734
100
AcDbEntity
  8
SIZE
  6
Continuous
 62
     0
100
AcDbLine
 10
177.5
 20
-0.0000000000000057
 30
0.0
 11
304.6432844803792
 21
-0.0000000000000417
 31
0.0
  0
LINE
  5
11A9
330
2734
100
AcDbEntity
  8
SIZE
  6
Continuous
 62
     0
100
AcDbLine
 10
284.6432844803791
 20
-288.0000000000001
 30
0.0
 11
284.6432844803792
 21
-12.00000000000003
 31
0.0
  0
INSERT
  5
11AA
330
2734
100
AcDbEntity
  8
SIZE
  6
Continuous
 62
     0
100
AcDbBlockReference
  2
_DOTBLANK
 10
284.6432844803791
 20
-300.0
 30
0.0
 41
12.0
 42
12.0
 43
12.0
 50
270.0
  0
INSERT
  5
11AB
330
2734
100
AcDbEntity
  8
SIZE
  6
Continuous
 62
     0
100
AcDbBlockReference
  2
_DOTBLANK
 10
284.6432844803792
 20
-0.000000000000036
 30
0.0
 41
12.0
 42
12.0
 43
12.0
 50
90.0
  0
INSERT
  5
11AC
330
2734
100
AcDbEntity
  8
0
100
AcDbBlockReference
  2
*U8
 10
0.0
 20
0.0
 30
0.0
  0
POINT
  5
11AD
330
2734
100
AcDbEntity
  8
DEFPOINTS
  6
Continuous
 62
     0
100
AcDbPoint
 10
123.5
 20
-300.0
 30
0.0
  0
POINT
  5
11AE
330
2734
100
AcDbEntity
  8
DEFPOINTS
  6
Continuous
 62
     0
100
AcDbPoint
 10
157.5
 20
0.0
 30
0.0
  0
POINT
  5
11AF
330
2734
100
AcDbEntity
  8
DEFPOINTS
  6
Continuous
 62
     0
100
AcDbPoint
 10
284.6432844803792
 20
-0.000000000000036
 30
0.0
  0
ENDBLK
  5
E11
330
2734
100
AcDbEntity
  8
0
100
AcDbBlockEnd
  0
BLOCK
  5
2737
330
2736
100
AcDbEntity
  8
0
100
AcDbBlockBegin
  2
*U8
 70
     1
 10
0.0
 20
0.0
 30
0.0
  3
*U8
  1

  0
TEXT
  5
1EE1
330
2736
100
AcDbEntity
  8
SIZE
 62
     0
100
AcDbText
 10
274.6432844803792
 20
-224.0571428571429
 30
0.0
 40
64.0
  1
300
 50
90.0
 41
0.9
100
AcDbText
  0
ENDBLK
  5
1EE3
330
2736
100
AcDbEntity
  8
0
100
AcDbBlockEnd
  0
BLOCK
  5
2739
330
2738
100
AcDbEntity
  8
0
100
AcDbBlockBegin
  2
*D9
 70
     1
 10
0.0
 20
0.0
 30
0.0
  3
*D9
  1

  0
LINE
  5
E7D
330
2738
100
AcDbEntity
  8
SIZE
 62
     0
100
AcDbLine
 10
-139.9999999999998
 20
32.46448280219375
 30
0.0
 11
-139.9999999999998
 21
136.4516878685508
 31
0.0
  0
LINE
  5
E7E
330
2738
100
AcDbEntity
  8
SIZE
 62
     0
100
AcDbLine
 10
140.0
 20
32.46448280219375
 30
0.0
 11
140.0
 21
136.4516878685508
 31
0.0
  0
LINE
  5
E7F
330
2738
100
AcDbEntity
  8
SIZE
 62
     0
100
AcDbLine
 10
-128.0
 20
116.4516878685508
 30
0.0
 11
128.0
 21
116.4516878685508
 31
0.0
  0
INSERT
  5
E80
330
2738
100
AcDbEntity
  8
SIZE
 62
     0
100
AcDbBlockReference
  2
_DOTBLANK
 10
-139.9999999999998
 20
116.4516878685508
 30
0.0
 41
12.0
 42
12.0
 43
12.0
 50
180.0
  0
INSERT
  5
E81
330
2738
100
AcDbEntity
  8
SIZE
 62
     0
100
AcDbBlockReference
  2
_DOTBLANK
 10
140.0
 20
116.4516878685508
 30
0.0
 41
12.0
 42
12.0
 43
12.0
  0
INSERT
  5
E82
330
2738
100
AcDbEntity
  8
0
100
AcDbBlockReference
  2
*U10
 10
0.0
 20
0.0
 30
0.0
  0
POINT
  5
E83
330
2738
100
AcDbEntity
  8
DEFPOINTS
 62
     0
100
AcDbPoint
 10
-139.9999999999998
 20
12.46448280219374
 30
0.0
  0
POINT
  5
E84
330
2738
100
AcDbEntity
  8
DEFPOINTS
 62
     0
100
AcDbPoint
 10
140.0
 20
12.46448280219374
 30
0.0
  0
POINT
  5
E85
330
2738
100
AcDbEntity
  8
DEFPOINTS
 62
     0
100
AcDbPoint
 10
140.0
 20
116.4516878685508
 30
0.0
  0
ENDBLK
  5
E7C
330
2738
100
AcDbEntity
  8
0
100
AcDbBlockEnd
  0
BLOCK
  5
273B
330
273A
100
AcDbEntity
  8
0
100
AcDbBlockBegin
  2
*U10
 70
     1
 10
0.0
 20
0.0
 30
0.0
  3
*U10
  1

  0
TEXT
  5
1ED8
330
273A
100
AcDbEntity
  8
SIZE
 62
     0
100
AcDbText
 10
-74.05714285714281
 20
126.4516878685508
 30
0.0
 40
64.0
  1
280
 41
0.9
100
AcDbText
  0
ENDBLK
  5
1EDA
330
273A
100
AcDbEntity
  8
0
100
AcDbBlockEnd
  0
BLOCK
  5
273D
330
273C
100
AcDbEntity
  8
0
100
AcDbBlockBegin
  2
GENAXEH
 70
     0
 10
0.0
 20
0.0
 30
0.0
  3
GENAXEH
  1

  0
LINE
  5
FDB
330
273C
100
AcDbEntity
  8
0
100
AcDbLine
 10
-1.0
 20
0.0
 30
0.0
 11
1.0
 21
0.0
 31
0.0
  0
ENDBLK
  5
FDD
330
273C
100
AcDbEntity
  8
0
100
AcDbBlockEnd
  0
BLOCK
  5
273F
330
273E
100
AcDbEntity
  8
0
100
AcDbBlockBegin
  2
*D12
 70
     1
 10
0.0
 20
0.0
 30
0.0
  3
*D12
  1

  0
LINE
  5
1120
330
273E
100
AcDbEntity
  8
SIZE
 62
     0
100
AcDbLine
 10
-157.5
 20
20.0
 30
0.0
 11
-157.5
 21
245.5794621189598
 31
0.0
  0
LINE
  5
1121
330
273E
100
AcDbEntity
  8
SIZE
 62
     0
100
AcDbLine
 10
157.5
 20
20.0
 30
0.0
 11
157.5
 21
245.5794621189598
 31
0.0
  0
LINE
  5
1122
330
273E
100
AcDbEntity
  8
SIZE
 62
     0
100
AcDbLine
 10
-145.5
 20
225.5794621189598
 30
0.0
 11
145.5
 21
225.5794621189598
 31
0.0
  0
INSERT
  5
1123
330
273E
100
AcDbEntity
  8
SIZE
 62
     0
100
AcDbBlockReference
  2
_DOTBLANK
 10
-157.5
 20
225.5794621189598
 30
0.0
 41
12.0
 42
12.0
 43
12.0
 50
180.0
  0
INSERT
  5
1124
330
273E
100
AcDbEntity
  8
SIZE
 62
     0
100
AcDbBlockReference
  2
_DOTBLANK
 10
157.5
 20
225.5794621189598
 30
0.0
 41
12.0
 42
12.0
 43
12.0
  0
INSERT
  5
1125
330
273E
100
AcDbEntity
  8
0
100
AcDbBlockReference
  2
*U13
 10
0.0
 20
0.0
 30
0.0
  0
POINT
  5
1126
330
273E
100
AcDbEntity
  8
DEFPOINTS
 62
     0
100
AcDbPoint
 10
-157.5
 20
0.0
 30
0.0
  0
POINT
  5
1127
330
273E
100
AcDbEntity
  8
DEFPOINTS
 62
     0
100
AcDbPoint
 10
157.5
 20
0.0
 30
0.0
  0
POINT
  5
1128
330
273E
100
AcDbEntity
  8
DEFPOINTS
 62
     0
100
AcDbPoint
 10
157.5
 20
225.5794621189598
 30
0.0
  0
ENDBLK
  5
111F
330
273E
100
AcDbEntity
  8
0
100
AcDbBlockEnd
  0
BLOCK
  5
2741
330
2740
100
AcDbEntity
  8
0
100
AcDbBlockBegin
  2
*U13
 70
     1
 10
0.0
 20
0.0
 30
0.0
  3
*U13
  1

  0
TEXT
  5
1EDD
330
2740
100
AcDbEntity
  8
SIZE
 62
     0
100
AcDbText
 10
-68.57142857142857
 20
235.5794621189599
 30
0.0
 40
64.0
  1
315
 41
0.9
100
AcDbText
  0
ENDBLK
  5
1EDF
330
2740
100
AcDbEntity
  8
0
100
AcDbBlockEnd
  0
BLOCK
  5
2743
330
2742
100
AcDbEntity
  8
0
100
AcDbBlockBegin
  2
*D14
 70
     1
 10
0.0
 20
0.0
 30
0.0
  3
*D14
  1

  0
LINE
  5
11BD
330
2742
100
AcDbEntity
  8
NOTE
 62
     0
100
AcDbLine
 10
-123.4999999999999
 20
-320.0
 30
0.0
 11
-123.4999999999999
 21
-354.9529861856111
 31
0.0
  0
LINE
  5
11BE
330
2742
100
AcDbEntity
  8
NOTE
 62
     0
100
AcDbLine
 10
-133.4999999999998
 20
-331.2126909923287
 30
0.0
 11
-133.4999999999998
 21
-354.9529861856111
 31
0.0
  0
LINE
  5
11BF
330
2742
100
AcDbEntity
  8
NOTE
 62
     0
100
AcDbLine
 10
-111.4999999999999
 20
-334.9529861856112
 30
0.0
 11
-99.4999999999999
 21
-334.9529861856112
 31
0.0
  0
LINE
  5
11C0
330
2742
100
AcDbEntity
  8
NOTE
 62
     0
100
AcDbLine
 10
-145.4999999999998
 20
-334.9529861856112
 30
0.0
 11
-157.4999999999998
 21
-334.9529861856112
 31
0.0
  0
LINE
  5
11C1
330
2742
100
AcDbEntity
  8
NOTE
 62
     0
100
AcDbLine
 10
-123.4999999999999
 20
-334.9529861856112
 30
0.0
 11
-133.4999999999998
 21
-334.9529861856112
 31
0.0
  0
INSERT
  5
11C2
330
2742
100
AcDbEntity
  8
NOTE
 62
     0
100
AcDbBlockReference
  2
_DOTBLANK
 10
-123.4999999999999
 20
-334.9529861856112
 30
0.0
 41
12.0
 42
12.0
 43
12.0
 50
180.0
  0
INSERT
  5
11C3
330
2742
100
AcDbEntity
  8
NOTE
 62
     0
100
AcDbBlockReference
  2
_DOTBLANK
 10
-133.4999999999998
 20
-334.9529861856112
 30
0.0
 41
12.0
 42
12.0
 43
12.0
  0
INSERT
  5
11C4
330
2742
100
AcDbEntity
  8
0
100
AcDbBlockReference
  2
*U15
 10
0.0
 20
0.0
 30
0.0
  0
POINT
  5
11C5
330
2742
100
AcDbEntity
  8
DEFPOINTS
 62
     0
100
AcDbPoint
 10
-123.4999999999999
 20
-300.0
 30
0.0
  0
POINT
  5
11C6
330
2742
100
AcDbEntity
  8
DEFPOINTS
 62
     0
100
AcDbPoint
 10
-133.4999999999998
 20
-311.2126909923287
 30
0.0
  0
POINT
  5
11C7
330
2742
100
AcDbEntity
  8
DEFPOINTS
 62
     0
100
AcDbPoint
 10
-133.4999999999998
 20
-334.9529861856112
 30
0.0
  0
ENDBLK
  5
11BC
330
2742
100
AcDbEntity
  8
0
100
AcDbBlockEnd
  0
BLOCK
  5
2745
330
2744
100
AcDbEntity
  8
0
100
AcDbBlockBegin
  2
*U15
 70
     1
 10
0.0
 20
0.0
 30
0.0
  3
*U15
  1

  0
TEXT
  5
1EE5
330
2744
100
AcDbEntity
  8
NOTE
 62
     0
100
AcDbText
 10
-169.642857142857
 20
-324.9529861856112
 30
0.0
 40
64.0
  1
10
 41
0.9
100
AcDbText
  0
ENDBLK
  5
1EE7
330
2744
100
AcDbEntity
  8
0
100
AcDbBlockEnd
  0
BLOCK
  5
2747
330
2746
100
AcDbEntity
  8
0
100
AcDbBlockBegin
  2
*D16
 70
     1
 10
0.0
 20
0.0
 30
0.0
  3
*D16
  1

  0
LINE
  5
11E7
330
2746
100
AcDbEntity
  8
NOTE
 62
     0
100
AcDbLine
 10
-135.5
 20
-333.2126909923287
 30
0.0
 11
-135.5
 21
-386.2569421441843
 31
0.0
  0
LINE
  5
11E8
330
2746
100
AcDbEntity
  8
NOTE
 62
     0
100
AcDbLine
 10
-123.4999999999999
 20
-320.0
 30
0.0
 11
-123.4999999999999
 21
-386.2569421441843
 31
0.0
  0
LINE
  5
11E9
330
2746
100
AcDbEntity
  8
NOTE
 62
     0
100
AcDbLine
 10
-147.5
 20
-366.2569421441844
 30
0.0
 11
-159.5
 21
-366.2569421441844
 31
0.0
  0
LINE
  5
11EA
330
2746
100
AcDbEntity
  8
NOTE
 62
     0
100
AcDbLine
 10
-111.4999999999999
 20
-366.2569421441844
 30
0.0
 11
-99.4999999999999
 21
-366.2569421441844
 31
0.0
  0
LINE
  5
11EB
330
2746
100
AcDbEntity
  8
NOTE
 62
     0
100
AcDbLine
 10
-135.5
 20
-366.2569421441844
 30
0.0
 11
-123.4999999999999
 21
-366.2569421441844
 31
0.0
  0
INSERT
  5
11EC
330
2746
100
AcDbEntity
  8
NOTE
 62
     0
100
AcDbBlockReference
  2
_DOTBLANK
 10
-135.5
 20
-366.2569421441844
 30
0.0
 41
12.0
 42
12.0
 43
12.0
  0
INSERT
  5
11ED
330
2746
100
AcDbEntity
  8
NOTE
 62
     0
100
AcDbBlockReference
  2
_DOTBLANK
 10
-123.4999999999999
 20
-366.2569421441844
 30
0.0
 41
12.0
 42
12.0
 43
12.0
 50
180.0
  0
INSERT
  5
11EE
330
2746
100
AcDbEntity
  8
0
100
AcDbBlockReference
  2
*U17
 10
0.0
 20
0.0
 30
0.0
  0
POINT
  5
11EF
330
2746
100
AcDbEntity
  8
DEFPOINTS
 62
     0
100
AcDbPoint
 10
-135.5
 20
-313.2126909923287
 30
0.0
  0
POINT
  5
11F0
330
2746
100
AcDbEntity
  8
DEFPOINTS
 62
     0
100
AcDbPoint
 10
-123.4999999999999
 20
-300.0
 30
0.0
  0
POINT
  5
11F1
330
2746
100
AcDbEntity
  8
DEFPOINTS
 62
     0
100
AcDbPoint
 10
-123.4999999999999
 20
-366.2569421441844
 30
0.0
  0
ENDBLK
  5
11E6
330
2746
100
AcDbEntity
  8
0
100
AcDbBlockEnd
  0
BLOCK
  5
2749
330
2748
100
AcDbEntity
  8
0
100
AcDbBlockBegin
  2
*U17
 70
     1
 10
0.0
 20
0.0
 30
0.0
  3
*U17
  1

  0
TEXT
  5
1EE9
330
2748
100
AcDbEntity
  8
NOTE
 62
     0
100
AcDbText
 10
-170.642857142857
 20
-356.2569421441843
 30
0.0
 40
64.0
  1
12
 41
0.9
100
AcDbText
  0
ENDBLK
  5
1EEB
330
2748
100
AcDbEntity
  8
0
100
AcDbBlockEnd
  0
BLOCK
  5
274B
330
274A
100
AcDbEntity
  8
0
100
AcDbBlockBegin
  2
*D18
 70
     1
 10
0.0
 20
0.0
 30
0.0
  3
*D18
  1

  0
LINE
  5
11F6
330
274A
100
AcDbEntity
  8
NOTE
 62
     0
100
AcDbLine
 10
-123.4999999999999
 20
-320.0
 30
0.0
 11
-123.4999999999999
 21
-583.8286022818904
 31
0.0
  0
LINE
  5
11F7
330
274A
100
AcDbEntity
  8
NOTE
 62
     0
100
AcDbLine
 10
123.5
 20
-320.0
 30
0.0
 11
123.5
 21
-583.8286022818904
 31
0.0
  0
LINE
  5
11F8
330
274A
100
AcDbEntity
  8
NOTE
 62
     0
100
AcDbLine
 10
-111.4999999999999
 20
-563.8286022818904
 30
0.0
 11
111.5
 21
-563.8286022818904
 31
0.0
  0
INSERT
  5
11F9
330
274A
100
AcDbEntity
  8
NOTE
 62
     0
100
AcDbBlockReference
  2
_DOTBLANK
 10
-123.4999999999999
 20
-563.8286022818904
 30
0.0
 41
12.0
 42
12.0
 43
12.0
 50
180.0
  0
INSERT
  5
11FA
330
274A
100
AcDbEntity
  8
NOTE
 62
     0
100
AcDbBlockReference
  2
_DOTBLANK
 10
123.5
 20
-563.8286022818904
 30
0.0
 41
12.0
 42
12.0
 43
12.0
  0
INSERT
  5
11FB
330
274A
100
AcDbEntity
  8
0
100
AcDbBlockReference
  2
*U19
 10
0.0
 20
0.0
 30
0.0
  0
POINT
  5
11FC
330
274A
100
AcDbEntity
  8
DEFPOINTS
 62
     0
100
AcDbPoint
 10
-123.4999999999999
 20
-300.0
 30
0.0
  0
POINT
  5
11FD
330
274A
100
AcDbEntity
  8
DEFPOINTS
 62
     0
100
AcDbPoint
 10
123.5
 20
-300.0
 30
0.0
  0
POINT
  5
11FE
330
274A
100
AcDbEntity
  8
DEFPOINTS
 62
     0
100
AcDbPoint
 10
123.5
 20
-563.8286022818904
 30
0.0
  0
ENDBLK
  5
11F5
330
274A
100
AcDbEntity
  8
0
100
AcDbBlockEnd
  0
BLOCK
  5
274D
330
274C
100
AcDbEntity
  8
0
100
AcDbBlockBegin
  2
*U19
 70
     1
 10
0.0
 20
0.0
 30
0.0
  3
*U19
  1

  0
TEXT
  5
1EED
330
274C
100
AcDbEntity
  8
NOTE
 62
     0
100
AcDbText
 10
-74.05714285714281
 20
-553.8286022818904
 30
0.0
 40
64.0
  1
247
 41
0.9
100
AcDbText
  0
ENDBLK
  5
1EEF
330
274C
100
AcDbEntity
  8
0
100
AcDbBlockEnd
  0
BLOCK
  5
274F
330
274E
100
AcDbEntity
  8
0
100
AcDbBlockBegin
  2
*D20
 70
     1
 10
0.0
 20
0.0
 30
0.0
  3
*D20
  1

  0
LINE
  5
1284
330
274E
100
AcDbEntity
  8
NOTE
 62
     0
100
AcDbLine
 10
-123.5
 20
12.0
 30
0.0
 11
-123.5
 21
71.83630134534229
 31
0.0
  0
LINE
  5
1285
330
274E
100
AcDbEntity
  8
NOTE
 62
     0
100
AcDbLine
 10
123.5
 20
12.0
 30
0.0
 11
123.5
 21
71.83630134534229
 31
0.0
  0
LINE
  5
1286
330
274E
100
AcDbEntity
  8
NOTE
 62
     0
100
AcDbLine
 10
-111.5
 20
51.83630134534229
 30
0.0
 11
111.5
 21
51.83630134534229
 31
0.0
  0
INSERT
  5
1287
330
274E
100
AcDbEntity
  8
NOTE
 62
     0
100
AcDbBlockReference
  2
_DOTBLANK
 10
-123.5
 20
51.83630134534229
 30
0.0
 41
12.0
 42
12.0
 43
12.0
 50
180.0
  0
INSERT
  5
1288
330
274E
100
AcDbEntity
  8
NOTE
 62
     0
100
AcDbBlockReference
  2
_DOTBLANK
 10
123.5
 20
51.83630134534229
 30
0.0
 41
12.0
 42
12.0
 43
12.0
  0
INSERT
  5
1289
330
274E
100
AcDbEntity
  8
0
100
AcDbBlockReference
  2
*U21
 10
0.0
 20
0.0
 30
0.0
  0
POINT
  5
128A
330
274E
100
AcDbEntity
  8
DEFPOINTS
 62
     0
100
AcDbPoint
 10
-123.5
 20
-8.0
 30
0.0
  0
POINT
  5
128B
330
274E
100
AcDbEntity
  8
DEFPOINTS
 62
     0
100
AcDbPoint
 10
123.5
 20
-8.0
 30
0.0
  0
POINT
  5
128C
330
274E
100
AcDbEntity
  8
DEFPOINTS
 62
     0
100
AcDbPoint
 10
123.5
 20
51.83630134534229
 30
0.0
  0
ENDBLK
  5
1283
330
274E
100
AcDbEntity
  8
0
100
AcDbBlockEnd
  0
BLOCK
  5
2751
330
2750
100
AcDbEntity
  8
0
100
AcDbBlockBegin
  2
*U21
 70
     1
 10
0.0
 20
0.0
 30
0.0
  3
*U21
  1

  0
TEXT
  5
1EF1
330
2750
100
AcDbEntity
  8
NOTE
 62
     0
100
AcDbText
 10
-74.05714285714283
 20
61.83630134534229
 30
0.0
 40
64.0
  1
247
 41
0.9
100
AcDbText
  0
ENDBLK
  5
1EF3
330
2750
100
AcDbEntity
  8
0
100
AcDbBlockEnd
  0
BLOCK
  5
2753
330
2752
100
AcDbEntity
  8
0
100
AcDbBlockBegin
  2
*D22
 70
     1
 10
0.0
 20
0.0
 30
0.0
  3
*D22
  1

  0
LINE
  5
1414
330
2752
100
AcDbEntity
  8
SIZE
 62
     0
100
AcDbLine
 10
-22313.11521613997
 20
7365.702971374808
 30
0.0
 11
-22313.11521613997
 21
7217.685576144207
 31
0.0
  0
LINE
  5
1415
330
2752
100
AcDbEntity
  8
SIZE
 62
     0
100
AcDbLine
 10
-22044.11521613997
 20
7365.702971374808
 30
0.0
 11
-22044.11521613997
 21
7217.685576144207
 31
0.0
  0
LINE
  5
1416
330
2752
100
AcDbEntity
  8
SIZE
 62
     0
100
AcDbLine
 10
-22301.11521613997
 20
7237.685576144207
 30
0.0
 11
-22056.11521613997
 21
7237.685576144207
 31
0.0
  0
INSERT
  5
1417
330
2752
100
AcDbEntity
  8
SIZE
 62
     0
100
AcDbBlockReference
  2
_DOTBLANK
 10
-22313.11521613997
 20
7237.685576144207
 30
0.0
 41
12.0
 42
12.0
 43
12.0
 50
180.0
  0
INSERT
  5
1418
330
2752
100
AcDbEntity
  8
SIZE
 62
     0
100
AcDbBlockReference
  2
_DOTBLANK
 10
-22044.11521613997
 20
7237.685576144207
 30
0.0
 41
12.0
 42
12.0
 43
12.0
  0
INSERT
  5
1419
330
2752
100
AcDbEntity
  8
0
100
AcDbBlockReference
  2
*U23
 10
0.0
 20
0.0
 30
0.0
  0
POINT
  5
141A
330
2752
100
AcDbEntity
  8
DEFPOINTS
 62
     0
100
AcDbPoint
 10
-22313.11521613997
 20
7385.702971374808
 30
0.0
  0
POINT
  5
141B
330
2752
100
AcDbEntity
  8
DEFPOINTS
 62
     0
100
AcDbPoint
 10
-22044.11521613997
 20
7385.702971374808
 30
0.0
  0
POINT
  5
141C
330
2752
100
AcDbEntity
  8
DEFPOINTS
 62
     0
100
AcDbPoint
 10
-22044.11521613997
 20
7237.685576144207
 30
0.0
  0
ENDBLK
  5
141D
330
2752
100
AcDbEntity
  8
0
100
AcDbBlockEnd
  0
BLOCK
  5
2755
330
2754
100
AcDbEntity
  8
0
100
AcDbBlockBegin
  2
*U23
 70
     1
 10
0.0
 20
0.0
 30
0.0
  3
*U23
  1

  0
TEXT
  5
1EF9
330
2754
100
AcDbEntity
  8
SIZE
 62
     0
100
AcDbText
 10
-22251.30093042568
 20
7247.685576144205
 30
0.0
 40
64.0
  1
269
 41
0.9
100
AcDbText
  0
ENDBLK
  5
1EFB
330
2754
100
AcDbEntity
  8
0
100
AcDbBlockEnd
  0
BLOCK
  5
2757
330
2756
100
AcDbEntity
  8
0
100
AcDbBlockBegin
  2
*D24
 70
     1
 10
0.0
 20
0.0
 30
0.0
  3
*D24
  1

  0
LINE
  5
1420
330
2756
100
AcDbEntity
  8
SIZE
  6
Continuous
 62
     0
100
AcDbLine
 10
-22035.11521613997
 20
7385.702971374808
 30
0.0
 11
-21873.97193165959
 21
7385.702971374808
 31
0.0
  0
LINE
  5
1421
330
2756
100
AcDbEntity
  8
SIZE
  6
Continuous
 62
     0
100
AcDbLine
 10
-22001.11521613997
 20
7685.702971374808
 30
0.0
 11
-21873.97193165959
 21
7685.702971374808
 31
0.0
  0
LINE
  5
1422
330
2756
100
AcDbEntity
  8
SIZE
  6
Continuous
 62
     0
100
AcDbLine
 10
-21893.97193165959
 20
7397.702971374808
 30
0.0
 11
-21893.97193165959
 21
7673.702971374808
 31
0.0
  0
INSERT
  5
1423
330
2756
100
AcDbEntity
  8
SIZE
  6
Continuous
 62
     0
100
AcDbBlockReference
  2
_DOTBLANK
 10
-21893.97193165959
 20
7385.702971374808
 30
0.0
 41
12.0
 42
12.0
 43
12.0
 50
270.0
  0
INSERT
  5
1424
330
2756
100
AcDbEntity
  8
SIZE
  6
Continuous
 62
     0
100
AcDbBlockReference
  2
_DOTBLANK
 10
-21893.97193165959
 20
7685.702971374808
 30
0.0
 41
12.0
 42
12.0
 43
12.0
 50
90.0
  0
INSERT
  5
1425
330
2756
100
AcDbEntity
  8
0
100
AcDbBlockReference
  2
*U25
 10
0.0
 20
0.0
 30
0.0
  0
POINT
  5
1426
330
2756
100
AcDbEntity
  8
DEFPOINTS
  6
Continuous
 62
     0
100
AcDbPoint
 10
-22055.11521613997
 20
7385.702971374808
 30
0.0
  0
POINT
  5
1427
330
2756
100
AcDbEntity
  8
DEFPOINTS
  6
Continuous
 62
     0
100
AcDbPoint
 10
-22021.11521613997
 20
7685.702971374808
 30
0.0
  0
POINT
  5
1428
330
2756
100
AcDbEntity
  8
DEFPOINTS
  6
Continuous
 62
     0
100
AcDbPoint
 10
-21893.97193165959
 20
7685.702971374808
 30
0.0
  0
ENDBLK
  5
1429
330
2756
100
AcDbEntity
  8
0
100
AcDbBlockEnd
  0
BLOCK
  5
2759
330
2758
100
AcDbEntity
  8
0
100
AcDbBlockBegin
  2
*U25
 70
     1
 10
0.0
 20
0.0
 30
0.0
  3
*U25
  1

  0
TEXT
  5
1EFD
330
2758
100
AcDbEntity
  8
SIZE
 62
     0
100
AcDbText
 10
-21903.97193165959
 20
7461.645828517662
 30
0.0
 40
64.0
  1
300
 50
90.0
 41
0.9
100
AcDbText
  0
ENDBLK
  5
1EFF
330
2758
100
AcDbEntity
  8
0
100
AcDbBlockEnd
  0
BLOCK
  5
275B
330
275A
100
AcDbEntity
  8
0
100
AcDbBlockBegin
  2
*D26
 70
     1
 10
0.0
 20
0.0
 30
0.0
  3
*D26
  1

  0
LINE
  5
142C
330
275A
100
AcDbEntity
  8
SIZE
 62
     0
100
AcDbLine
 10
-22318.61521613997
 20
7718.167454177002
 30
0.0
 11
-22318.61521613997
 21
7822.154659243358
 31
0.0
  0
LINE
  5
142D
330
275A
100
AcDbEntity
  8
SIZE
 62
     0
100
AcDbLine
 10
-22038.61521613997
 20
7718.167454177002
 30
0.0
 11
-22038.61521613997
 21
7822.154659243358
 31
0.0
  0
LINE
  5
142E
330
275A
100
AcDbEntity
  8
SIZE
 62
     0
100
AcDbLine
 10
-22306.61521613997
 20
7802.154659243358
 30
0.0
 11
-22050.61521613997
 21
7802.154659243358
 31
0.0
  0
INSERT
  5
142F
330
275A
100
AcDbEntity
  8
SIZE
 62
     0
100
AcDbBlockReference
  2
_DOTBLANK
 10
-22318.61521613997
 20
7802.154659243358
 30
0.0
 41
12.0
 42
12.0
 43
12.0
 50
180.0
  0
INSERT
  5
1430
330
275A
100
AcDbEntity
  8
SIZE
 62
     0
100
AcDbBlockReference
  2
_DOTBLANK
 10
-22038.61521613997
 20
7802.154659243358
 30
0.0
 41
12.0
 42
12.0
 43
12.0
  0
INSERT
  5
1431
330
275A
100
AcDbEntity
  8
0
100
AcDbBlockReference
  2
*U27
 10
0.0
 20
0.0
 30
0.0
  0
POINT
  5
1432
330
275A
100
AcDbEntity
  8
DEFPOINTS
 62
     0
100
AcDbPoint
 10
-22318.61521613997
 20
7698.167454177002
 30
0.0
  0
POINT
  5
1433
330
275A
100
AcDbEntity
  8
DEFPOINTS
 62
     0
100
AcDbPoint
 10
-22038.61521613997
 20
7698.167454177002
 30
0.0
  0
POINT
  5
1434
330
275A
100
AcDbEntity
  8
DEFPOINTS
 62
     0
100
AcDbPoint
 10
-22038.61521613997
 20
7802.154659243358
 30
0.0
  0
ENDBLK
  5
1435
330
275A
100
AcDbEntity
  8
0
100
AcDbBlockEnd
  0
BLOCK
  5
275D
330
275C
100
AcDbEntity
  8
0
100
AcDbBlockBegin
  2
*U27
 70
     1
 10
0.0
 20
0.0
 30
0.0
  3
*U27
  1

  0
TEXT
  5
1F01
330
275C
100
AcDbEntity
  8
SIZE
 62
     0
100
AcDbText
 10
-22252.6723589971
 20
7812.154659243358
 30
0.0
 40
64.0
  1
280
 41
0.9
100
AcDbText
  0
ENDBLK
  5
1F03
330
275C
100
AcDbEntity
  8
0
100
AcDbBlockEnd
  0
BLOCK
  5
275F
330
275E
100
AcDbEntity
  8
0
100
AcDbBlockBegin
  2
*D28
 70
     1
 10
0.0
 20
0.0
 30
0.0
  3
*D28
  1

  0
LINE
  5
1438
330
275E
100
AcDbEntity
  8
SIZE
 62
     0
100
AcDbLine
 10
-22336.11521613997
 20
7705.702971374808
 30
0.0
 11
-22336.11521613997
 21
7931.282433493766
 31
0.0
  0
LINE
  5
1439
330
275E
100
AcDbEntity
  8
SIZE
 62
     0
100
AcDbLine
 10
-22021.11521613997
 20
7705.702971374808
 30
0.0
 11
-22021.11521613997
 21
7931.282433493766
 31
0.0
  0
LINE
  5
143A
330
275E
100
AcDbEntity
  8
SIZE
 62
     0
100
AcDbLine
 10
-22324.11521613997
 20
7911.282433493766
 30
0.0
 11
-22033.11521613997
 21
7911.282433493766
 31
0.0
  0
INSERT
  5
143B
330
275E
100
AcDbEntity
  8
SIZE
 62
     0
100
AcDbBlockReference
  2
_DOTBLANK
 10
-22336.11521613997
 20
7911.282433493766
 30
0.0
 41
12.0
 42
12.0
 43
12.0
 50
180.0
  0
INSERT
  5
143C
330
275E
100
AcDbEntity
  8
SIZE
 62
     0
100
AcDbBlockReference
  2
_DOTBLANK
 10
-22021.11521613997
 20
7911.282433493766
 30
0.0
 41
12.0
 42
12.0
 43
12.0
  0
INSERT
  5
143D
330
275E
100
AcDbEntity
  8
0
100
AcDbBlockReference
  2
*U29
 10
0.0
 20
0.0
 30
0.0
  0
POINT
  5
143E
330
275E
100
AcDbEntity
  8
DEFPOINTS
 62
     0
100
AcDbPoint
 10
-22336.11521613997
 20
7685.702971374808
 30
0.0
  0
POINT
  5
143F
330
275E
100
AcDbEntity
  8
DEFPOINTS
 62
     0
100
AcDbPoint
 10
-22021.11521613997
 20
7685.702971374808
 30
0.0
  0
POINT
  5
1440
330
275E
100
AcDbEntity
  8
DEFPOINTS
 62
     0
100
AcDbPoint
 10
-22021.11521613997
 20
7911.282433493766
 30
0.0
  0
ENDBLK
  5
1441
330
275E
100
AcDbEntity
  8
0
100
AcDbBlockEnd
  0
BLOCK
  5
2761
330
2760
100
AcDbEntity
  8
0
100
AcDbBlockBegin
  2
*U29
 70
     1
 10
0.0
 20
0.0
 30
0.0
  3
*U29
  1

  0
TEXT
  5
1F05
330
2760
100
AcDbEntity
  8
SIZE
 62
     0
100
AcDbText
 10
-22247.18664471139
 20
7921.282433493766
 30
0.0
 40
64.0
  1
315
 41
0.9
100
AcDbText
  0
ENDBLK
  5
1F07
330
2760
100
AcDbEntity
  8
0
100
AcDbBlockEnd
  0
BLOCK
  5
2763
330
2762
100
AcDbEntity
  8
0
100
AcDbBlockBegin
  2
*D30
 70
     1
 10
0.0
 20
0.0
 30
0.0
  3
*D30
  1

  0
LINE
  5
166B
330
2762
100
AcDbEntity
  8
SIZE
 62
     0
100
AcDbLine
 10
-134.5
 20
-320.0
 30
0.0
 11
-134.5
 21
-468.0173952306001
 31
0.0
  0
LINE
  5
166C
330
2762
100
AcDbEntity
  8
SIZE
 62
     0
100
AcDbLine
 10
134.5
 20
-320.0
 30
0.0
 11
134.5
 21
-468.0173952306001
 31
0.0
  0
LINE
  5
166D
330
2762
100
AcDbEntity
  8
SIZE
 62
     0
100
AcDbLine
 10
-122.5
 20
-448.0173952306
 30
0.0
 11
122.5
 21
-448.0173952306
 31
0.0
  0
INSERT
  5
166E
330
2762
100
AcDbEntity
  8
SIZE
 62
     0
100
AcDbBlockReference
  2
_DOTBLANK
 10
-134.5
 20
-448.0173952306
 30
0.0
 41
12.0
 42
12.0
 43
12.0
 50
180.0
  0
INSERT
  5
166F
330
2762
100
AcDbEntity
  8
SIZE
 62
     0
100
AcDbBlockReference
  2
_DOTBLANK
 10
134.5
 20
-448.0173952306
 30
0.0
 41
12.0
 42
12.0
 43
12.0
  0
INSERT
  5
1670
330
2762
100
AcDbEntity
  8
0
100
AcDbBlockReference
  2
*U31
 10
0.0
 20
0.0
 30
0.0
  0
POINT
  5
1671
330
2762
100
AcDbEntity
  8
DEFPOINTS
 62
     0
100
AcDbPoint
 10
-134.5
 20
-300.0
 30
0.0
  0
POINT
  5
1672
330
2762
100
AcDbEntity
  8
DEFPOINTS
 62
     0
100
AcDbPoint
 10
134.5
 20
-300.0
 30
0.0
  0
POINT
  5
1673
330
2762
100
AcDbEntity
  8
DEFPOINTS
 62
     0
100
AcDbPoint
 10
134.5
 20
-448.0173952306
 30
0.0
  0
ENDBLK
  5
14A7
330
2762
100
AcDbEntity
  8
0
100
AcDbBlockEnd
  0
BLOCK
  5
2765
330
2764
100
AcDbEntity
  8
0
100
AcDbBlockBegin
  2
*U31
 70
     1
 10
0.0
 20
0.0
 30
0.0
  3
*U31
  1

  0
TEXT
  5
1F09
330
2764
100
AcDbEntity
  8
SIZE
 62
     0
100
AcDbText
 10
-72.68571428571426
 20
-438.0173952306002
 30
0.0
 40
64.0
  1
269
 41
0.9
100
AcDbText
  0
ENDBLK
  5
1F0B
330
2764
100
AcDbEntity
  8
0
100
AcDbBlockEnd
  0
BLOCK
  5
2767
330
2766
100
AcDbEntity
  8
0
100
AcDbBlockBegin
  2
*D32
 70
     1
 10
0.0
 20
0.0
 30
0.0
  3
*D32
  1

  0
LINE
  5
1674
330
2766
100
AcDbEntity
  8
SIZE
  6
Continuous
 62
     0
100
AcDbLine
 10
143.5
 20
-300.0
 30
0.0
 11
304.6432844803784
 21
-300.0
 31
0.0
  0
LINE
  5
1675
330
2766
100
AcDbEntity
  8
SIZE
  6
Continuous
 62
     0
100
AcDbLine
 10
177.5
 20
-0.0000000000000057
 30
0.0
 11
304.6432844803785
 21
-0.0000000000000417
 31
0.0
  0
LINE
  5
1676
330
2766
100
AcDbEntity
  8
SIZE
  6
Continuous
 62
     0
100
AcDbLine
 10
284.6432844803784
 20
-288.0000000000001
 30
0.0
 11
284.6432844803785
 21
-12.00000000000003
 31
0.0
  0
INSERT
  5
1677
330
2766
100
AcDbEntity
  8
SIZE
  6
Continuous
 62
     0
100
AcDbBlockReference
  2
_DOTBLANK
 10
284.6432844803784
 20
-300.0
 30
0.0
 41
12.0
 42
12.0
 43
12.0
 50
270.0
  0
INSERT
  5
1678
330
2766
100
AcDbEntity
  8
SIZE
  6
Continuous
 62
     0
100
AcDbBlockReference
  2
_DOTBLANK
 10
284.6432844803785
 20
-0.000000000000036
 30
0.0
 41
12.0
 42
12.0
 43
12.0
 50
90.0
  0
INSERT
  5
1679
330
2766
100
AcDbEntity
  8
0
100
AcDbBlockReference
  2
*U33
 10
0.0
 20
0.0
 30
0.0
  0
POINT
  5
167A
330
2766
100
AcDbEntity
  8
DEFPOINTS
  6
Continuous
 62
     0
100
AcDbPoint
 10
123.5
 20
-300.0
 30
0.0
  0
POINT
  5
167B
330
2766
100
AcDbEntity
  8
DEFPOINTS
  6
Continuous
 62
     0
100
AcDbPoint
 10
157.5
 20
0.0
 30
0.0
  0
POINT
  5
167C
330
2766
100
AcDbEntity
  8
DEFPOINTS
  6
Continuous
 62
     0
100
AcDbPoint
 10
284.6432844803785
 20
-0.000000000000036
 30
0.0
  0
ENDBLK
  5
14B3
330
2766
100
AcDbEntity
  8
0
100
AcDbBlockEnd
  0
BLOCK
  5
2769
330
2768
100
AcDbEntity
  8
0
100
AcDbBlockBegin
  2
*U33
 70
     1
 10
0.0
 20
0.0
 30
0.0
  3
*U33
  1

  0
TEXT
  5
1F0D
330
2768
100
AcDbEntity
  8
SIZE
 62
     0
100
AcDbText
 10
274.6432844803785
 20
-224.0571428571429
 30
0.0
 40
64.0
  1
300
 50
90.0
 41
0.9
100
AcDbText
  0
ENDBLK
  5
1F0F
330
2768
100
AcDbEntity
  8
0
100
AcDbBlockEnd
  0
BLOCK
  5
276B
330
276A
100
AcDbEntity
  8
0
100
AcDbBlockBegin
  2
*D34
 70
     1
 10
0.0
 20
0.0
 30
0.0
  3
*D34
  1

  0
LINE
  5
167D
330
276A
100
AcDbEntity
  8
SIZE
 62
     0
100
AcDbLine
 10
-140.0
 20
32.46448280219375
 30
0.0
 11
-140.0
 21
136.4516878685507
 31
0.0
  0
LINE
  5
167E
330
276A
100
AcDbEntity
  8
SIZE
 62
     0
100
AcDbLine
 10
140.0
 20
32.46448280219375
 30
0.0
 11
140.0
 21
136.4516878685507
 31
0.0
  0
LINE
  5
167F
330
276A
100
AcDbEntity
  8
SIZE
 62
     0
100
AcDbLine
 10
-128.0
 20
116.4516878685508
 30
0.0
 11
128.0
 21
116.4516878685508
 31
0.0
  0
INSERT
  5
1680
330
276A
100
AcDbEntity
  8
SIZE
 62
     0
100
AcDbBlockReference
  2
_DOTBLANK
 10
-140.0
 20
116.4516878685508
 30
0.0
 41
12.0
 42
12.0
 43
12.0
 50
180.0
  0
INSERT
  5
1681
330
276A
100
AcDbEntity
  8
SIZE
 62
     0
100
AcDbBlockReference
  2
_DOTBLANK
 10
140.0
 20
116.4516878685508
 30
0.0
 41
12.0
 42
12.0
 43
12.0
  0
INSERT
  5
1682
330
276A
100
AcDbEntity
  8
0
100
AcDbBlockReference
  2
*U35
 10
0.0
 20
0.0
 30
0.0
  0
POINT
  5
1683
330
276A
100
AcDbEntity
  8
DEFPOINTS
 62
     0
100
AcDbPoint
 10
-140.0
 20
12.46448280219374
 30
0.0
  0
POINT
  5
1684
330
276A
100
AcDbEntity
  8
DEFPOINTS
 62
     0
100
AcDbPoint
 10
140.0
 20
12.46448280219374
 30
0.0
  0
POINT
  5
1685
330
276A
100
AcDbEntity
  8
DEFPOINTS
 62
     0
100
AcDbPoint
 10
140.0
 20
116.4516878685508
 30
0.0
  0
ENDBLK
  5
14BF
330
276A
100
AcDbEntity
  8
0
100
AcDbBlockEnd
  0
BLOCK
  5
276D
330
276C
100
AcDbEntity
  8
0
100
AcDbBlockBegin
  2
*U35
 70
     1
 10
0.0
 20
0.0
 30
0.0
  3
*U35
  1

  0
TEXT
  5
1F11
330
276C
100
AcDbEntity
  8
SIZE
 62
     0
100
AcDbText
 10
-74.05714285714283
 20
126.4516878685507
 30
0.0
 40
64.0
  1
280
 41
0.9
100
AcDbText
  0
ENDBLK
  5
1F13
330
276C
100
AcDbEntity
  8
0
100
AcDbBlockEnd
  0
BLOCK
  5
276F
330
276E
100
AcDbEntity
  8
0
100
AcDbBlockBegin
  2
*D36
 70
     1
 10
0.0
 20
0.0
 30
0.0
  3
*D36
  1

  0
LINE
  5
1686
330
276E
100
AcDbEntity
  8
SIZE
 62
     0
100
AcDbLine
 10
-157.5
 20
20.0
 30
0.0
 11
-157.5
 21
245.5794621189598
 31
0.0
  0
LINE
  5
1687
330
276E
100
AcDbEntity
  8
SIZE
 62
     0
100
AcDbLine
 10
157.5
 20
20.0
 30
0.0
 11
157.5
 21
245.5794621189598
 31
0.0
  0
LINE
  5
1688
330
276E
100
AcDbEntity
  8
SIZE
 62
     0
100
AcDbLine
 10
-145.5
 20
225.5794621189598
 30
0.0
 11
145.5
 21
225.5794621189598
 31
0.0
  0
INSERT
  5
1689
330
276E
100
AcDbEntity
  8
SIZE
 62
     0
100
AcDbBlockReference
  2
_DOTBLANK
 10
-157.5
 20
225.5794621189598
 30
0.0
 41
12.0
 42
12.0
 43
12.0
 50
180.0
  0
INSERT
  5
168A
330
276E
100
AcDbEntity
  8
SIZE
 62
     0
100
AcDbBlockReference
  2
_DOTBLANK
 10
157.5
 20
225.5794621189598
 30
0.0
 41
12.0
 42
12.0
 43
12.0
  0
INSERT
  5
168B
330
276E
100
AcDbEntity
  8
0
100
AcDbBlockReference
  2
*U37
 10
0.0
 20
0.0
 30
0.0
  0
POINT
  5
168C
330
276E
100
AcDbEntity
  8
DEFPOINTS
 62
     0
100
AcDbPoint
 10
-157.5
 20
0.0
 30
0.0
  0
POINT
  5
168D
330
276E
100
AcDbEntity
  8
DEFPOINTS
 62
     0
100
AcDbPoint
 10
157.5
 20
0.0
 30
0.0
  0
POINT
  5
168E
330
276E
100
AcDbEntity
  8
DEFPOINTS
 62
     0
100
AcDbPoint
 10
157.5
 20
225.5794621189598
 30
0.0
  0
ENDBLK
  5
14CB
330
276E
100
AcDbEntity
  8
0
100
AcDbBlockEnd
  0
BLOCK
  5
2771
330
2770
100
AcDbEntity
  8
0
100
AcDbBlockBegin
  2
*U37
 70
     1
 10
0.0
 20
0.0
 30
0.0
  3
*U37
  1

  0
TEXT
  5
1F15
330
2770
100
AcDbEntity
  8
SIZE
 62
     0
100
AcDbText
 10
-68.57142857142857
 20
235.5794621189598
 30
0.0
 40
64.0
  1
315
 41
0.9
100
AcDbText
  0
ENDBLK
  5
1F17
330
2770
100
AcDbEntity
  8
0
100
AcDbBlockEnd
  0
BLOCK
  5
2773
330
2772
100
AcDbEntity
  8
0
100
AcDbBlockBegin
  2
*U38
 70
     1
 10
0.0
 20
0.0
 30
0.0
  3
*U38
  1

  0
ENDBLK
  5
15CF
330
2772
100
AcDbEntity
  8
0
100
AcDbBlockEnd
  0
BLOCK
  5
2775
330
2774
100
AcDbEntity
  8
0
100
AcDbBlockBegin
  2
*D39
 70
     1
 10
0.0
 20
0.0
 30
0.0
  3
*D39
  1

  0
LINE
  5
1692
330
2774
100
AcDbEntity
  8
SIZE
 62
     0
100
AcDbLine
 10
-25844.51823276502
 20
7685.702971374808
 30
0.0
 11
-25981.04465488371
 21
7685.702971374808
 31
0.0
  0
LINE
  5
1693
330
2774
100
AcDbEntity
  8
SIZE
 62
     0
100
AcDbLine
 10
-25844.51823276502
 20
7677.702971374808
 30
0.0
 11
-25981.04465488371
 21
7677.702971374808
 31
0.0
  0
LINE
  5
1694
330
2774
100
AcDbEntity
  8
SIZE
 62
     0
100
AcDbLine
 10
-25961.04465488371
 20
7697.702971374808
 30
0.0
 11
-25961.04465488371
 21
7709.702971374809
 31
0.0
  0
LINE
  5
1695
330
2774
100
AcDbEntity
  8
SIZE
 62
     0
100
AcDbLine
 10
-25961.04465488371
 20
7665.70297137481
 30
0.0
 11
-25961.04465488371
 21
7595.302971374808
 31
0.0
  0
INSERT
  5
1696
330
2774
100
AcDbEntity
  8
SIZE
 62
     0
100
AcDbBlockReference
  2
_DOTBLANK
 10
-25961.04465488371
 20
7685.702971374808
 30
0.0
 41
12.0
 42
12.0
 43
12.0
 50
270.0
  0
INSERT
  5
1697
330
2774
100
AcDbEntity
  8
SIZE
 62
     0
100
AcDbBlockReference
  2
_DOTBLANK
 10
-25961.04465488371
 20
7677.702971374808
 30
0.0
 41
12.0
 42
12.0
 43
12.0
 50
90.0
  0
INSERT
  5
1698
330
2774
100
AcDbEntity
  8
0
100
AcDbBlockReference
  2
*U40
 10
0.0
 20
0.0
 30
0.0
  0
POINT
  5
1699
330
2774
100
AcDbEntity
  8
DEFPOINTS
 62
     0
100
AcDbPoint
 10
-25824.51823276501
 20
7685.702971374808
 30
0.0
  0
POINT
  5
169A
330
2774
100
AcDbEntity
  8
DEFPOINTS
 62
     0
100
AcDbPoint
 10
-25824.51823276501
 20
7677.702971374808
 30
0.0
  0
POINT
  5
169B
330
2774
100
AcDbEntity
  8
DEFPOINTS
 62
     0
100
AcDbPoint
 10
-25961.04465488371
 20
7677.702971374808
 30
0.0
  0
ENDBLK
  5
169C
330
2774
100
AcDbEntity
  8
0
100
AcDbBlockEnd
  0
BLOCK
  5
2777
330
2776
100
AcDbEntity
  8
0
100
AcDbBlockBegin
  2
*U40
 70
     1
 10
0.0
 20
0.0
 30
0.0
  3
*U40
  1

  0
TEXT
  5
1F19
330
2776
100
AcDbEntity
  8
SIZE
 62
     0
100
AcDbText
 10
-25971.04465488371
 20
7605.302971374804
 30
0.0
 40
64.0
  1
8
 50
90.0
 41
0.9
100
AcDbText
  0
ENDBLK
  5
1F1B
330
2776
100
AcDbEntity
  8
0
100
AcDbBlockEnd
  0
BLOCK
  5
2779
330
2778
100
AcDbEntity
  8
0
100
AcDbBlockBegin
  2
*D41
 70
     1
 10
0.0
 20
0.0
 30
0.0
  3
*D41
  1

  0
LINE
  5
169F
330
2778
100
AcDbEntity
  8
SIZE
 62
     0
100
AcDbLine
 10
-25512.51823276502
 20
7385.702971374808
 30
0.0
 11
-25362.37494828464
 21
7385.702971374808
 31
0.0
  0
LINE
  5
16A0
330
2778
100
AcDbEntity
  8
SIZE
 62
     0
100
AcDbLine
 10
-25523.51823276501
 20
7373.702971374808
 30
0.0
 11
-25362.37494828464
 21
7373.702971374808
 31
0.0
  0
LINE
  5
16A1
330
2778
100
AcDbEntity
  8
SIZE
 62
     0
100
AcDbLine
 10
-25382.37494828464
 20
7397.702971374808
 30
0.0
 11
-25382.37494828464
 21
7409.70297137481
 31
0.0
  0
LINE
  5
16A2
330
2778
100
AcDbEntity
  8
SIZE
 62
     0
100
AcDbLine
 10
-25382.37494828464
 20
7361.702971374808
 30
0.0
 11
-25382.37494828464
 21
7244.674399946237
 31
0.0
  0
INSERT
  5
16A3
330
2778
100
AcDbEntity
  8
SIZE
 62
     0
100
AcDbBlockReference
  2
_DOTBLANK
 10
-25382.37494828464
 20
7385.702971374808
 30
0.0
 41
12.0
 42
12.0
 43
12.0
 50
270.0
  0
INSERT
  5
16A4
330
2778
100
AcDbEntity
  8
SIZE
 62
     0
100
AcDbBlockReference
  2
_DOTBLANK
 10
-25382.37494828464
 20
7373.702971374808
 30
0.0
 41
12.0
 42
12.0
 43
12.0
 50
90.0
  0
INSERT
  5
16A5
330
2778
100
AcDbEntity
  8
0
100
AcDbBlockReference
  2
*U42
 10
0.0
 20
0.0
 30
0.0
  0
POINT
  5
16A6
330
2778
100
AcDbEntity
  8
DEFPOINTS
 62
     0
100
AcDbPoint
 10
-25532.51823276502
 20
7385.702971374808
 30
0.0
  0
POINT
  5
16A7
330
2778
100
AcDbEntity
  8
DEFPOINTS
 62
     0
100
AcDbPoint
 10
-25543.51823276502
 20
7373.702971374808
 30
0.0
  0
POINT
  5
16A8
330
2778
100
AcDbEntity
  8
DEFPOINTS
 62
     0
100
AcDbPoint
 10
-25382.37494828464
 20
7373.702971374808
 30
0.0
  0
ENDBLK
  5
16A9
330
2778
100
AcDbEntity
  8
0
100
AcDbBlockEnd
  0
BLOCK
  5
277B
330
277A
100
AcDbEntity
  8
0
100
AcDbBlockBegin
  2
*U42
 70
     1
 10
0.0
 20
0.0
 30
0.0
  3
*U42
  1

  0
TEXT
  5
1F1D
330
277A
100
AcDbEntity
  8
SIZE
 62
     0
100
AcDbText
 10
-25392.37494828464
 20
7256.045828517662
 30
0.0
 40
64.0
  1
12
 50
90.0
 41
0.9
100
AcDbText
  0
ENDBLK
  5
1F1F
330
277A
100
AcDbEntity
  8
0
100
AcDbBlockEnd
  0
BLOCK
  5
277D
330
277C
100
AcDbEntity
  8
0
100
AcDbBlockBegin
  2
*D43
 70
     1
 10
0.0
 20
0.0
 30
0.0
  3
*D43
  1

  0
LINE
  5
16AC
330
277C
100
AcDbEntity
  8
SIZE
 62
     0
100
AcDbLine
 10
-25801.51823276501
 20
7365.702971374808
 30
0.0
 11
-25801.51823276501
 21
7217.685576144207
 31
0.0
  0
LINE
  5
16AD
330
277C
100
AcDbEntity
  8
SIZE
 62
     0
100
AcDbLine
 10
-25532.51823276502
 20
7365.702971374808
 30
0.0
 11
-25532.51823276502
 21
7217.685576144207
 31
0.0
  0
LINE
  5
16AE
330
277C
100
AcDbEntity
  8
SIZE
 62
     0
100
AcDbLine
 10
-25789.51823276502
 20
7237.685576144207
 30
0.0
 11
-25544.51823276501
 21
7237.685576144207
 31
0.0
  0
INSERT
  5
16AF
330
277C
100
AcDbEntity
  8
SIZE
 62
     0
100
AcDbBlockReference
  2
_DOTBLANK
 10
-25801.51823276501
 20
7237.685576144207
 30
0.0
 41
12.0
 42
12.0
 43
12.0
 50
180.0
  0
INSERT
  5
16B0
330
277C
100
AcDbEntity
  8
SIZE
 62
     0
100
AcDbBlockReference
  2
_DOTBLANK
 10
-25532.51823276502
 20
7237.685576144207
 30
0.0
 41
12.0
 42
12.0
 43
12.0
  0
INSERT
  5
16B1
330
277C
100
AcDbEntity
  8
0
100
AcDbBlockReference
  2
*U44
 10
0.0
 20
0.0
 30
0.0
  0
POINT
  5
16B2
330
277C
100
AcDbEntity
  8
DEFPOINTS
 62
     0
100
AcDbPoint
 10
-25801.51823276501
 20
7385.702971374808
 30
0.0
  0
POINT
  5
16B3
330
277C
100
AcDbEntity
  8
DEFPOINTS
 62
     0
100
AcDbPoint
 10
-25532.51823276502
 20
7385.702971374808
 30
0.0
  0
POINT
  5
16B4
330
277C
100
AcDbEntity
  8
DEFPOINTS
 62
     0
100
AcDbPoint
 10
-25532.51823276502
 20
7237.685576144207
 30
0.0
  0
ENDBLK
  5
16B5
330
277C
100
AcDbEntity
  8
0
100
AcDbBlockEnd
  0
BLOCK
  5
277F
330
277E
100
AcDbEntity
  8
0
100
AcDbBlockBegin
  2
*U44
 70
     1
 10
0.0
 20
0.0
 30
0.0
  3
*U44
  1

  0
TEXT
  5
1F21
330
277E
100
AcDbEntity
  8
SIZE
 62
     0
100
AcDbText
 10
-25739.70394705074
 20
7247.685576144205
 30
0.0
 40
64.0
  1
269
 41
0.9
100
AcDbText
  0
ENDBLK
  5
1F23
330
277E
100
AcDbEntity
  8
0
100
AcDbBlockEnd
  0
BLOCK
  5
2781
330
2780
100
AcDbEntity
  8
0
100
AcDbBlockBegin
  2
*D45
 70
     1
 10
0.0
 20
0.0
 30
0.0
  3
*D45
  1

  0
LINE
  5
16B8
330
2780
100
AcDbEntity
  8
SIZE
 62
     0
100
AcDbLine
 10
-25512.51823276502
 20
7385.702971374808
 30
0.0
 11
-25362.37494828464
 21
7385.702971374808
 31
0.0
  0
LINE
  5
16B9
330
2780
100
AcDbEntity
  8
SIZE
 62
     0
100
AcDbLine
 10
-25489.51823276501
 20
7685.702971374808
 30
0.0
 11
-25362.37494828464
 21
7685.702971374808
 31
0.0
  0
LINE
  5
16BA
330
2780
100
AcDbEntity
  8
SIZE
 62
     0
100
AcDbLine
 10
-25382.37494828464
 20
7397.702971374808
 30
0.0
 11
-25382.37494828464
 21
7673.702971374808
 31
0.0
  0
INSERT
  5
16BB
330
2780
100
AcDbEntity
  8
SIZE
 62
     0
100
AcDbBlockReference
  2
_DOTBLANK
 10
-25382.37494828464
 20
7385.702971374808
 30
0.0
 41
12.0
 42
12.0
 43
12.0
 50
270.0
  0
INSERT
  5
16BC
330
2780
100
AcDbEntity
  8
SIZE
 62
     0
100
AcDbBlockReference
  2
_DOTBLANK
 10
-25382.37494828464
 20
7685.702971374808
 30
0.0
 41
12.0
 42
12.0
 43
12.0
 50
90.0
  0
INSERT
  5
16BD
330
2780
100
AcDbEntity
  8
0
100
AcDbBlockReference
  2
*U46
 10
0.0
 20
0.0
 30
0.0
  0
POINT
  5
16BE
330
2780
100
AcDbEntity
  8
DEFPOINTS
 62
     0
100
AcDbPoint
 10
-25532.51823276502
 20
7385.702971374808
 30
0.0
  0
POINT
  5
16BF
330
2780
100
AcDbEntity
  8
DEFPOINTS
 62
     0
100
AcDbPoint
 10
-25509.51823276502
 20
7685.702971374808
 30
0.0
  0
POINT
  5
16C0
330
2780
100
AcDbEntity
  8
DEFPOINTS
 62
     0
100
AcDbPoint
 10
-25382.37494828464
 20
7685.702971374808
 30
0.0
  0
ENDBLK
  5
16C1
330
2780
100
AcDbEntity
  8
0
100
AcDbBlockEnd
  0
BLOCK
  5
2783
330
2782
100
AcDbEntity
  8
0
100
AcDbBlockBegin
  2
*U46
 70
     1
 10
0.0
 20
0.0
 30
0.0
  3
*U46
  1

  0
TEXT
  5
1F25
330
2782
100
AcDbEntity
  8
SIZE
 62
     0
100
AcDbText
 10
-25392.37494828464
 20
7461.645828517662
 30
0.0
 40
64.0
  1
300
 50
90.0
 41
0.9
100
AcDbText
  0
ENDBLK
  5
1F27
330
2782
100
AcDbEntity
  8
0
100
AcDbBlockEnd
  0
BLOCK
  5
2785
330
2784
100
AcDbEntity
  8
0
100
AcDbBlockBegin
  2
*D47
 70
     1
 10
0.0
 20
0.0
 30
0.0
  3
*D47
  1

  0
LINE
  5
16C4
330
2784
100
AcDbEntity
  8
SIZE
 62
     0
100
AcDbLine
 10
-25807.01823276501
 20
7718.167454177002
 30
0.0
 11
-25807.01823276501
 21
7822.154659243358
 31
0.0
  0
LINE
  5
16C5
330
2784
100
AcDbEntity
  8
SIZE
 62
     0
100
AcDbLine
 10
-25527.01823276501
 20
7718.167454177002
 30
0.0
 11
-25527.01823276501
 21
7822.154659243358
 31
0.0
  0
LINE
  5
16C6
330
2784
100
AcDbEntity
  8
SIZE
 62
     0
100
AcDbLine
 10
-25795.01823276502
 20
7802.154659243358
 30
0.0
 11
-25539.01823276501
 21
7802.154659243358
 31
0.0
  0
INSERT
  5
16C7
330
2784
100
AcDbEntity
  8
SIZE
 62
     0
100
AcDbBlockReference
  2
_DOTBLANK
 10
-25807.01823276501
 20
7802.154659243358
 30
0.0
 41
12.0
 42
12.0
 43
12.0
 50
180.0
  0
INSERT
  5
16C8
330
2784
100
AcDbEntity
  8
SIZE
 62
     0
100
AcDbBlockReference
  2
_DOTBLANK
 10
-25527.01823276501
 20
7802.154659243358
 30
0.0
 41
12.0
 42
12.0
 43
12.0
  0
INSERT
  5
16C9
330
2784
100
AcDbEntity
  8
0
100
AcDbBlockReference
  2
*U48
 10
0.0
 20
0.0
 30
0.0
  0
POINT
  5
16CA
330
2784
100
AcDbEntity
  8
DEFPOINTS
 62
     0
100
AcDbPoint
 10
-25807.01823276501
 20
7698.167454177002
 30
0.0
  0
POINT
  5
16CB
330
2784
100
AcDbEntity
  8
DEFPOINTS
 62
     0
100
AcDbPoint
 10
-25527.01823276501
 20
7698.167454177002
 30
0.0
  0
POINT
  5
16CC
330
2784
100
AcDbEntity
  8
DEFPOINTS
 62
     0
100
AcDbPoint
 10
-25527.01823276501
 20
7802.154659243358
 30
0.0
  0
ENDBLK
  5
16CD
330
2784
100
AcDbEntity
  8
0
100
AcDbBlockEnd
  0
BLOCK
  5
2787
330
2786
100
AcDbEntity
  8
0
100
AcDbBlockBegin
  2
*U48
 70
     1
 10
0.0
 20
0.0
 30
0.0
  3
*U48
  1

  0
TEXT
  5
1F29
330
2786
100
AcDbEntity
  8
SIZE
 62
     0
100
AcDbText
 10
-25741.07537562216
 20
7812.154659243358
 30
0.0
 40
64.0
  1
280
 41
0.9
100
AcDbText
  0
ENDBLK
  5
1F2B
330
2786
100
AcDbEntity
  8
0
100
AcDbBlockEnd
  0
BLOCK
  5
2789
330
2788
100
AcDbEntity
  8
0
100
AcDbBlockBegin
  2
*D49
 70
     1
 10
0.0
 20
0.0
 30
0.0
  3
*D49
  1

  0
LINE
  5
16D0
330
2788
100
AcDbEntity
  8
SIZE
 62
     0
100
AcDbLine
 10
-25824.51823276501
 20
7705.702971374808
 30
0.0
 11
-25824.51823276501
 21
7931.282433493766
 31
0.0
  0
LINE
  5
16D1
330
2788
100
AcDbEntity
  8
SIZE
 62
     0
100
AcDbLine
 10
-25509.51823276502
 20
7705.702971374808
 30
0.0
 11
-25509.51823276502
 21
7931.282433493766
 31
0.0
  0
LINE
  5
16D2
330
2788
100
AcDbEntity
  8
SIZE
 62
     0
100
AcDbLine
 10
-25812.51823276502
 20
7911.282433493766
 30
0.0
 11
-25521.51823276501
 21
7911.282433493766
 31
0.0
  0
INSERT
  5
16D3
330
2788
100
AcDbEntity
  8
SIZE
 62
     0
100
AcDbBlockReference
  2
_DOTBLANK
 10
-25824.51823276501
 20
7911.282433493766
 30
0.0
 41
12.0
 42
12.0
 43
12.0
 50
180.0
  0
INSERT
  5
16D4
330
2788
100
AcDbEntity
  8
SIZE
 62
     0
100
AcDbBlockReference
  2
_DOTBLANK
 10
-25509.51823276502
 20
7911.282433493766
 30
0.0
 41
12.0
 42
12.0
 43
12.0
  0
INSERT
  5
16D5
330
2788
100
AcDbEntity
  8
0
100
AcDbBlockReference
  2
*U50
 10
0.0
 20
0.0
 30
0.0
  0
POINT
  5
16D6
330
2788
100
AcDbEntity
  8
DEFPOINTS
 62
     0
100
AcDbPoint
 10
-25824.51823276501
 20
7685.702971374808
 30
0.0
  0
POINT
  5
16D7
330
2788
100
AcDbEntity
  8
DEFPOINTS
 62
     0
100
AcDbPoint
 10
-25509.51823276502
 20
7685.702971374808
 30
0.0
  0
POINT
  5
16D8
330
2788
100
AcDbEntity
  8
DEFPOINTS
 62
     0
100
AcDbPoint
 10
-25509.51823276502
 20
7911.282433493766
 30
0.0
  0
ENDBLK
  5
16D9
330
2788
100
AcDbEntity
  8
0
100
AcDbBlockEnd
  0
BLOCK
  5
278B
330
278A
100
AcDbEntity
  8
0
100
AcDbBlockBegin
  2
*U50
 70
     1
 10
0.0
 20
0.0
 30
0.0
  3
*U50
  1

  0
TEXT
  5
1F2D
330
278A
100
AcDbEntity
  8
SIZE
 62
     0
100
AcDbText
 10
-25735.58966133645
 20
7921.282433493766
 30
0.0
 40
64.0
  1
315
 41
0.9
100
AcDbText
  0
ENDBLK
  5
1F2F
330
278A
100
AcDbEntity
  8
0
100
AcDbBlockEnd
  0
BLOCK
  5
278D
330
278C
100
AcDbEntity
  8
0
100
AcDbBlockBegin
  2
*D51
 70
     1
 10
0.0
 20
0.0
 30
0.0
  3
*D51
  1

  0
LINE
  5
1D83
330
278C
100
AcDbEntity
  8
SIZE
 62
     0
100
AcDbLine
 10
-134.5
 20
-320.0
 30
0.0
 11
-134.5
 21
-468.0173952306001
 31
0.0
  0
LINE
  5
1D84
330
278C
100
AcDbEntity
  8
SIZE
 62
     0
100
AcDbLine
 10
134.5
 20
-320.0
 30
0.0
 11
134.5
 21
-468.0173952306001
 31
0.0
  0
LINE
  5
1D85
330
278C
100
AcDbEntity
  8
SIZE
 62
     0
100
AcDbLine
 10
-122.5
 20
-448.0173952306
 30
0.0
 11
122.5
 21
-448.0173952306
 31
0.0
  0
INSERT
  5
1D86
330
278C
100
AcDbEntity
  8
SIZE
 62
     0
100
AcDbBlockReference
  2
_DOTBLANK
 10
-134.5
 20
-448.0173952306
 30
0.0
 41
12.0
 42
12.0
 43
12.0
 50
180.0
  0
INSERT
  5
1D87
330
278C
100
AcDbEntity
  8
SIZE
 62
     0
100
AcDbBlockReference
  2
_DOTBLANK
 10
134.5
 20
-448.0173952306
 30
0.0
 41
12.0
 42
12.0
 43
12.0
  0
INSERT
  5
1D88
330
278C
100
AcDbEntity
  8
0
100
AcDbBlockReference
  2
*U52
 10
0.0
 20
0.0
 30
0.0
  0
POINT
  5
1D89
330
278C
100
AcDbEntity
  8
DEFPOINTS
 62
     0
100
AcDbPoint
 10
-134.5
 20
-300.0
 30
0.0
  0
POINT
  5
1D8A
330
278C
100
AcDbEntity
  8
DEFPOINTS
 62
     0
100
AcDbPoint
 10
134.5
 20
-300.0
 30
0.0
  0
POINT
  5
1D8B
330
278C
100
AcDbEntity
  8
DEFPOINTS
 62
     0
100
AcDbPoint
 10
134.5
 20
-448.0173952306
 30
0.0
  0
ENDBLK
  5
173D
330
278C
100
AcDbEntity
  8
0
100
AcDbBlockEnd
  0
BLOCK
  5
278F
330
278E
100
AcDbEntity
  8
0
100
AcDbBlockBegin
  2
*U52
 70
     1
 10
0.0
 20
0.0
 30
0.0
  3
*U52
  1

  0
TEXT
  5
1F31
330
278E
100
AcDbEntity
  8
SIZE
 62
     0
100
AcDbText
 10
-72.68571428571426
 20
-438.0173952306003
 30
0.0
 40
64.0
  1
269
 41
0.9
100
AcDbText
  0
ENDBLK
  5
1F33
330
278E
100
AcDbEntity
  8
0
100
AcDbBlockEnd
  0
BLOCK
  5
2791
330
2790
100
AcDbEntity
  8
0
100
AcDbBlockBegin
  2
*D53
 70
     1
 10
0.0
 20
0.0
 30
0.0
  3
*D53
  1

  0
LINE
  5
1D8C
330
2790
100
AcDbEntity
  8
SIZE
 62
     0
100
AcDbLine
 10
154.5
 20
-300.0
 30
0.0
 11
304.6432844803784
 21
-300.0
 31
0.0
  0
LINE
  5
1D8D
330
2790
100
AcDbEntity
  8
SIZE
 62
     0
100
AcDbLine
 10
177.5
 20
-0.0000000000000057
 30
0.0
 11
304.6432844803785
 21
-0.0000000000000417
 31
0.0
  0
LINE
  5
1D8E
330
2790
100
AcDbEntity
  8
SIZE
 62
     0
100
AcDbLine
 10
284.6432844803784
 20
-288.0
 30
0.0
 11
284.6432844803785
 21
-12.00000000000003
 31
0.0
  0
INSERT
  5
1D8F
330
2790
100
AcDbEntity
  8
SIZE
 62
     0
100
AcDbBlockReference
  2
_DOTBLANK
 10
284.6432844803784
 20
-300.0
 30
0.0
 41
12.0
 42
12.0
 43
12.0
 50
270.0
  0
INSERT
  5
1D90
330
2790
100
AcDbEntity
  8
SIZE
 62
     0
100
AcDbBlockReference
  2
_DOTBLANK
 10
284.6432844803785
 20
-0.000000000000036
 30
0.0
 41
12.0
 42
12.0
 43
12.0
 50
90.0
  0
INSERT
  5
1D91
330
2790
100
AcDbEntity
  8
0
100
AcDbBlockReference
  2
*U54
 10
0.0
 20
0.0
 30
0.0
  0
POINT
  5
1D92
330
2790
100
AcDbEntity
  8
DEFPOINTS
 62
     0
100
AcDbPoint
 10
134.5
 20
-300.0
 30
0.0
  0
POINT
  5
1D93
330
2790
100
AcDbEntity
  8
DEFPOINTS
 62
     0
100
AcDbPoint
 10
157.5
 20
0.0
 30
0.0
  0
POINT
  5
1D94
330
2790
100
AcDbEntity
  8
DEFPOINTS
 62
     0
100
AcDbPoint
 10
284.6432844803785
 20
-0.000000000000036
 30
0.0
  0
ENDBLK
  5
1749
330
2790
100
AcDbEntity
  8
0
100
AcDbBlockEnd
  0
BLOCK
  5
2793
330
2792
100
AcDbEntity
  8
0
100
AcDbBlockBegin
  2
*U54
 70
     1
 10
0.0
 20
0.0
 30
0.0
  3
*U54
  1

  0
TEXT
  5
1F35
330
2792
100
AcDbEntity
  8
SIZE
 62
     0
100
AcDbText
 10
274.6432844803785
 20
-224.0571428571429
 30
0.0
 40
64.0
  1
300
 50
90.0
 41
0.9
100
AcDbText
  0
ENDBLK
  5
1F37
330
2792
100
AcDbEntity
  8
0
100
AcDbBlockEnd
  0
BLOCK
  5
2795
330
2794
100
AcDbEntity
  8
0
100
AcDbBlockBegin
  2
*D55
 70
     1
 10
0.0
 20
0.0
 30
0.0
  3
*D55
  1

  0
LINE
  5
1D95
330
2794
100
AcDbEntity
  8
SIZE
 62
     0
100
AcDbLine
 10
-140.0
 20
32.46448280219375
 30
0.0
 11
-140.0
 21
136.4516878685508
 31
0.0
  0
LINE
  5
1D96
330
2794
100
AcDbEntity
  8
SIZE
 62
     0
100
AcDbLine
 10
140.0
 20
32.46448280219375
 30
0.0
 11
140.0
 21
136.4516878685508
 31
0.0
  0
LINE
  5
1D97
330
2794
100
AcDbEntity
  8
SIZE
 62
     0
100
AcDbLine
 10
-128.0
 20
116.4516878685508
 30
0.0
 11
128.0
 21
116.4516878685508
 31
0.0
  0
INSERT
  5
1D98
330
2794
100
AcDbEntity
  8
SIZE
 62
     0
100
AcDbBlockReference
  2
_DOTBLANK
 10
-140.0
 20
116.4516878685508
 30
0.0
 41
12.0
 42
12.0
 43
12.0
 50
180.0
  0
INSERT
  5
1D99
330
2794
100
AcDbEntity
  8
SIZE
 62
     0
100
AcDbBlockReference
  2
_DOTBLANK
 10
140.0
 20
116.4516878685508
 30
0.0
 41
12.0
 42
12.0
 43
12.0
  0
INSERT
  5
1D9A
330
2794
100
AcDbEntity
  8
0
100
AcDbBlockReference
  2
*U56
 10
0.0
 20
0.0
 30
0.0
  0
POINT
  5
1D9B
330
2794
100
AcDbEntity
  8
DEFPOINTS
 62
     0
100
AcDbPoint
 10
-140.0
 20
12.46448280219374
 30
0.0
  0
POINT
  5
1D9C
330
2794
100
AcDbEntity
  8
DEFPOINTS
 62
     0
100
AcDbPoint
 10
140.0
 20
12.46448280219374
 30
0.0
  0
POINT
  5
1D9D
330
2794
100
AcDbEntity
  8
DEFPOINTS
 62
     0
100
AcDbPoint
 10
140.0
 20
116.4516878685508
 30
0.0
  0
ENDBLK
  5
1755
330
2794
100
AcDbEntity
  8
0
100
AcDbBlockEnd
  0
BLOCK
  5
2797
330
2796
100
AcDbEntity
  8
0
100
AcDbBlockBegin
  2
*U56
 70
     1
 10
0.0
 20
0.0
 30
0.0
  3
*U56
  1

  0
TEXT
  5
1F39
330
2796
100
AcDbEntity
  8
SIZE
 62
     0
100
AcDbText
 10
-74.05714285714283
 20
126.4516878685508
 30
0.0
 40
64.0
  1
280
 41
0.9
100
AcDbText
  0
ENDBLK
  5
1F3B
330
2796
100
AcDbEntity
  8
0
100
AcDbBlockEnd
  0
BLOCK
  5
2799
330
2798
100
AcDbEntity
  8
0
100
AcDbBlockBegin
  2
*D57
 70
     1
 10
0.0
 20
0.0
 30
0.0
  3
*D57
  1

  0
LINE
  5
1D9E
330
2798
100
AcDbEntity
  8
SIZE
 62
     0
100
AcDbLine
 10
-157.5
 20
20.0
 30
0.0
 11
-157.5
 21
245.5794621189598
 31
0.0
  0
LINE
  5
1D9F
330
2798
100
AcDbEntity
  8
SIZE
 62
     0
100
AcDbLine
 10
157.5
 20
20.0
 30
0.0
 11
157.5
 21
245.5794621189598
 31
0.0
  0
LINE
  5
1DA0
330
2798
100
AcDbEntity
  8
SIZE
 62
     0
100
AcDbLine
 10
-145.5
 20
225.5794621189598
 30
0.0
 11
145.5
 21
225.5794621189598
 31
0.0
  0
INSERT
  5
1DA1
330
2798
100
AcDbEntity
  8
SIZE
 62
     0
100
AcDbBlockReference
  2
_DOTBLANK
 10
-157.5
 20
225.5794621189598
 30
0.0
 41
12.0
 42
12.0
 43
12.0
 50
180.0
  0
INSERT
  5
1DA2
330
2798
100
AcDbEntity
  8
SIZE
 62
     0
100
AcDbBlockReference
  2
_DOTBLANK
 10
157.5
 20
225.5794621189598
 30
0.0
 41
12.0
 42
12.0
 43
12.0
  0
INSERT
  5
1DA3
330
2798
100
AcDbEntity
  8
0
100
AcDbBlockReference
  2
*U58
 10
0.0
 20
0.0
 30
0.0
  0
POINT
  5
1DA4
330
2798
100
AcDbEntity
  8
DEFPOINTS
 62
     0
100
AcDbPoint
 10
-157.5
 20
0.0
 30
0.0
  0
POINT
  5
1DA5
330
2798
100
AcDbEntity
  8
DEFPOINTS
 62
     0
100
AcDbPoint
 10
157.5
 20
0.0
 30
0.0
  0
POINT
  5
1DA6
330
2798
100
AcDbEntity
  8
DEFPOINTS
 62
     0
100
AcDbPoint
 10
157.5
 20
225.5794621189598
 30
0.0
  0
ENDBLK
  5
1761
330
2798
100
AcDbEntity
  8
0
100
AcDbBlockEnd
  0
BLOCK
  5
279B
330
279A
100
AcDbEntity
  8
0
100
AcDbBlockBegin
  2
*U58
 70
     1
 10
0.0
 20
0.0
 30
0.0
  3
*U58
  1

  0
TEXT
  5
1F3D
330
279A
100
AcDbEntity
  8
SIZE
 62
     0
100
AcDbText
 10
-68.57142857142857
 20
235.5794621189599
 30
0.0
 40
64.0
  1
315
 41
0.9
100
AcDbText
  0
ENDBLK
  5
1F3F
330
279A
100
AcDbEntity
  8
0
100
AcDbBlockEnd
  0
BLOCK
  5
279D
330
279C
100
AcDbEntity
  8
0
100
AcDbBlockBegin
  2
*D59
 70
     1
 10
0.0
 20
0.0
 30
0.0
  3
*D59
  1

  0
LINE
  5
1DA7
330
279C
100
AcDbEntity
  8
SIZE
 62
     0
100
AcDbLine
 10
-177.5
 20
0.0000000000000057
 30
0.0
 11
-314.0264221186908
 21
0.0000000000000443
 31
0.0
  0
LINE
  5
1DA8
330
279C
100
AcDbEntity
  8
SIZE
 62
     0
100
AcDbLine
 10
-177.5
 20
-7.999999999999993
 30
0.0
 11
-314.0264221186908
 21
-7.999999999999958
 31
0.0
  0
LINE
  5
1DA9
330
279C
100
AcDbEntity
  8
SIZE
 62
     0
100
AcDbLine
 10
-294.0264221186908
 20
12.00000000000003
 30
0.0
 11
-294.0264221186908
 21
24.00000000000004
 31
0.0
  0
LINE
  5
1DAA
330
279C
100
AcDbEntity
  8
SIZE
 62
     0
100
AcDbLine
 10
-294.0264221186908
 20
-19.99999999999996
 30
0.0
 11
-294.0264221186908
 21
-90.39999999999997
 31
0.0
  0
INSERT
  5
1DAB
330
279C
100
AcDbEntity
  8
SIZE
 62
     0
100
AcDbBlockReference
  2
_DOTBLANK
 10
-294.0264221186908
 20
0.0000000000000387
 30
0.0
 41
12.0
 42
12.0
 43
12.0
 50
270.0
  0
INSERT
  5
1DAC
330
279C
100
AcDbEntity
  8
SIZE
 62
     0
100
AcDbBlockReference
  2
_DOTBLANK
 10
-294.0264221186908
 20
-7.999999999999961
 30
0.0
 41
12.0
 42
12.0
 43
12.0
 50
90.0
  0
INSERT
  5
1DAD
330
279C
100
AcDbEntity
  8
0
100
AcDbBlockReference
  2
*U60
 10
0.0
 20
0.0
 30
0.0
  0
POINT
  5
1DAE
330
279C
100
AcDbEntity
  8
DEFPOINTS
 62
     0
100
AcDbPoint
 10
-157.5
 20
0.0
 30
0.0
  0
POINT
  5
1DAF
330
279C
100
AcDbEntity
  8
DEFPOINTS
 62
     0
100
AcDbPoint
 10
-157.5
 20
-8.000000000000003
 30
0.0
  0
POINT
  5
1DB0
330
279C
100
AcDbEntity
  8
DEFPOINTS
 62
     0
100
AcDbPoint
 10
-294.0264221186908
 20
-7.999999999999961
 30
0.0
  0
ENDBLK
  5
176D
330
279C
100
AcDbEntity
  8
0
100
AcDbBlockEnd
  0
BLOCK
  5
279F
330
279E
100
AcDbEntity
  8
0
100
AcDbBlockBegin
  2
*U60
 70
     1
 10
0.0
 20
0.0
 30
0.0
  3
*U60
  1

  0
TEXT
  5
1F41
330
279E
100
AcDbEntity
  8
SIZE
 62
     0
100
AcDbText
 10
-304.0264221186908
 20
-80.4
 30
0.0
 40
64.0
  1
8
 50
90.0
 41
0.9
100
AcDbText
  0
ENDBLK
  5
1F43
330
279E
100
AcDbEntity
  8
0
100
AcDbBlockEnd
  0
BLOCK
  5
27A1
330
27A0
100
AcDbEntity
  8
0
100
AcDbBlockBegin
  2
*D61
 70
     1
 10
0.0
 20
0.0
 30
0.0
  3
*D61
  1

  0
LINE
  5
1DB1
330
27A0
100
AcDbEntity
  8
SIZE
 62
     0
100
AcDbLine
 10
154.5
 20
-300.0
 30
0.0
 11
304.6432844803785
 21
-300.0
 31
0.0
  0
LINE
  5
1DB2
330
27A0
100
AcDbEntity
  8
SIZE
 62
     0
100
AcDbLine
 10
143.5
 20
-312.0
 30
0.0
 11
304.6432844803785
 21
-312.0
 31
0.0
  0
LINE
  5
1DB3
330
27A0
100
AcDbEntity
  8
SIZE
 62
     0
100
AcDbLine
 10
284.6432844803785
 20
-288.0
 30
0.0
 11
284.6432844803785
 21
-276.0
 31
0.0
  0
LINE
  5
1DB4
330
27A0
100
AcDbEntity
  8
SIZE
 62
     0
100
AcDbLine
 10
284.6432844803785
 20
-324.0000000000001
 30
0.0
 11
284.6432844803784
 21
-438.2857142857143
 31
0.0
  0
INSERT
  5
1DB5
330
27A0
100
AcDbEntity
  8
SIZE
 62
     0
100
AcDbBlockReference
  2
_DOTBLANK
 10
284.6432844803785
 20
-300.0
 30
0.0
 41
12.0
 42
12.0
 43
12.0
 50
270.0
  0
INSERT
  5
1DB6
330
27A0
100
AcDbEntity
  8
SIZE
 62
     0
100
AcDbBlockReference
  2
_DOTBLANK
 10
284.6432844803785
 20
-312.0
 30
0.0
 41
12.0
 42
12.0
 43
12.0
 50
90.0
  0
INSERT
  5
1DB7
330
27A0
100
AcDbEntity
  8
0
100
AcDbBlockReference
  2
*U62
 10
0.0
 20
0.0
 30
0.0
  0
POINT
  5
1DB8
330
27A0
100
AcDbEntity
  8
DEFPOINTS
 62
     0
100
AcDbPoint
 10
134.5
 20
-300.0
 30
0.0
  0
POINT
  5
1DB9
330
27A0
100
AcDbEntity
  8
DEFPOINTS
 62
     0
100
AcDbPoint
 10
123.5
 20
-312.0
 30
0.0
  0
POINT
  5
1DBA
330
27A0
100
AcDbEntity
  8
DEFPOINTS
 62
     0
100
AcDbPoint
 10
284.6432844803785
 20
-312.0
 30
0.0
  0
ENDBLK
  5
177B
330
27A0
100
AcDbEntity
  8
0
100
AcDbBlockEnd
  0
BLOCK
  5
27A3
330
27A2
100
AcDbEntity
  8
0
100
AcDbBlockBegin
  2
*U62
 70
     1
 10
0.0
 20
0.0
 30
0.0
  3
*U62
  1

  0
TEXT
  5
1F45
330
27A2
100
AcDbEntity
  8
SIZE
 62
     0
100
AcDbText
 10
274.6432844803785
 20
-428.2857142857142
 30
0.0
 40
64.0
  1
12
 50
90.0
 41
0.9
100
AcDbText
  0
ENDBLK
  5
1F47
330
27A2
100
AcDbEntity
  8
0
100
AcDbBlockEnd
  0
BLOCK
  5
27A5
330
27A4
100
AcDbEntity
  8
0
100
AcDbBlockBegin
  2
*U63
 70
     1
 10
0.0
 20
0.0
 30
0.0
  3
*U63
  1

  0
ENDBLK
  5
1D57
330
27A4
100
AcDbEntity
  8
0
100
AcDbBlockEnd
  0
BLOCK
  5
27A7
330
27A6
100
AcDbEntity
  8
0
100
AcDbBlockBegin
  2
*U64
 70
     1
 10
0.0
 20
0.0
 30
0.0
  3
*U64
  1

  0
INSERT
  5
2088
330
27A6
100
AcDbEntity
  8
NOTE
100
AcDbBlockReference
  2
_OPEN30
 10
-140.0
 20
0.0
 30
0.0
 41
12.0
 42
12.0
 43
12.0
 50
312.6090116116894
  0
POLYLINE
  5
2089
330
27A6
100
AcDbEntity
  8
NOTE
100
AcDb2dPolyline
 66
     1
 10
0.0
 20
0.0
 30
0.0
  0
VERTEX
  5
2124
330
2089
100
AcDbEntity
  8
NOTE
100
AcDbVertex
100
AcDb2dVertex
 10
-148.1239008361894
 20
8.831887408915472
 30
0.0
  0
VERTEX
  5
2125
330
2089
100
AcDbEntity
  8
NOTE
100
AcDbVertex
100
AcDb2dVertex
 10
-227.8693999922543
 20
95.52709505801338
 30
0.0
  0
VERTEX
  5
2126
330
2089
100
AcDbEntity
  8
NOTE
100
AcDbVertex
100
AcDb2dVertex
 10
-773.7093999922541
 20
95.52709505801338
 30
0.0
  0
SEQEND
  5
2127
330
2089
100
AcDbEntity
  8
NOTE
  0
ENDBLK
  5
208A
330
27A6
100
AcDbEntity
  8
0
100
AcDbBlockEnd
  0
BLOCK
  5
27A9
330
27A8
100
AcDbEntity
  8
0
100
AcDbBlockBegin
  2
*U65
 70
     1
 10
0.0
 20
0.0
 30
0.0
  3
*U65
  1

  0
TEXT
  5
208D
330
27A8
100
AcDbEntity
  8
NOTE
100
AcDbText
 10
-773.7093999922541
 20
113.5270950580134
 30
0.0
 40
64.0
  1
4×φ10取付穴
 41
0.9
100
AcDbText
  0
ENDBLK
  5
208E
330
27A8
100
AcDbEntity
  8
0
100
AcDbBlockEnd
  0
BLOCK
  5
27AB
330
27AA
100
AcDbEntity
  8
0
100
AcDbBlockBegin
  2
*U66
 70
     1
 10
0.0
 20
0.0
 30
0.0
  3
*U66
  1

  0
INSERT
  5
25A0
330
27AA
100
AcDbEntity
  8
NOTE
100
AcDbBlockReference
  2
_OPEN30
 10
-605.0
 20
0.0
 30
0.0
 41
12.0
 42
12.0
 43
12.0
 50
312.6090116116894
  0
POLYLINE
  5
25A1
330
27AA
100
AcDbEntity
  8
NOTE
100
AcDb2dPolyline
 66
     1
 10
0.0
 20
0.0
 30
0.0
  0
VERTEX
  5
25A2
330
25A1
100
AcDbEntity
  8
NOTE
100
AcDbVertex
100
AcDb2dVertex
 10
-613.1239008361895
 20
8.831887408915475
 30
0.0
  0
VERTEX
  5
25A3
330
25A1
100
AcDbEntity
  8
NOTE
100
AcDbVertex
100
AcDb2dVertex
 10
-692.8693999922542
 20
95.52709505801338
 30
0.0
  0
VERTEX
  5
25A4
330
25A1
100
AcDbEntity
  8
NOTE
100
AcDbVertex
100
AcDb2dVertex
 10
-1282.595114277969
 20
95.52709505801338
 30
0.0
  0
SEQEND
  5
25A5
330
25A1
100
AcDbEntity
  8
NOTE
  0
ENDBLK
  5
25A6
330
27AA
100
AcDbEntity
  8
0
100
AcDbBlockEnd
  0
BLOCK
  5
27AD
330
27AC
100
AcDbEntity
  8
0
100
AcDbBlockBegin
  2
*U67
 70
     1
 10
0.0
 20
0.0
 30
0.0
  3
*U67
  1

  0
TEXT
  5
25A9
330
27AC
100
AcDbEntity
  8
NOTE
100
AcDbText
 10
-1282.595114277969
 20
113.5270950580134
 30
0.0
 40
64.0
  1
10×φ15取付穴
 41
0.9
100
AcDbText
  0
ENDBLK
  5
25AA
330
27AC
100
AcDbEntity
  8
0
100
AcDbBlockEnd
  0
ENDSEC
  0
SECTION
  2
ENTITIES
  0
TEXT
  5
953
330
26DD
100
AcDbEntity
  8
OUTLINE
  6
Continuous
 62
     3
100
AcDbText
 10
-418.231467
 20
13.715189
 30
0.0
 40
64.0
  1
 
 41
0.9
100
AcDbText
  0
TEXT
  5
954
330
26DD
100
AcDbEntity
  8
OUTLINE
  6
Continuous
 62
     3
100
AcDbText
 10
-418.231467
 20
13.715189
 30
0.0
 40
64.0
  1
 
 41
0.9
100
AcDbText
  0
TEXT
  5
955
330
26DD
100
AcDbEntity
  8
OUTLINE
  6
Continuous
 62
     3
100
AcDbText
 10
1341.41903
 20
-706.0588199999997
 30
0.0
 40
64.0
  1
 
 41
0.9
100
AcDbText
  0
TEXT
  5
956
330
26DD
100
AcDbEntity
  8
OUTLINE
  6
Continuous
 62
     3
100
AcDbText
 10
1341.41903
 20
-706.0588199999997
 30
0.0
 40
64.0
  1
 
 41
0.9
100
AcDbText
  0
TEXT
  5
957
330
26DD
100
AcDbEntity
  8
OUTLINE
  6
Continuous
 62
     3
100
AcDbText
 10
1341.41903
 20
-706.0588199999997
 30
0.0
 40
64.0
  1
 
 41
0.9
100
AcDbText
  0
TEXT
  5
958
330
26DD
100
AcDbEntity
  8
OUTLINE
  6
Continuous
 62
     3
100
AcDbText
 10
1341.41903
 20
-706.0588199999997
 30
0.0
 40
64.0
  1
 
 41
0.9
100
AcDbText
  0
TEXT
  5
25F3
330
26DD
100
AcDbEntity
  8
ETC
100
AcDbText
 10
926.5062273280047
 20
639.6154363524592
 30
0.0
 40
64.0
  1
システム部材
 41
0.9
100
AcDbText
  0
POINT
  5
25F4
330
26DD
100
AcDbEntity
  8
ARRANGE
100
AcDbPoint
 10
0.0
 20
0.0
 30
0.0
 39
50.0
  0
CIRCLE
  5
25F5
330
26DD
100
AcDbEntity
  8
ARRANGE
100
AcDbCircle
 10
0.0
 20
0.0
 30
0.0
 40
40.0
  0
LINE
  5
25F6
330
26DD
100
AcDbEntity
  8
BASIS
100
AcDbLine
 10
0.0
 20
25.0
 30
0.0
 11
0.0000186224460776
 21
-1095.0
 31
0.0
  0
TEXT
  5
25F7
330
26DD
100
AcDbEntity
  8
ETC
100
AcDbText
 10
932.7142253280042
 20
740.4987623524593
 30
0.0
 40
64.0
  1
W-105SA-A_1
 41
0.9
100
AcDbText
  0
LINE
  5
25F8
330
26DD
100
AcDbEntity
  8
DETAIL
100
AcDbLine
 10
591.5
 20
-1.5
 30
0.0
 11
591.5
 21
-1070.0
 31
0.0
  0
LINE
  5
25F9
330
26DD
100
AcDbEntity
  8
DETAIL
100
AcDbLine
 10
-591.499961904763
 20
-1.5
 30
0.0
 11
-591.499961904763
 21
-1070.0
 31
0.0
  0
LINE
  5
25FA
330
26DD
100
AcDbEntity
  8
DETAIL
100
AcDbLine
 10
-591.499961904763
 20
-1070.0
 30
0.0
 11
591.5
 21
-1070.0
 31
0.0
  0
LINE
  5
25FB
330
26DD
100
AcDbEntity
  8
DETAIL
100
AcDbLine
 10
630.0
 20
0.0
 30
0.0
 11
-630.0
 21
0.0
 31
0.0
  0
LINE
  5
25FC
330
26DD
100
AcDbEntity
  8
DETAIL
100
AcDbLine
 10
630.0
 20
-1.5
 30
0.0
 11
-630.0
 21
-1.5
 31
0.0
  0
LINE
  5
25FD
330
26DD
100
AcDbEntity
  8
NOTE
100
AcDbLine
 10
-605.0
 20
-12.5
 30
0.0
 11
-605.0
 21
12.5
 31
0.0
  0
LINE
  5
25FE
330
26DD
100
AcDbEntity
  8
DETAIL
100
AcDbLine
 10
-630.0
 20
-1.5
 30
0.0
 11
-630.0
 21
0.0
 31
0.0
  0
LINE
  5
25FF
330
26DD
100
AcDbEntity
  8
NOTE
100
AcDbLine
 10
-375.0
 20
-12.5
 30
0.0
 11
-375.0
 21
12.5
 31
0.0
  0
LINE
  5
2600
330
26DD
100
AcDbEntity
  8
NOTE
100
AcDbLine
 10
375.0
 20
-12.5
 30
0.0
 11
375.0
 21
12.5
 31
0.0
  0
LINE
  5
2601
330
26DD
100
AcDbEntity
  8
NOTE
100
AcDbLine
 10
605.0
 20
-12.5
 30
0.0
 11
605.0
 21
12.5
 31
0.0
  0
LINE
  5
2602
330
26DD
100
AcDbEntity
  8
DETAIL
100
AcDbLine
 10
630.0
 20
-1.5
 30
0.0
 11
630.0
 21
0.0
 31
0.0
  0
TEXT
  5
2603
330
26DD
100
AcDbEntity
  8
ETC
100
AcDbText
 10
932.7142253280042
 20
540.4987623524593
 30
0.0
 40
64.0
  1
W-105SA-A
 41
0.9
100
AcDbText
  0
INSERT
  5
2604
330
26DD
100
AcDbEntity
  8
0
100
AcDbBlockReference
  2
*U66
 10
0.0
 20
0.0
 30
0.0
1001
ACAD
1000
DSTYLE
1002
{
1070
    41
1040
12.0
1070
    42
1040
20.0
1070
    43
1040
200.0
1070
    44
1040
20.0
1070
    73
1070
     0
1070
    74
1070
     0
1070
    77
1070
     1
1070
    78
1070
     8
1070
   140
1040
64.0
1070
   147
1040
50.0
1070
   172
1070
     1
1070
   174
1070
     1
1070
   275
1070
     0
1070
   284
1070
     0
1070
   285
1070
     0
1070
   286
1070
     0
1070
   341
1005
0
1070
   342
1005
0
1002
}
  0
INSERT
  5
2605
330
26DD
100
AcDbEntity
  8
0
100
AcDbBlockReference
  2
*U67
 10
0.0
 20
0.0
 30
0.0
  0
LINE
  5
2606
330
26DD
100
AcDbEntity
  8
NOTE
100
AcDbLine
 39
50.0
 10
592.4999999999996
 20
0.0
 30
0.0
 11
617.4999999999997
 21
0.0
 31
0.0
  0
LINE
  5
2607
330
26DD
100
AcDbEntity
  8
NOTE
100
AcDbLine
 39
50.0
 10
362.5
 20
0.0
 30
0.0
 11
387.5
 21
0.0
 31
0.0
  0
LINE
  5
2608
330
26DD
100
AcDbEntity
  8
NOTE
100
AcDbLine
 39
50.0
 10
-387.5
 20
0.0
 30
0.0
 11
-362.5
 21
0.0
 31
0.0
  0
LINE
  5
2609
330
26DD
100
AcDbEntity
  8
NOTE
100
AcDbLine
 39
50.0
 10
-617.4999999999998
 20
0.0
 30
0.0
 11
-592.4999999999998
 21
0.0
 31
0.0
  0
LINE
  5
260A
330
26DD
100
AcDbEntity
  8
OUTLINE
100
AcDbLine
 39
50.0
 10
-630.0
 20
0.0
 30
0.0
 11
630.0
 21
0.0
 31
0.0
  0
LINE
  5
260B
330
26DD
100
AcDbEntity
  8
OUTLINE
100
AcDbLine
 10
591.5
 20
-1.5
 30
0.0
 11
591.5
 21
-1070.0
 31
0.0
  0
LINE
  5
260C
330
26DD
100
AcDbEntity
  8
OUTLINE
100
AcDbLine
 10
-591.499961904763
 20
-1.5
 30
0.0
 11
-591.499961904763
 21
-1070.0
 31
0.0
  0
LINE
  5
260D
330
26DD
100
AcDbEntity
  8
OUTLINE
100
AcDbLine
 10
-591.499961904763
 20
-1070.0
 30
0.0
 11
591.5
 21
-1070.0
 31
0.0
  0
LINE
  5
260E
330
26DD
100
AcDbEntity
  8
OUTLINE
100
AcDbLine
 10
630.0
 20
-1.5
 30
0.0
 11
-630.0
 21
-1.5
 31
0.0
  0
LINE
  5
260F
330
26DD
100
AcDbEntity
  8
OUTLINE
100
AcDbLine
 10
-630.0
 20
-1.5
 30
0.0
 11
-630.0
 21
0.0
 31
0.0
  0
LINE
  5
2610
330
26DD
100
AcDbEntity
  8
OUTLINE
100
AcDbLine
 10
630.0
 20
-1.5
 30
0.0
 11
630.0
 21
0.0
 31
0.0
  0
LINE
  5
2611
330
26DD
100
AcDbEntity
  8
SIZE
100
AcDbLine
 10
-375.0
 20
32.5
 30
0.0
 11
-375.0
 21
213.872152432993
 31
0.0
  0
LINE
  5
2612
330
26DD
100
AcDbEntity
  8
SIZE
100
AcDbLine
 10
375.0
 20
32.5
 30
0.0
 11
375.0
 21
213.872152432993
 31
0.0
  0
LINE
  5
2613
330
26DD
100
AcDbEntity
  8
SIZE
100
AcDbLine
 10
-363.0
 20
193.872152432993
 30
0.0
 11
363.0
 21
193.872152432993
 31
0.0
  0
INSERT
  5
2614
330
26DD
100
AcDbEntity
  8
SIZE
100
AcDbBlockReference
  2
_DOTBLANK
 10
-375.0
 20
193.872152432993
 30
0.0
 41
12.0
 42
12.0
 43
12.0
 50
180.0
  0
INSERT
  5
2615
330
26DD
100
AcDbEntity
  8
SIZE
100
AcDbBlockReference
  2
_DOTBLANK
 10
375.0
 20
193.872152432993
 30
0.0
 41
12.0
 42
12.0
 43
12.0
  0
LINE
  5
2616
330
26DD
100
AcDbEntity
  8
SIZE
100
AcDbLine
 10
-630.0
 20
20.0
 30
0.0
 11
-630.0
 21
506.1061517672023
 31
0.0
  0
LINE
  5
2617
330
26DD
100
AcDbEntity
  8
SIZE
100
AcDbLine
 10
630.0
 20
20.0
 30
0.0
 11
630.0
 21
506.1061517672023
 31
0.0
  0
LINE
  5
2618
330
26DD
100
AcDbEntity
  8
SIZE
100
AcDbLine
 10
-618.0
 20
486.106151767202
 30
0.0
 11
618.0
 21
486.106151767202
 31
0.0
  0
INSERT
  5
2619
330
26DD
100
AcDbEntity
  8
SIZE
100
AcDbBlockReference
  2
_DOTBLANK
 10
-630.0
 20
486.106151767202
 30
0.0
 41
12.0
 42
12.0
 43
12.0
 50
180.0
  0
INSERT
  5
261A
330
26DD
100
AcDbEntity
  8
SIZE
100
AcDbBlockReference
  2
_DOTBLANK
 10
630.0
 20
486.106151767202
 30
0.0
 41
12.0
 42
12.0
 43
12.0
  0
LINE
  5
261B
330
26DD
100
AcDbEntity
  8
SIZE
100
AcDbLine
 10
-605.0
 20
32.5
 30
0.0
 11
-605.0
 21
360.2650884586228
 31
0.0
  0
LINE
  5
261C
330
26DD
100
AcDbEntity
  8
SIZE
100
AcDbLine
 10
605.0
 20
32.5
 30
0.0
 11
605.0
 21
360.2650884586228
 31
0.0
  0
LINE
  5
261D
330
26DD
100
AcDbEntity
  8
SIZE
100
AcDbLine
 10
-593.0
 20
340.2650884586228
 30
0.0
 11
593.0
 21
340.2650884586228
 31
0.0
  0
INSERT
  5
261E
330
26DD
100
AcDbEntity
  8
SIZE
100
AcDbBlockReference
  2
_DOTBLANK
 10
-605.0
 20
340.2650884586228
 30
0.0
 41
12.0
 42
12.0
 43
12.0
 50
180.0
  0
INSERT
  5
261F
330
26DD
100
AcDbEntity
  8
SIZE
100
AcDbBlockReference
  2
_DOTBLANK
 10
605.0
 20
340.2650884586228
 30
0.0
 41
12.0
 42
12.0
 43
12.0
  0
LINE
  5
2620
330
26DD
100
AcDbEntity
  8
SIZE
100
AcDbLine
 10
611.5
 20
-1070.0
 30
0.0
 11
893.0337513016851
 21
-1070.0
 31
0.0
  0
LINE
  5
2621
330
26DD
100
AcDbEntity
  8
SIZE
100
AcDbLine
 10
650.0
 20
0.0
 30
0.0
 11
893.0337513016862
 21
0.0
 31
0.0
  0
LINE
  5
2622
330
26DD
100
AcDbEntity
  8
SIZE
100
AcDbLine
 10
873.033751301685
 20
-1058.0
 30
0.0
 11
873.0337513016861
 21
-12.0
 31
0.0
  0
INSERT
  5
2623
330
26DD
100
AcDbEntity
  8
SIZE
100
AcDbBlockReference
  2
_DOTBLANK
 10
873.033751301685
 20
-1070.0
 30
0.0
 41
12.0
 42
12.0
 43
12.0
 50
270.0
  0
INSERT
  5
2624
330
26DD
100
AcDbEntity
  8
SIZE
100
AcDbBlockReference
  2
_DOTBLANK
 10
873.0337513016861
 20
0.0
 30
0.0
 41
12.0
 42
12.0
 43
12.0
 50
90.0
  0
LINE
  5
2625
330
26DD
100
AcDbEntity
  8
SIZE
100
AcDbLine
 10
-591.499961904763
 20
-1090.0
 30
0.0
 11
-591.499961904763
 21
-1308.118822758957
 31
0.0
  0
LINE
  5
2626
330
26DD
100
AcDbEntity
  8
SIZE
100
AcDbLine
 10
591.5
 20
-1090.0
 30
0.0
 11
591.5
 21
-1308.118822758957
 31
0.0
  0
LINE
  5
2627
330
26DD
100
AcDbEntity
  8
SIZE
100
AcDbLine
 10
-579.499961904763
 20
-1288.118822758957
 30
0.0
 11
579.4999999999996
 21
-1288.118822758957
 31
0.0
  0
INSERT
  5
2628
330
26DD
100
AcDbEntity
  8
SIZE
100
AcDbBlockReference
  2
_DOTBLANK
 10
-591.499961904763
 20
-1288.118822758957
 30
0.0
 41
12.0
 42
12.0
 43
12.0
 50
180.0
  0
INSERT
  5
2629
330
26DD
100
AcDbEntity
  8
SIZE
100
AcDbBlockReference
  2
_DOTBLANK
 10
591.5
 20
-1288.118822758957
 30
0.0
 41
12.0
 42
12.0
 43
12.0
  0
TEXT
  5
262A
330
26DD
100
AcDbEntity
  8
SIZE
100
AcDbText
 10
-94.21235690118964
 20
-1278.118822758957
 30
0.0
 40
64.0
  1
1183
 41
0.9
100
AcDbText
  0
TEXT
  5
262B
330
26DD
100
AcDbEntity
  8
SIZE
100
AcDbText
 10
863.0337513016861
 20
-599.0242123496191
 30
0.0
 40
64.0
  1
1070
 50
90.0
 41
0.9
100
AcDbText
  0
TEXT
  5
262C
330
26DD
100
AcDbEntity
  8
SIZE
100
AcDbText
 10
-74.05714285714293
 20
203.8721524329931
 30
0.0
 40
64.0
  1
750
 41
0.9
100
AcDbText
  0
TEXT
  5
262D
330
26DD
100
AcDbEntity
  8
SIZE
100
AcDbText
 10
-92.19968771365214
 20
350.2650884586228
 30
0.0
 40
64.0
  1
1210
 41
0.9
100
AcDbText
  0
TEXT
  5
262E
330
26DD
100
AcDbEntity
  8
SIZE
100
AcDbText
 10
-91.63242314065792
 20
496.106151767202
 30
0.0
 40
64.0
  1
1260
 41
0.9
100
AcDbText
  0
ENDSEC
  0
SECTION
  2
OBJECTS
  0
DICTIONARY
  5
2675
330
0
100
AcDbDictionary
281
     1
  3
ACAD_2007HEADERVARS_RT
350
28C0
  3
ACAD_COLOR
350
26D3
  3
ACAD_GROUP
350
2676
  3
ACAD_LAYOUT
350
26D2
  3
ACAD_MATERIAL
350
2679
  3
ACAD_MLEADERSTYLE
350
26D6
  3
ACAD_MLINESTYLE
350
26CF
  3
ACAD_PLOTSETTINGS
350
26D1
  3
ACAD_PLOTSTYLENAME
350
2677
  3
ACAD_SCALELIST
350
26A3
  3
ACAD_TABLESTYLE
350
26D4
  3
ACAD_VISUALSTYLE
350
2692
  3
ACDB_RECOMPOSE_DATA
350
28BE
  3
AcDbVariableDictionary
350
28B5
  3
AcmDictionary
350
2861
  3
AMG
350
27AE
  3
AMGSNAPSETTINGS
350
2889
  3
DWGPROPS
350
28BF
  3
MAPISURF_MODULE
350
282E
  0
DICTIONARY
  5
2890
330
26C5
100
AcDbDictionary
280
     1
281
     1
  3
ADSK_XREC_LAYER_RECONCILED
360
2891
  0
DICTIONARY
  5
2892
330
26F4
100
AcDbDictionary
280
     1
281
     1
  3
ADSK_XREC_LAYER_RECONCILED
360
2893
  0
DICTIONARY
  5
2894
330
26F5
100
AcDbDictionary
280
     1
281
     1
  3
ADSK_XREC_LAYER_RECONCILED
360
2895
  0
DICTIONARY
  5
2896
330
26F6
100
AcDbDictionary
280
     1
281
     1
  3
ADSK_XREC_LAYER_RECONCILED
360
2897
  0
DICTIONARY
  5
2898
330
26F7
100
AcDbDictionary
280
     1
281
     1
  3
ADSK_XREC_LAYER_RECONCILED
360
2899
  0
DICTIONARY
  5
289A
330
26F8
100
AcDbDictionary
280
     1
281
     1
  3
ADSK_XREC_LAYER_RECONCILED
360
289B
  0
DICTIONARY
  5
289C
330
26FA
100
AcDbDictionary
280
     1
281
     1
  3
ADSK_XREC_LAYER_RECONCILED
360
289D
  0
DICTIONARY
  5
289E
330
26FB
100
AcDbDictionary
280
     1
281
     1
  3
ADSK_XREC_LAYER_RECONCILED
360
289F
  0
DICTIONARY
  5
28A0
330
26FC
100
AcDbDictionary
280
     1
281
     1
  3
ADSK_XREC_LAYER_RECONCILED
360
28A1
  0
DICTIONARY
  5
28A2
330
26FD
100
AcDbDictionary
280
     1
281
     1
  3
ADSK_XREC_LAYER_RECONCILED
360
28A3
  0
DICTIONARY
  5
28A4
330
26FE
100
AcDbDictionary
280
     1
281
     1
  3
ADSK_XREC_LAYER_RECONCILED
360
28A5
  0
DICTIONARY
  5
28A6
330
26DD
100
AcDbDictionary
280
     1
281
     1
  3
ACAD_INDEX
360
28A7
  0
DICTIONARY
  5
28C0
102
{ACAD_REACTORS
330
2675
102
}
330
2675
100
AcDbDictionary
281
     1
  3
DIMARCSYM
350
28C1
  3
DIMLTEX1
350
28C3
  3
DIMLTEX2
350
28C4
  3
DIMLTYPE
350
28C2
  0
DICTIONARY
  5
26D3
102
{ACAD_REACTORS
330
2675
102
}
330
2675
100
AcDbDictionary
281
     1
  0
DICTIONARY
  5
2676
102
{ACAD_REACTORS
330
2675
102
}
330
2675
100
AcDbDictionary
281
     1
  0
DICTIONARY
  5
26D2
102
{ACAD_REACTORS
330
2675
102
}
330
2675
100
AcDbDictionary
281
     1
  3
Model
350
26E0
  3
レイアウト1
350
26DC
  0
DICTIONARY
  5
2679
102
{ACAD_REACTORS
330
2675
102
}
330
2675
100
AcDbDictionary
281
     1
  3
ByBlock
350
2682
  3
ByLayer
350
267A
  3
Global
350
268A
  0
DICTIONARY
  5
26D6
102
{ACAD_REACTORS
330
2675
102
}
330
2675
100
AcDbDictionary
281
     1
  3
Standard
350
26D7
  0
DICTIONARY
  5
26CF
102
{ACAD_REACTORS
330
2675
102
}
330
2675
100
AcDbDictionary
281
     1
  3
Standard
350
26D0
  0
DICTIONARY
  5
26D1
102
{ACAD_REACTORS
330
2675
102
}
330
2675
100
AcDbDictionary
281
     1
  0
ACDBDICTIONARYWDFLT
  5
2677
102
{ACAD_REACTORS
330
2675
102
}
330
2675
100
AcDbDictionary
281
     1
  3
Normal
350
2678
100
AcDbDictionaryWithDefault
340
2678
  0
DICTIONARY
  5
26A3
102
{ACAD_REACTORS
330
2675
102
}
330
2675
100
AcDbDictionary
281
     1
  3
A0
350
26A4
  3
A1
350
26A5
  3
A2
350
26A6
  3
A3
350
26A7
  3
A4
350
26A8
  3
A5
350
26A9
  3
A6
350
26AA
  3
A7
350
26AB
  3
A8
350
26AC
  3
A9
350
26AD
  3
B0
350
26AE
  3
B1
350
26AF
  3
B2
350
26B0
  3
B3
350
26B1
  3
B4
350
26B2
  3
B5
350
26B3
  3
B6
350
26B4
  3
B7
350
26B5
  3
B8
350
26B6
  3
B9
350
26B7
  3
C0
350
26B8
  3
C1
350
26B9
  3
C2
350
26BA
  3
C3
350
26BB
  3
C4
350
26BC
  3
C5
350
26BD
  3
C6
350
26BE
  3
C7
350
26BF
  3
C8
350
26C0
  3
C9
350
26C1
  3
D0
350
26C2
  3
D1
350
26C3
  3
D2
350
26C4
  0
DICTIONARY
  5
26D4
102
{ACAD_REACTORS
330
2675
102
}
330
2675
100
AcDbDictionary
281
     1
  3
Standard
350
26D5
  0
DICTIONARY
  5
2692
102
{ACAD_REACTORS
330
2675
102
}
330
2675
100
AcDbDictionary
281
     1
  3
2dWireframe
350
2698
  3
3D Hidden
350
269A
  3
3dWireframe
350
2699
  3
Basic
350
2697
  3
Brighten
350
269E
  3
ColorChange
350
26A2
  3
Conceptual
350
269B
  3
Dim
350
269D
  3
Facepattern
350
26A1
  3
Flat
350
2693
  3
FlatWithEdges
350
2694
  3
Gouraud
350
2695
  3
GouraudWithEdges
350
2696
  3
Linepattern
350
26A0
  3
Realistic
350
269C
  3
Thicken
350
269F
  0
XRECORD
  5
28BE
102
{ACAD_REACTORS
330
2675
102
}
330
2675
100
AcDbXrecord
280
     1
 90
        1
330
26D5
  0
DICTIONARY
  5
28B5
102
{ACAD_REACTORS
330
2675
102
}
330
2675
100
AcDbDictionary
281
     1
  3
CANNOSCALE
350
28B8
  3
CMLEADERSTYLE
350
28B7
  3
CTABLESTYLE
350
28B6
  3
DIMASSOC
350
28BB
  3
INDEXCTL
350
28BA
  3
SORTENTS
350
28B9
  0
DICTIONARY
  5
2861
102
{ACAD_REACTORS
330
2675
102
}
330
2675
100
AcDbDictionary
281
     1
  3
AcmStdDictionary
350
286F
  0
DICTIONARY
  5
27AE
102
{ACAD_REACTORS
330
2675
102
}
330
2675
100
AcDbDictionary
281
     1
  3
AcMgSettings
350
27AF
  0
DICTIONARY
  5
2889
102
{ACAD_REACTORS
330
2675
102
}
330
2675
100
AcDbDictionary
281
     1
  3
DIMENSION
350
288E
  3
FEA
350
288D
  3
HATCH (1)
350
288A
  3
HATCH (2)
350
288B
  3
SIMPLE WELD
350
288F
  3
SYMBOLS
350
288C
  0
XRECORD
  5
28BF
102
{ACAD_REACTORS
330
2675
102
}
330
2675
100
AcDbXrecord
280
     1
  1
DWGPROPS COOKIE
  2

  3

  4

  6

  7

  8
A090053
  9

300
AmdtFileType=84
301
=
302
=
303
=
304
=
305
=
306
=
307
=
308
=
309
=
 40
1.040777210648148
 41
2452321.396199653
 42
2456210.596823507
  1

 90
        1
  0
XRECORD
  5
2891
102
{ACAD_REACTORS
330
2890
102
}
330
2890
100
AcDbXrecord
280
     1
290
     1
  0
XRECORD
  5
2893
102
{ACAD_REACTORS
330
2892
102
}
330
2892
100
AcDbXrecord
280
     1
290
     1
  0
XRECORD
  5
2895
102
{ACAD_REACTORS
330
2894
102
}
330
2894
100
AcDbXrecord
280
     1
290
     1
  0
XRECORD
  5
2897
102
{ACAD_REACTORS
330
2896
102
}
330
2896
100
AcDbXrecord
280
     1
290
     1
  0
XRECORD
  5
2899
102
{ACAD_REACTORS
330
2898
102
}
330
2898
100
AcDbXrecord
280
     1
290
     1
  0
XRECORD
  5
289B
102
{ACAD_REACTORS
330
289A
102
}
330
289A
100
AcDbXrecord
280
     1
290
     1
  0
XRECORD
  5
289D
102
{ACAD_REACTORS
330
289C
102
}
330
289C
100
AcDbXrecord
280
     1
290
     1
  0
XRECORD
  5
289F
102
{ACAD_REACTORS
330
289E
102
}
330
289E
100
AcDbXrecord
280
     1
290
     1
  0
XRECORD
  5
28A1
102
{ACAD_REACTORS
330
28A0
102
}
330
28A0
100
AcDbXrecord
280
     1
290
     1
  0
XRECORD
  5
28A3
102
{ACAD_REACTORS
330
28A2
102
}
330
28A2
100
AcDbXrecord
280
     1
290
     1
  0
XRECORD
  5
28A5
102
{ACAD_REACTORS
330
28A4
102
}
330
28A4
100
AcDbXrecord
280
     1
290
     1
  0
DICTIONARY
  5
28A7
102
{ACAD_REACTORS
330
28A6
102
}
330
28A6
100
AcDbDictionary
281
     1
  3
*A1
350
28A8
  0
XRECORD
  5
28C1
102
{ACAD_REACTORS
330
28C0
102
}
330
28C0
100
AcDbXrecord
280
     1
 70
     1
  0
XRECORD
  5
28C3
102
{ACAD_REACTORS
330
28C0
102
}
330
28C0
100
AcDbXrecord
280
     1
340
26CB
  0
XRECORD
  5
28C4
102
{ACAD_REACTORS
330
28C0
102
}
330
28C0
100
AcDbXrecord
280
     1
340
26CB
  0
XRECORD
  5
28C2
102
{ACAD_REACTORS
330
28C0
102
}
330
28C0
100
AcDbXrecord
280
     1
340
26CB
  0
LAYOUT
  5
26E0
102
{ACAD_XDICTIONARY
360
28CB
102
}
102
{ACAD_REACTORS
330
26D2
102
}
330
26D2
100
AcDbPlotSettings
  1

  2
自動 EPSON LP-9600S (W2450527 上)
  4

  6

 40
0.0
 41
0.0
 42
0.0
 43
0.0
 44
0.0
 45
0.0
 46
0.0
 47
0.0
 48
0.0
 49
0.0
140
0.0
141
0.0
142
1.0
143
1.0
 70
  1712
 72
     0
 73
     0
 74
     0
  7

 75
     0
147
1.0
148
0.0
149
0.0
100
AcDbLayout
  1
Model
 70
     1
 71
     0
 10
0.0
 20
0.0
 11
12.0
 21
9.0
 12
0.0
 22
0.0
 32
0.0
 14
0.0
 24
0.0
 34
0.0
 15
0.0
 25
0.0
 35
0.0
146
0.0
 13
0.0
 23
0.0
 33
0.0
 16
1.0
 26
0.0
 36
0.0
 17
0.0
 27
1.0
 37
0.0
 76
     0
330
26DD
331
26E1
  0
LAYOUT
  5
26DC
102
{ACAD_XDICTIONARY
360
28C9
102
}
102
{ACAD_REACTORS
330
26D2
102
}
330
26D2
100
AcDbPlotSettings
  1

  2
自動 EPSON LP-9600S (W2450527 上)
  4

  6

 40
0.0
 41
0.0
 42
0.0
 43
0.0
 44
0.0
 45
0.0
 46
0.0
 47
0.0
 48
0.0
 49
0.0
140
0.0
141
0.0
142
1.0
143
1.0
 70
   688
 72
     0
 73
     0
 74
     5
  7

 75
    16
147
1.0
148
0.0
149
0.0
100
AcDbLayout
  1
レイアウト1
 70
     1
 71
     1
 10
0.0
 20
0.0
 11
12.0
 21
9.0
 12
0.0
 22
0.0
 32
0.0
 14
1.000000000000000E+20
 24
1.000000000000000E+20
 34
1.000000000000000E+20
 15
-1.000000000000000E+20
 25
-1.000000000000000E+20
 35
-1.000000000000000E+20
146
0.0
 13
0.0
 23
0.0
 33
0.0
 16
1.0
 26
0.0
 36
0.0
 17
0.0
 27
1.0
 37
0.0
 76
     0
330
26D9
  0
MATERIAL
  5
2682
102
{ACAD_XDICTIONARY
360
2683
102
}
102
{ACAD_REACTORS
330
2679
102
}
330
2679
100
AcDbMaterial
  1
ByBlock
 72
     0
 43
0.0208333333333333
 43
0.0
 43
0.0
 43
0.0
 43
0.0
 43
0.0208333333333333
 43
0.0
 43
0.0
 43
0.0
 43
0.0
 43
1.0
 43
0.0
 43
0.0
 43
0.0
 43
0.0
 43
1.0
 77
     0
 47
0.0208333333333333
 47
0.0
 47
0.0
 47
0.0
 47
0.0
 47
0.0208333333333333
 47
0.0
 47
0.0
 47
0.0
 47
0.0
 47
1.0
 47
0.0
 47
0.0
 47
0.0
 47
0.0
 47
1.0
171
     0
 49
0.0208333333333333
 49
0.0
 49
0.0
 49
0.0
 49
0.0
 49
0.0208333333333333
 49
0.0
 49
0.0
 49
0.0
 49
0.0
 49
1.0
 49
0.0
 49
0.0
 49
0.0
 49
0.0
 49
1.0
175
     0
142
0.0208333333333333
142
0.0
142
0.0
142
0.0
142
0.0
142
0.0208333333333333
142
0.0
142
0.0
142
0.0
142
0.0
142
1.0
142
0.0
142
0.0
142
0.0
142
0.0
142
1.0
179
     0
144
0.0208333333333333
144
0.0
144
0.0
144
0.0
144
0.0
144
0.0208333333333333
144
0.0
144
0.0
144
0.0
144
0.0
144
1.0
144
0.0
144
0.0
144
0.0
144
0.0
144
1.0
147
0.0208333333333333
147
0.0
147
0.0
147
0.0
147
0.0
147
0.0208333333333333
147
0.0
147
0.0
147
0.0
147
0.0
147
1.0
147
0.0
147
0.0
147
0.0
147
0.0
147
1.0
  0
MATERIAL
  5
267A
102
{ACAD_XDICTIONARY
360
267B
102
}
102
{ACAD_REACTORS
330
2679
102
}
330
2679
100
AcDbMaterial
  1
ByLayer
 72
     0
 43
0.0208333333333333
 43
0.0
 43
0.0
 43
0.0
 43
0.0
 43
0.0208333333333333
 43
0.0
 43
0.0
 43
0.0
 43
0.0
 43
1.0
 43
0.0
 43
0.0
 43
0.0
 43
0.0
 43
1.0
 77
     0
 47
0.0208333333333333
 47
0.0
 47
0.0
 47
0.0
 47
0.0
 47
0.0208333333333333
 47
0.0
 47
0.0
 47
0.0
 47
0.0
 47
1.0
 47
0.0
 47
0.0
 47
0.0
 47
0.0
 47
1.0
171
     0
 49
0.0208333333333333
 49
0.0
 49
0.0
 49
0.0
 49
0.0
 49
0.0208333333333333
 49
0.0
 49
0.0
 49
0.0
 49
0.0
 49
1.0
 49
0.0
 49
0.0
 49
0.0
 49
0.0
 49
1.0
175
     0
142
0.0208333333333333
142
0.0
142
0.0
142
0.0
142
0.0
142
0.0208333333333333
142
0.0
142
0.0
142
0.0
142
0.0
142
1.0
142
0.0
142
0.0
142
0.0
142
0.0
142
1.0
179
     0
144
0.0208333333333333
144
0.0
144
0.0
144
0.0
144
0.0
144
0.0208333333333333
144
0.0
144
0.0
144
0.0
144
0.0
144
1.0
144
0.0
144
0.0
144
0.0
144
0.0
144
1.0
147
0.0208333333333333
147
0.0
147
0.0
147
0.0
147
0.0
147
0.0208333333333333
147
0.0
147
0.0
147
0.0
147
0.0
147
1.0
147
0.0
147
0.0
147
0.0
147
0.0
147
1.0
  0
MATERIAL
  5
268A
102
{ACAD_XDICTIONARY
360
268B
102
}
102
{ACAD_REACTORS
330
2679
102
}
330
2679
100
AcDbMaterial
  1
Global
 72
     0
 43
0.0208333333333333
 43
0.0
 43
0.0
 43
0.0
 43
0.0
 43
0.0208333333333333
 43
0.0
 43
0.0
 43
0.0
 43
0.0
 43
1.0
 43
0.0
 43
0.0
 43
0.0
 43
0.0
 43
1.0
 77
     0
 47
0.0208333333333333
 47
0.0
 47
0.0
 47
0.0
 47
0.0
 47
0.0208333333333333
 47
0.0
 47
0.0
 47
0.0
 47
0.0
 47
1.0
 47
0.0
 47
0.0
 47
0.0
 47
0.0
 47
1.0
171
     0
 49
0.0208333333333333
 49
0.0
 49
0.0
 49
0.0
 49
0.0
 49
0.0208333333333333
 49
0.0
 49
0.0
 49
0.0
 49
0.0
 49
1.0
 49
0.0
 49
0.0
 49
0.0
 49
0.0
 49
1.0
175
     0
142
0.0208333333333333
142
0.0
142
0.0
142
0.0
142
0.0
142
0.0208333333333333
142
0.0
142
0.0
142
0.0
142
0.0
142
1.0
142
0.0
142
0.0
142
0.0
142
0.0
142
1.0
179
     0
144
0.0208333333333333
144
0.0
144
0.0
144
0.0
144
0.0
144
0.0208333333333333
144
0.0
144
0.0
144
0.0
144
0.0
144
1.0
144
0.0
144
0.0
144
0.0
144
0.0
144
1.0
147
0.0208333333333333
147
0.0
147
0.0
147
0.0
147
0.0
147
0.0208333333333333
147
0.0
147
0.0
147
0.0
147
0.0
147
1.0
147
0.0
147
0.0
147
0.0
147
0.0
147
1.0
  0
MLEADERSTYLE
  5
26D7
102
{ACAD_REACTORS
330
26D6
102
}
330
26D6
100
AcDbMLeaderStyle
170
     2
171
     1
172
     0
 90
        2
 40
0.0
 41
0.0
173
     1
 91
-1056964608
340
26CB
 92
       -2
290
     1
 42
0.09
291
     1
 43
0.36
  3
Standard
 44
0.18
300

342
26C6
174
     1
178
     6
175
     1
176
     0
 93
-1056964608
 45
0.18
292
     0
297
     0
 46
0.18
 94
-1056964608
 47
1.0
 49
1.0
140
1.0
293
     1
141
0.0
294
     1
177
     0
142
1.0
295
     0
296
     0
143
0.125
1001
ACAD_MLEADERVER
1070
     2
  0
MLINESTYLE
  5
26D0
102
{ACAD_REACTORS
330
26CF
102
}
330
26CF
100
AcDbMlineStyle
  2
STANDARD
 70
     0
  3

 62
   256
 51
90.0
 52
90.0
 71
     2
 49
0.5
 62
   256
  6
BYLAYER
 49
-0.5
 62
   256
  6
BYLAYER
  0
ACDBPLACEHOLDER
  5
2678
102
{ACAD_REACTORS
330
2677
102
}
330
2677
  0
SCALE
  5
26A4
102
{ACAD_REACTORS
330
26A3
102
}
330
26A3
100
AcDbScale
 70
     0
300
1:1
140
1.0
141
1.0
290
     1
  0
SCALE
  5
26A5
102
{ACAD_REACTORS
330
26A3
102
}
330
26A3
100
AcDbScale
 70
     0
300
1:2
140
1.0
141
2.0
290
     0
  0
SCALE
  5
26A6
102
{ACAD_REACTORS
330
26A3
102
}
330
26A3
100
AcDbScale
 70
     0
300
1:4
140
1.0
141
4.0
290
     0
  0
SCALE
  5
26A7
102
{ACAD_REACTORS
330
26A3
102
}
330
26A3
100
AcDbScale
 70
     0
300
1:5
140
1.0
141
5.0
290
     0
  0
SCALE
  5
26A8
102
{ACAD_REACTORS
330
26A3
102
}
330
26A3
100
AcDbScale
 70
     0
300
1:8
140
1.0
141
8.0
290
     0
  0
SCALE
  5
26A9
102
{ACAD_REACTORS
330
26A3
102
}
330
26A3
100
AcDbScale
 70
     0
300
1:10
140
1.0
141
10.0
290
     0
  0
SCALE
  5
26AA
102
{ACAD_REACTORS
330
26A3
102
}
330
26A3
100
AcDbScale
 70
     0
300
1:16
140
1.0
141
16.0
290
     0
  0
SCALE
  5
26AB
102
{ACAD_REACTORS
330
26A3
102
}
330
26A3
100
AcDbScale
 70
     0
300
1:20
140
1.0
141
20.0
290
     0
  0
SCALE
  5
26AC
102
{ACAD_REACTORS
330
26A3
102
}
330
26A3
100
AcDbScale
 70
     0
300
1:30
140
1.0
141
30.0
290
     0
  0
SCALE
  5
26AD
102
{ACAD_REACTORS
330
26A3
102
}
330
26A3
100
AcDbScale
 70
     0
300
1:40
140
1.0
141
40.0
290
     0
  0
SCALE
  5
26AE
102
{ACAD_REACTORS
330
26A3
102
}
330
26A3
100
AcDbScale
 70
     0
300
1:50
140
1.0
141
50.0
290
     0
  0
SCALE
  5
26AF
102
{ACAD_REACTORS
330
26A3
102
}
330
26A3
100
AcDbScale
 70
     0
300
1:100
140
1.0
141
100.0
290
     0
  0
SCALE
  5
26B0
102
{ACAD_REACTORS
330
26A3
102
}
330
26A3
100
AcDbScale
 70
     0
300
2:1
140
2.0
141
1.0
290
     0
  0
SCALE
  5
26B1
102
{ACAD_REACTORS
330
26A3
102
}
330
26A3
100
AcDbScale
 70
     0
300
4:1
140
4.0
141
1.0
290
     0
  0
SCALE
  5
26B2
102
{ACAD_REACTORS
330
26A3
102
}
330
26A3
100
AcDbScale
 70
     0
300
8:1
140
8.0
141
1.0
290
     0
  0
SCALE
  5
26B3
102
{ACAD_REACTORS
330
26A3
102
}
330
26A3
100
AcDbScale
 70
     0
300
10:1
140
10.0
141
1.0
290
     0
  0
SCALE
  5
26B4
102
{ACAD_REACTORS
330
26A3
102
}
330
26A3
100
AcDbScale
 70
     0
300
100:1
140
100.0
141
1.0
290
     0
  0
SCALE
  5
26B5
102
{ACAD_REACTORS
330
26A3
102
}
330
26A3
100
AcDbScale
 70
     0
300
1/128" = 1'-0"
140
0.0078125
141
12.0
290
     0
  0
SCALE
  5
26B6
102
{ACAD_REACTORS
330
26A3
102
}
330
26A3
100
AcDbScale
 70
     0
300
1/64" = 1'-0"
140
0.015625
141
12.0
290
     0
  0
SCALE
  5
26B7
102
{ACAD_REACTORS
330
26A3
102
}
330
26A3
100
AcDbScale
 70
     0
300
1/32" = 1'-0"
140
0.03125
141
12.0
290
     0
  0
SCALE
  5
26B8
102
{ACAD_REACTORS
330
26A3
102
}
330
26A3
100
AcDbScale
 70
     0
300
1/16" = 1'-0"
140
0.0625
141
12.0
290
     0
  0
SCALE
  5
26B9
102
{ACAD_REACTORS
330
26A3
102
}
330
26A3
100
AcDbScale
 70
     0
300
3/32" = 1'-0"
140
0.09375
141
12.0
290
     0
  0
SCALE
  5
26BA
102
{ACAD_REACTORS
330
26A3
102
}
330
26A3
100
AcDbScale
 70
     0
300
1/8" = 1'-0"
140
0.125
141
12.0
290
     0
  0
SCALE
  5
26BB
102
{ACAD_REACTORS
330
26A3
102
}
330
26A3
100
AcDbScale
 70
     0
300
3/16" = 1'-0"
140
0.1875
141
12.0
290
     0
  0
SCALE
  5
26BC
102
{ACAD_REACTORS
330
26A3
102
}
330
26A3
100
AcDbScale
 70
     0
300
1/4" = 1'-0"
140
0.25
141
12.0
290
     0
  0
SCALE
  5
26BD
102
{ACAD_REACTORS
330
26A3
102
}
330
26A3
100
AcDbScale
 70
     0
300
3/8" = 1'-0"
140
0.375
141
12.0
290
     0
  0
SCALE
  5
26BE
102
{ACAD_REACTORS
330
26A3
102
}
330
26A3
100
AcDbScale
 70
     0
300
1/2" = 1'-0"
140
0.5
141
12.0
290
     0
  0
SCALE
  5
26BF
102
{ACAD_REACTORS
330
26A3
102
}
330
26A3
100
AcDbScale
 70
     0
300
3/4" = 1'-0"
140
0.75
141
12.0
290
     0
  0
SCALE
  5
26C0
102
{ACAD_REACTORS
330
26A3
102
}
330
26A3
100
AcDbScale
 70
     0
300
1" = 1'-0"
140
1.0
141
12.0
290
     0
  0
SCALE
  5
26C1
102
{ACAD_REACTORS
330
26A3
102
}
330
26A3
100
AcDbScale
 70
     0
300
1-1/2" = 1'-0"
140
1.5
141
12.0
290
     0
  0
SCALE
  5
26C2
102
{ACAD_REACTORS
330
26A3
102
}
330
26A3
100
AcDbScale
 70
     0
300
3" = 1'-0"
140
3.0
141
12.0
290
     0
  0
SCALE
  5
26C3
102
{ACAD_REACTORS
330
26A3
102
}
330
26A3
100
AcDbScale
 70
     0
300
6" = 1'-0"
140
6.0
141
12.0
290
     0
  0
SCALE
  5
26C4
102
{ACAD_REACTORS
330
26A3
102
}
330
26A3
100
AcDbScale
 70
     0
300
1'-0" = 1'-0"
140
12.0
141
12.0
290
     0
  0
TABLESTYLE
  5
26D5
102
{ACAD_XDICTIONARY
360
28BC
102
}
102
{ACAD_REACTORS
330
26D4
102
}
330
26D4
100
AcDbTableStyle
  3
Standard
 70
     0
 71
     0
 40
0.06
 41
0.06
280
     0
281
     0
  7
STANDARD
140
0.18
170
     2
 62
     0
 63
     7
283
     0
274
    -2
284
     1
 64
     0
275
    -2
285
     1
 65
     0
276
    -2
286
     1
 66
     0
277
    -2
287
     1
 67
     0
278
    -2
288
     1
 68
     0
279
    -2
289
     1
 69
     0
  7
STANDARD
140
0.25
170
     5
 62
     0
 63
     7
283
     0
274
    -2
284
     1
 64
     0
275
    -2
285
     1
 65
     0
276
    -2
286
     1
 66
     0
277
    -2
287
     1
 67
     0
278
    -2
288
     1
 68
     0
279
    -2
289
     1
 69
     0
  7
STANDARD
140
0.18
170
     5
 62
     0
 63
     7
283
     0
274
    -2
284
     1
 64
     0
275
    -2
285
     1
 65
     0
276
    -2
286
     1
 66
     0
277
    -2
287
     1
 67
     0
278
    -2
288
     1
 68
     0
279
    -2
289
     1
 69
     0
  0
VISUALSTYLE
  5
2698
102
{ACAD_REACTORS
330
2692
102
}
330
2692
100
AcDbVisualStyle
  2
2dWireframe
 70
     4
 71
     0
 72
     2
 73
     0
 90
        0
 40
-0.6
 41
-30.0
 62
     5
 63
     7
 74
     1
 91
        4
 64
     7
 65
   257
 75
     1
175
     1
 42
1.0
 92
        0
 66
   257
 43
1.0
 76
     1
 77
     6
 78
     2
 67
     7
 79
     5
170
     0
171
     0
290
     0
174
     0
 93
        1
 44
0.0
173
     0
291
     0
 45
0.0
1001
ACAD
1000
AcDbSavedByObjectVersion
1070
     0
  0
VISUALSTYLE
  5
269A
102
{ACAD_REACTORS
330
2692
102
}
330
2692
100
AcDbVisualStyle
  2
3D Hidden
 70
     6
 71
     1
 72
     2
 73
     2
 90
        0
 40
-0.6
 41
-30.0
 62
     5
 63
     7
 74
     2
 91
        2
 64
     7
 65
   257
 75
     2
175
     1
 42
40.0
 92
        0
 66
   257
 43
1.0
 76
     1
 77
     6
 78
     2
 67
     7
 79
     3
170
     0
171
     0
290
     0
174
     0
 93
        1
 44
0.0
173
     0
291
     0
 45
0.0
1001
ACAD
1000
AcDbSavedByObjectVersion
1070
     0
  0
VISUALSTYLE
  5
2699
102
{ACAD_REACTORS
330
2692
102
}
330
2692
100
AcDbVisualStyle
  2
3dWireframe
 70
     5
 71
     0
 72
     2
 73
     0
 90
        0
 40
-0.6
 41
-30.0
 62
     5
 63
     7
 74
     1
 91
        4
 64
     7
 65
   257
 75
     1
175
     1
 42
1.0
 92
        0
 66
   257
 43
1.0
 76
     1
 77
     6
 78
     2
 67
     7
 79
     5
170
     0
171
     0
290
     0
174
     0
 93
        1
 44
0.0
173
     0
291
     0
 45
0.0
1001
ACAD
1000
AcDbSavedByObjectVersion
1070
     0
  0
VISUALSTYLE
  5
2697
102
{ACAD_REACTORS
330
2692
102
}
330
2692
100
AcDbVisualStyle
  2
Basic
 70
     7
 71
     1
 72
     0
 73
     1
 90
        0
 40
-0.6
 41
-30.0
 62
     5
 63
     7
 74
     0
 91
        4
 64
     7
 65
   257
 75
     1
175
     1
 42
1.0
 92
        8
 66
     7
 43
1.0
 76
     1
 77
     6
 78
     2
 67
     7
 79
     5
170
     0
171
     0
290
     0
174
     0
 93
        1
 44
0.0
173
     0
291
     1
 45
0.0
1001
ACAD
1000
AcDbSavedByObjectVersion
1070
     0
  0
VISUALSTYLE
  5
269E
102
{ACAD_REACTORS
330
2692
102
}
330
2692
100
AcDbVisualStyle
  2
Brighten
 70
    12
 71
     2
 72
     2
 73
     0
 90
        0
 40
-0.6
 41
-30.0
 62
     5
 63
     7
 74
     1
 91
        4
 64
     7
 65
   257
 75
     1
175
     1
 42
1.0
 92
        8
 66
     7
 43
1.0
 76
     1
 77
     6
 78
     2
 67
     7
 79
     5
170
     0
171
     0
290
     0
174
     0
 93
        1
 44
50.0
173
     0
291
     1
 45
0.0
1001
ACAD
1000
AcDbSavedByObjectVersion
1070
     0
  0
VISUALSTYLE
  5
26A2
102
{ACAD_REACTORS
330
2692
102
}
330
2692
100
AcDbVisualStyle
  2
ColorChange
 70
    16
 71
     2
 72
     2
 73
     3
 90
        0
 40
-0.6
 41
-30.0
 62
     5
 63
     8
 74
     1
 91
        4
 64
     7
 65
   257
 75
     1
175
     1
 42
1.0
 92
        8
 66
     8
 43
1.0
 76
     1
 77
     6
 78
     2
 67
     7
 79
     5
170
     0
171
     0
290
     0
174
     0
 93
        1
 44
0.0
173
     0
291
     1
 45
0.0
1001
ACAD
1000
AcDbSavedByObjectVersion
1070
     0
  0
VISUALSTYLE
  5
269B
102
{ACAD_REACTORS
330
2692
102
}
330
2692
100
AcDbVisualStyle
  2
Conceptual
 70
     9
 71
     3
 72
     2
 73
     0
 90
        0
 40
-0.6
 41
-30.0
 62
     5
 63
     7
 74
     2
 91
        2
 64
     7
 65
   257
 75
     1
175
     1
 42
40.0
 92
        8
 66
     7
 43
1.0
 76
     1
 77
     6
 78
     2
 67
     7
 79
     3
170
     0
171
     0
290
     0
174
     0
 93
        1
 44
0.0
173
     0
291
     0
 45
0.0
1001
ACAD
1000
AcDbSavedByObjectVersion
1070
     0
  0
VISUALSTYLE
  5
269D
102
{ACAD_REACTORS
330
2692
102
}
330
2692
100
AcDbVisualStyle
  2
Dim
 70
    11
 71
     2
 72
     2
 73
     0
 90
        0
 40
-0.6
 41
-30.0
 62
     5
 63
     7
 74
     1
 91
        4
 64
     7
 65
   257
 75
     1
175
     1
 42
1.0
 92
        8
 66
     7
 43
1.0
 76
     1
 77
     6
 78
     2
 67
     7
 79
     5
170
     0
171
     0
290
     0
174
     0
 93
        1
 44
-50.0
173
     0
291
     1
 45
0.0
1001
ACAD
1000
AcDbSavedByObjectVersion
1070
     0
  0
VISUALSTYLE
  5
26A1
102
{ACAD_REACTORS
330
2692
102
}
330
2692
100
AcDbVisualStyle
  2
Facepattern
 70
    15
 71
     2
 72
     2
 73
     0
 90
        0
 40
-0.6
 41
-30.0
 62
     5
 63
     7
 74
     1
 91
        4
 64
     7
 65
   257
 75
     1
175
     1
 42
1.0
 92
        8
 66
     7
 43
1.0
 76
     1
 77
     6
 78
     2
 67
     7
 79
     5
170
     0
171
     0
290
     0
174
     0
 93
        1
 44
0.0
173
     0
291
     1
 45
0.0
1001
ACAD
1000
AcDbSavedByObjectVersion
1070
     0
  0
VISUALSTYLE
  5
2693
102
{ACAD_REACTORS
330
2692
102
}
330
2692
100
AcDbVisualStyle
  2
Flat
 70
     0
 71
     2
 72
     1
 73
     1
 90
        2
 40
-0.6
 41
30.0
 62
     5
 63
     7
 74
     0
 91
        4
 64
     7
 65
   257
 75
     1
175
     1
 42
1.0
 92
        8
 66
     7
 43
1.0
 76
     1
 77
     6
 78
     2
 67
     7
 79
     5
170
     0
171
     0
290
     0
174
     0
 93
       13
 44
0.0
173
     0
291
     1
 45
0.0
1001
ACAD
1000
AcDbSavedByObjectVersion
1070
     0
  0
VISUALSTYLE
  5
2694
102
{ACAD_REACTORS
330
2692
102
}
330
2692
100
AcDbVisualStyle
  2
FlatWithEdges
 70
     1
 71
     2
 72
     1
 73
     1
 90
        2
 40
-0.6
 41
30.0
 62
     5
 63
     7
 74
     1
 91
        4
 64
     7
 65
   257
 75
     1
175
     1
 42
1.0
 92
        0
 66
   257
 43
1.0
 76
     1
 77
     6
 78
     2
 67
     7
 79
     5
170
     0
171
     0
290
     0
174
     0
 93
       13
 44
0.0
173
     0
291
     1
 45
0.0
1001
ACAD
1000
AcDbSavedByObjectVersion
1070
     0
  0
VISUALSTYLE
  5
2695
102
{ACAD_REACTORS
330
2692
102
}
330
2692
100
AcDbVisualStyle
  2
Gouraud
 70
     2
 71
     2
 72
     2
 73
     1
 90
        2
 40
-0.6
 41
30.0
 62
     5
 63
     7
 74
     0
 91
        4
 64
     7
 65
   257
 75
     1
175
     1
 42
1.0
 92
        0
 66
     7
 43
1.0
 76
     1
 77
     6
 78
     2
 67
     7
 79
     5
170
     0
171
     0
290
     0
174
     0
 93
       13
 44
0.0
173
     0
291
     1
 45
0.0
1001
ACAD
1000
AcDbSavedByObjectVersion
1070
     0
  0
VISUALSTYLE
  5
2696
102
{ACAD_REACTORS
330
2692
102
}
330
2692
100
AcDbVisualStyle
  2
GouraudWithEdges
 70
     3
 71
     2
 72
     2
 73
     1
 90
        2
 40
-0.6
 41
30.0
 62
     5
 63
     7
 74
     1
 91
        4
 64
     7
 65
   257
 75
     1
175
     1
 42
1.0
 92
        0
 66
   257
 43
1.0
 76
     1
 77
     6
 78
     2
 67
     7
 79
     5
170
     0
171
     0
290
     0
174
     0
 93
       13
 44
0.0
173
     0
291
     1
 45
0.0
1001
ACAD
1000
AcDbSavedByObjectVersion
1070
     0
  0
VISUALSTYLE
  5
26A0
102
{ACAD_REACTORS
330
2692
102
}
330
2692
100
AcDbVisualStyle
  2
Linepattern
 70
    14
 71
     2
 72
     2
 73
     0
 90
        0
 40
-0.6
 41
-30.0
 62
     5
 63
     7
 74
     1
 91
        4
 64
     7
 65
   257
 75
     7
175
     7
 42
1.0
 92
        8
 66
     7
 43
1.0
 76
     1
 77
     6
 78
     2
 67
     7
 79
     5
170
     0
171
     0
290
     0
174
     0
 93
        1
 44
0.0
173
     0
291
     1
 45
0.0
1001
ACAD
1000
AcDbSavedByObjectVersion
1070
     0
  0
VISUALSTYLE
  5
269C
102
{ACAD_REACTORS
330
2692
102
}
330
2692
100
AcDbVisualStyle
  2
Realistic
 70
     8
 71
     2
 72
     2
 73
     0
 90
        0
 40
-0.6
 41
-30.0
 62
     5
 63
     7
 74
     1
 91
        0
 64
     7
 65
   257
 75
     1
175
     1
 42
1.0
 92
        8
 66
     8
 43
1.0
 76
     1
 77
     6
 78
     2
 67
     7
 79
     5
170
     0
171
     0
290
     0
174
     0
 93
       13
 44
0.0
173
     0
291
     0
 45
0.0
1001
ACAD
1000
AcDbSavedByObjectVersion
1070
     0
  0
VISUALSTYLE
  5
269F
102
{ACAD_REACTORS
330
2692
102
}
330
2692
100
AcDbVisualStyle
  2
Thicken
 70
    13
 71
     2
 72
     2
 73
     0
 90
        0
 40
-0.6
 41
-30.0
 62
     5
 63
     7
 74
     1
 91
        4
 64
     7
 65
   257
 75
     1
175
     1
 42
1.0
 92
       12
 66
     7
 43
1.0
 76
     1
 77
     6
 78
     2
 67
     7
 79
     5
170
     0
171
     0
290
     0
174
     0
 93
        1
 44
0.0
173
     0
291
     1
 45
0.0
1001
ACAD
1000
AcDbSavedByObjectVersion
1070
     0
  0
DICTIONARYVAR
  5
28B8
102
{ACAD_REACTORS
330
28B5
102
}
330
28B5
100
DictionaryVariables
280
     0
  1
1:1
  0
DICTIONARYVAR
  5
28B7
102
{ACAD_REACTORS
330
28B5
102
}
330
28B5
100
DictionaryVariables
280
     0
  1
STANDARD
  0
DICTIONARYVAR
  5
28B6
102
{ACAD_REACTORS
330
28B5
102
}
330
28B5
100
DictionaryVariables
280
     0
  1
STANDARD
  0
DICTIONARYVAR
  5
28BB
102
{ACAD_REACTORS
330
28B5
102
}
330
28B5
100
DictionaryVariables
280
     0
  1
1
  0
DICTIONARYVAR
  5
28BA
102
{ACAD_REACTORS
330
28B5
102
}
330
28B5
100
DictionaryVariables
280
     0
  1
1
  0
DICTIONARYVAR
  5
28B9
102
{ACAD_REACTORS
330
28B5
102
}
330
28B5
100
DictionaryVariables
280
     0
  1
127
  0
DICTIONARY
  5
286F
102
{ACAD_REACTORS
330
2861
102
}
330
2861
100
AcDbDictionary
281
     1
  0
DICTIONARY
  5
27AF
102
{ACAD_REACTORS
330
27AE
102
}
330
27AE
100
AcDbDictionary
281
     1
  3
DWGSETTINGS
350
27B0
  3
TRANSSETTINGS
350
27B1
  0
ACAMGFILTERDAT
  5
288E
102
{ACAD_REACTORS
330
2889
102
}
330
2889
100
AcAmgFilterDat
 70
    15
  1
DIMENSION,AMDT_*_DIM
  2
*
  3
*
  4
*
  5
*
290
     1
  0
ACAMGFILTERDAT
  5
288D
102
{ACAD_REACTORS
330
2889
102
}
330
2889
100
AcAmgFilterDat
 70
    15
  1
*
  2
AM_FEA-AM_*
  3
*
  4
*
  5
*
290
     1
  0
ACAMGFILTERDAT
  5
288A
102
{ACAD_REACTORS
330
2889
102
}
330
2889
100
AcAmgFilterDat
 70
    15
  1
HATCH
  2
*
  3
*
  4
*
  5
*
290
     1
  0
ACAMGFILTERDAT
  5
288B
102
{ACAD_REACTORS
330
2889
102
}
330
2889
100
AcAmgFilterDat
 70
    15
  1
LINE
  2
8,8N,*-8,*-8N,AM_8,AM_8N,*-AM_8,*-AM_8N
  3
*
  4
*
  5
INSERT,STDPART2D
290
     1
  0
ACAMGFILTERDAT
  5
288F
102
{ACAD_REACTORS
330
2889
102
}
330
2889
100
AcAmgFilterDat
 70
    15
  1
ARC
  2
AM_5
  3
*
  4
2
  5
INSERT
290
     0
  0
ACAMGFILTERDAT
  5
288C
102
{ACAD_REACTORS
330
2889
102
}
330
2889
100
AcAmgFilterDat
 70
    15
  1
ACMFCFRAME,ACMDATUMTARGET,ACMDATUMID,ACMWELDSYM,ACMSURFSYM,ACMFEATID,ACMPARTREF,ACMBALLOON,AMDTEDGESYM,AMGSCREWCALCTABLE,ACMMARKSTAMP
  2
*
  3
*
  4
*
  5
*
290
     1
  0
LAYER_INDEX
  5
28A8
102
{ACAD_REACTORS
330
28A7
102
}
330
28A7
100
AcDbIndex
 40
2456210.596823507
100
AcDbLayerIndex
  8
0
360
28A9
 90
        2
  8
OUTLINE
360
28AA
 90
       13
  8
SIZE
360
28AB
 90
       30
  8
BASIS
360
28AC
 90
        1
  8
DETAIL
360
28AD
 90
        7
  8
ARRANGE
360
28AE
 90
        2
  8
DEFPOINTS
360
28AF
 90
        0
  8
ETC
360
28B0
 90
        3
  8
FIX
360
28B1
 90
        0
  8
NOTE
360
28B2
 90
        8
  8
SERVICESPACE
360
28B3
 90
        0
  8
SYMBOLLINE
360
28B4
 90
        0
  0
DICTIONARY
  5
28CB
330
26E0
100
AcDbDictionary
280
     1
281
     1
  3
ACAD_XREC_ROUNDTRIP
360
28CC
  0
DICTIONARY
  5
28C9
330
26DC
100
AcDbDictionary
280
     1
281
     1
  3
ACAD_XREC_ROUNDTRIP
360
28CA
  0
DICTIONARY
  5
2683
330
2682
100
AcDbDictionary
280
     1
281
     1
  3
ACAD_XREC_ROUNDTRIP
360
28C6
  3
BUMPTILE
360
2685
  3
DIFFUSETILE
360
2684
  3
OPACITYTILE
360
2688
  3
REFLECTIONTILE
360
2687
  3
REFRACTIONTILE
360
2689
  3
SPECULARTILE
360
2686
  0
DICTIONARY
  5
267B
330
267A
100
AcDbDictionary
280
     1
281
     1
  3
ACAD_XREC_ROUNDTRIP
360
28C5
  3
BUMPTILE
360
267D
  3
DIFFUSETILE
360
267C
  3
OPACITYTILE
360
2680
  3
REFLECTIONTILE
360
267F
  3
REFRACTIONTILE
360
2681
  3
SPECULARTILE
360
267E
  0
DICTIONARY
  5
268B
330
268A
100
AcDbDictionary
280
     1
281
     1
  3
ACAD_XREC_ROUNDTRIP
360
28C7
  3
BUMPTILE
360
268D
  3
DIFFUSETILE
360
268C
  3
OPACITYTILE
360
2690
  3
REFLECTIONTILE
360
268F
  3
REFRACTIONTILE
360
2691
  3
SPECULARTILE
360
268E
  0
DICTIONARY
  5
28BC
330
26D5
100
AcDbDictionary
280
     1
281
     1
  3
ACAD_ROUNDTRIP_2008_TABLESTYLE_CELLSTYLEMAP
360
28BD
  3
ACAD_XREC_ROUNDTRIP
360
28C8
  0
IDBUFFER
  5
28A9
330
0
100
AcDbIdBuffer
330
2604
330
2605
  0
IDBUFFER
  5
28AA
330
0
100
AcDbIdBuffer
330
953
330
954
330
955
330
956
330
957
330
958
330
260A
330
260B
330
260C
330
260D
330
260E
330
260F
330
2610
  0
IDBUFFER
  5
28AB
330
0
100
AcDbIdBuffer
330
2621
330
2622
330
2623
330
2624
330
2625
330
2626
330
2627
330
2628
330
2629
330
262A
330
262B
330
262C
330
262D
330
262E
330
2611
330
2612
330
2613
330
2614
330
2615
330
2616
330
2617
330
2618
330
2619
330
261A
330
261B
330
261C
330
261D
330
261E
330
261F
330
2620
  0
IDBUFFER
  5
28AC
330
0
100
AcDbIdBuffer
330
25F6
  0
IDBUFFER
  5
28AD
330
0
100
AcDbIdBuffer
330
25F8
330
25F9
330
25FA
330
25FB
330
25FC
330
25FE
330
2602
  0
IDBUFFER
  5
28AE
330
0
100
AcDbIdBuffer
330
25F4
330
25F5
  0
IDBUFFER
  5
28AF
330
0
100
AcDbIdBuffer
  0
IDBUFFER
  5
28B0
330
0
100
AcDbIdBuffer
330
25F3
330
25F7
330
2603
  0
IDBUFFER
  5
28B1
330
0
100
AcDbIdBuffer
  0
IDBUFFER
  5
28B2
330
0
100
AcDbIdBuffer
330
25FD
330
25FF
330
2600
330
2601
330
2606
330
2607
330
2608
330
2609
  0
IDBUFFER
  5
28B3
330
0
100
AcDbIdBuffer
  0
IDBUFFER
  5
28B4
330
0
100
AcDbIdBuffer
  0
XRECORD
  5
28CC
102
{ACAD_REACTORS
330
28CB
102
}
330
28CB
100
AcDbXrecord
280
     1
102
SHADEPLOT
 70
     0
102
SHADEPLOTRESLEVEL
 70
     2
102
SHADEPLOTCUSTOMDPI
 70
   300
  0
XRECORD
  5
28CA
102
{ACAD_REACTORS
330
28C9
102
}
330
28C9
100
AcDbXrecord
280
     1
102
SHADEPLOT
 70
     0
102
SHADEPLOTRESLEVEL
 70
     2
102
SHADEPLOTCUSTOMDPI
 70
   300
  0
XRECORD
  5
28C6
102
{ACAD_REACTORS
330
2683
102
}
330
2683
100
AcDbXrecord
280
     1
102
MATERIAL
148
0.0
149
0.0
149
0.0
 93
        0
 94
      127
282
     0
 72
     0
 77
     0
171
     0
175
     0
179
     0
273
     0
  0
XRECORD
  5
2685
102
{ACAD_REACTORS
330
2683
102
}
330
2683
100
AcDbXrecord
280
     1
270
     1
271
     1
  0
XRECORD
  5
2684
102
{ACAD_REACTORS
330
2683
102
}
330
2683
100
AcDbXrecord
280
     1
270
     1
271
     1
  0
XRECORD
  5
2688
102
{ACAD_REACTORS
330
2683
102
}
330
2683
100
AcDbXrecord
280
     1
270
     1
271
     1
  0
XRECORD
  5
2687
102
{ACAD_REACTORS
330
2683
102
}
330
2683
100
AcDbXrecord
280
     1
270
     1
271
     1
  0
XRECORD
  5
2689
102
{ACAD_REACTORS
330
2683
102
}
330
2683
100
AcDbXrecord
280
     1
270
     1
271
     1
  0
XRECORD
  5
2686
102
{ACAD_REACTORS
330
2683
102
}
330
2683
100
AcDbXrecord
280
     1
270
     1
271
     1
  0
XRECORD
  5
28C5
102
{ACAD_REACTORS
330
267B
102
}
330
267B
100
AcDbXrecord
280
     1
102
MATERIAL
148
0.0
149
0.0
149
0.0
 93
        0
 94
      127
282
     0
 72
     0
 77
     0
171
     0
175
     0
179
     0
273
     0
  0
XRECORD
  5
267D
102
{ACAD_REACTORS
330
267B
102
}
330
267B
100
AcDbXrecord
280
     1
270
     1
271
     1
  0
XRECORD
  5
267C
102
{ACAD_REACTORS
330
267B
102
}
330
267B
100
AcDbXrecord
280
     1
270
     1
271
     1
  0
XRECORD
  5
2680
102
{ACAD_REACTORS
330
267B
102
}
330
267B
100
AcDbXrecord
280
     1
270
     1
271
     1
  0
XRECORD
  5
267F
102
{ACAD_REACTORS
330
267B
102
}
330
267B
100
AcDbXrecord
280
     1
270
     1
271
     1
  0
XRECORD
  5
2681
102
{ACAD_REACTORS
330
267B
102
}
330
267B
100
AcDbXrecord
280
     1
270
     1
271
     1
  0
XRECORD
  5
267E
102
{ACAD_REACTORS
330
267B
102
}
330
267B
100
AcDbXrecord
280
     1
270
     1
271
     1
  0
XRECORD
  5
28C7
102
{ACAD_REACTORS
330
268B
102
}
330
268B
100
AcDbXrecord
280
     1
102
MATERIAL
148
0.0
149
0.0
149
0.0
 93
        0
 94
      127
282
     0
 72
     0
 77
     0
171
     0
175
     0
179
     0
273
     0
  0
XRECORD
  5
268D
102
{ACAD_REACTORS
330
268B
102
}
330
268B
100
AcDbXrecord
280
     1
270
     1
271
     1
  0
XRECORD
  5
268C
102
{ACAD_REACTORS
330
268B
102
}
330
268B
100
AcDbXrecord
280
     1
270
     1
271
     1
  0
XRECORD
  5
2690
102
{ACAD_REACTORS
330
268B
102
}
330
268B
100
AcDbXrecord
280
     1
270
     1
271
     1
  0
XRECORD
  5
268F
102
{ACAD_REACTORS
330
268B
102
}
330
268B
100
AcDbXrecord
280
     1
270
     1
271
     1
  0
XRECORD
  5
2691
102
{ACAD_REACTORS
330
268B
102
}
330
268B
100
AcDbXrecord
280
     1
270
     1
271
     1
  0
XRECORD
  5
268E
102
{ACAD_REACTORS
330
268B
102
}
330
268B
100
AcDbXrecord
280
     1
270
     1
271
     1
  0
CELLSTYLEMAP
  5
28BD
102
{ACAD_REACTORS
330
28BC
102
}
330
28BC
100
AcDbCellStyleMap
 90
        3
300
CELLSTYLE
  1
TABLEFORMAT_BEGIN
 90
        5
170
     1
 91
        0
 92
    32768
 62
   257
 93
        1
300
CONTENTFORMAT
  1
CONTENTFORMAT_BEGIN
 90
        0
 91
        0
 92
      512
 93
        0
300

 40
0.0
140
1.0
 94
        5
 62
     0
340
26C6
144
0.25
309
CONTENTFORMAT_END
171
     0
 94
        0
309
TABLEFORMAT_END
  1
CELLSTYLE_BEGIN
 90
        1
 91
        1
300
_TITLE
309
CELLSTYLE_END
300
CELLSTYLE
  1
TABLEFORMAT_BEGIN
 90
        5
170
     1
 91
        0
 92
        0
 62
   257
 93
        1
300
CONTENTFORMAT
  1
CONTENTFORMAT_BEGIN
 90
        0
 91
        0
 92
      512
 93
        0
300

 40
0.0
140
1.0
 94
        5
 62
     0
340
26C6
144
0.18
309
CONTENTFORMAT_END
171
     0
 94
        0
309
TABLEFORMAT_END
  1
CELLSTYLE_BEGIN
 90
        2
 91
        1
300
_HEADER
309
CELLSTYLE_END
300
CELLSTYLE
  1
TABLEFORMAT_BEGIN
 90
        5
170
     1
 91
        0
 92
        0
 62
   257
 93
        1
300
CONTENTFORMAT
  1
CONTENTFORMAT_BEGIN
 90
        0
 91
        0
 92
      512
 93
        0
300

 40
0.0
140
1.0
 94
        2
 62
     0
340
26C6
144
0.18
309
CONTENTFORMAT_END
171
     0
 94
        0
309
TABLEFORMAT_END
  1
CELLSTYLE_BEGIN
 90
        3
 91
        2
300
_DATA
309
CELLSTYLE_END
  0
XRECORD
  5
28C8
102
{ACAD_REACTORS
330
28BC
102
}
330
28BC
100
AcDbXrecord
280
     1
102
ACAD_ROUNDTRIP_PRE2007_TABLESTYLE
 90
      512
 91
        0
  1

 92
      512
 93
        0
  2

 94
      512
 95
        0
  3

  0
ENDSEC
  0
EOF
