  0
SECTION
  2
HEADER
  9
$ACADVER
  1
AC1015
  9
$ACADMAINTVER
 70
    20
  9
$DWGCODEPAGE
  3
ANSI_932
  9
$INSBASE
 10
0.0
 20
0.0
 30
0.0
  9
$EXTMIN
 10
-1207.740767809728
 20
-1250.015248020663
 30
-0.0022882129575947
  9
$EXTMAX
 10
1296.112072428352
 20
451.4923174300839
 30
50.00228914432991
  9
$LIMMIN
 10
-2970.0
 20
-2100.0
  9
$LIMMAX
 10
2970.0
 20
2100.0
  9
$ORTHOMODE
 70
     1
  9
$REGENMODE
 70
     0
  9
$FILLMODE
 70
     1
  9
$QTEXTMODE
 70
     0
  9
$MIRRTEXT
 70
     0
  9
$LTSCALE
 40
20.0
  9
$ATTMODE
 70
     1
  9
$TEXTSIZE
 40
64.0
  9
$TRACEWID
 40
0.05
  9
$TEXTSTYLE
  7
STANDARD
  9
$CLAYER
  8
0
  9
$CELTYPE
  6
ByLayer
  9
$CECOLOR
 62
   256
  9
$CELTSCALE
 40
1.0
  9
$DISPSILH
 70
     0
  9
$DIMSCALE
 40
1.0
  9
$DIMASZ
 40
0.12
  9
$DIMEXO
 40
0.05
  9
$DIMDLI
 40
0.5
  9
$DIMRND
 40
0.0
  9
$DIMDLE
 40
0.0
  9
$DIMEXE
 40
0.1
  9
$DIMTP
 40
0.1
  9
$DIMTM
 40
0.1
  9
$DIMTXT
 40
0.12
  9
$DIMCEN
 40
0.0
  9
$DIMTSZ
 40
0.0
  9
$DIMTOL
 70
     0
  9
$DIMLIM
 70
     0
  9
$DIMTIH
 70
     1
  9
$DIMTOH
 70
     1
  9
$DIMSE1
 70
     0
  9
$DIMSE2
 70
     0
  9
$DIMTAD
 70
     0
  9
$DIMZIN
 70
     7
  9
$DIMBLK
  1

  9
$DIMASO
 70
     1
  9
$DIMSHO
 70
     0
  9
$DIMPOST
  1

  9
$DIMAPOST
  1
mm
  9
$DIMALT
 70
     0
  9
$DIMALTD
 70
     2
  9
$DIMALTF
 40
25.4
  9
$DIMLFAC
 40
1.0
  9
$DIMTOFL
 70
     0
  9
$DIMTVP
 40
0.0
  9
$DIMTIX
 70
     0
  9
$DIMSOXD
 70
     0
  9
$DIMSAH
 70
     0
  9
$DIMBLK1
  1

  9
$DIMBLK2
  1

  9
$DIMSTYLE
  2
AM_ANSI
  9
$DIMCLRD
 70
   256
  9
$DIMCLRE
 70
   256
  9
$DIMCLRT
 70
     2
  9
$DIMTFAC
 40
0.71
  9
$DIMGAP
 40
0.06
  9
$DIMJUST
 70
     0
  9
$DIMSD1
 70
     0
  9
$DIMSD2
 70
     0
  9
$DIMTOLJ
 70
     1
  9
$DIMTZIN
 70
     7
  9
$DIMALTZ
 70
     0
  9
$DIMALTTZ
 70
     0
  9
$DIMUPT
 70
     0
  9
$DIMDEC
 70
     4
  9
$DIMTDEC
 70
     4
  9
$DIMALTU
 70
     2
  9
$DIMALTTD
 70
     4
  9
$DIMTXSTY
  7
STANDARD
  9
$DIMAUNIT
 70
     0
  9
$DIMADEC
 70
     0
  9
$DIMALTRND
 40
0.0
  9
$DIMAZIN
 70
     2
  9
$DIMDSEP
 70
    46
  9
$DIMATFIT
 70
     3
  9
$DIMFRAC
 70
     0
  9
$DIMLDRBLK
  1

  9
$DIMLUNIT
 70
     2
  9
$DIMLWD
 70
    -1
  9
$DIMLWE
 70
    -1
  9
$DIMTMOVE
 70
     0
  9
$LUNITS
 70
     2
  9
$LUPREC
 70
     4
  9
$SKETCHINC
 40
0.1
  9
$FILLETRAD
 40
4.0
  9
$AUNITS
 70
     1
  9
$AUPREC
 70
     3
  9
$MENU
  1
ACAD
  9
$ELEVATION
 40
0.0
  9
$PELEVATION
 40
0.0
  9
$THICKNESS
 40
50.0
  9
$LIMCHECK
 70
     0
  9
$CHAMFERA
 40
0.0
  9
$CHAMFERB
 40
0.0
  9
$CHAMFERC
 40
0.0
  9
$CHAMFERD
 40
0.0
  9
$SKPOLY
 70
     0
  9
$TDCREATE
 40
2452321.396199653
  9
$TDUCREATE
 40
2452321.021199653
  9
$TDUPDATE
 40
2456210.475831586
  9
$TDUUPDATE
 40
2456210.100831586
  9
$TDINDWG
 40
1.0416441898
  9
$TDUSRTIMER
 40
1.0416382523
  9
$USRTIMER
 70
     1
  9
$ANGBASE
 50
0.0
  9
$ANGDIR
 70
     0
  9
$PDMODE
 70
     3
  9
$PDSIZE
 40
-2.0
  9
$PLINEWID
 40
0.0
  9
$SPLFRAME
 70
     0
  9
$SPLINETYPE
 70
     6
  9
$SPLINESEGS
 70
     8
  9
$HANDSEED
  5
2D11
  9
$SURFTAB1
 70
     6
  9
$SURFTAB2
 70
     6
  9
$SURFTYPE
 70
     6
  9
$SURFU
 70
     6
  9
$SURFV
 70
     6
  9
$UCSBASE
  2

  9
$UCSNAME
  2

  9
$UCSORG
 10
0.0
 20
0.0
 30
0.0
  9
$UCSXDIR
 10
1.0
 20
0.0
 30
0.0
  9
$UCSYDIR
 10
0.0
 20
1.0
 30
0.0
  9
$UCSORTHOREF
  2

  9
$UCSORTHOVIEW
 70
     0
  9
$UCSORGTOP
 10
0.0
 20
0.0
 30
0.0
  9
$UCSORGBOTTOM
 10
0.0
 20
0.0
 30
0.0
  9
$UCSORGLEFT
 10
0.0
 20
0.0
 30
0.0
  9
$UCSORGRIGHT
 10
0.0
 20
0.0
 30
0.0
  9
$UCSORGFRONT
 10
0.0
 20
0.0
 30
0.0
  9
$UCSORGBACK
 10
0.0
 20
0.0
 30
0.0
  9
$PUCSBASE
  2

  9
$PUCSNAME
  2

  9
$PUCSORG
 10
0.0
 20
0.0
 30
0.0
  9
$PUCSXDIR
 10
1.0
 20
0.0
 30
0.0
  9
$PUCSYDIR
 10
0.0
 20
1.0
 30
0.0
  9
$PUCSORTHOREF
  2

  9
$PUCSORTHOVIEW
 70
     0
  9
$PUCSORGTOP
 10
0.0
 20
0.0
 30
0.0
  9
$PUCSORGBOTTOM
 10
0.0
 20
0.0
 30
0.0
  9
$PUCSORGLEFT
 10
0.0
 20
0.0
 30
0.0
  9
$PUCSORGRIGHT
 10
0.0
 20
0.0
 30
0.0
  9
$PUCSORGFRONT
 10
0.0
 20
0.0
 30
0.0
  9
$PUCSORGBACK
 10
0.0
 20
0.0
 30
0.0
  9
$USERI1
 70
     0
  9
$USERI2
 70
     0
  9
$USERI3
 70
     0
  9
$USERI4
 70
     0
  9
$USERI5
 70
     0
  9
$USERR1
 40
20.0
  9
$USERR2
 40
0.0
  9
$USERR3
 40
0.0
  9
$USERR4
 40
0.0
  9
$USERR5
 40
0.0
  9
$WORLDVIEW
 70
     1
  9
$SHADEDGE
 70
     3
  9
$SHADEDIF
 70
    70
  9
$TILEMODE
 70
     1
  9
$MAXACTVP
 70
    64
  9
$PINSBASE
 10
0.0
 20
0.0
 30
0.0
  9
$PLIMCHECK
 70
     0
  9
$PEXTMIN
 10
1.000000000000000E+20
 20
1.000000000000000E+20
 30
1.000000000000000E+20
  9
$PEXTMAX
 10
-1.000000000000000E+20
 20
-1.000000000000000E+20
 30
-1.000000000000000E+20
  9
$PLIMMIN
 10
0.0
 20
0.0
  9
$PLIMMAX
 10
12.0
 20
9.0
  9
$UNITMODE
 70
     0
  9
$VISRETAIN
 70
     1
  9
$PLINEGEN
 70
     0
  9
$PSLTSCALE
 70
     1
  9
$TREEDEPTH
 70
  3020
  9
$CMLSTYLE
  2
Standard
  9
$CMLJUST
 70
     0
  9
$CMLSCALE
 40
1.0
  9
$PROXYGRAPHICS
 70
     1
  9
$MEASUREMENT
 70
     0
  9
$CELWEIGHT
370
    -1
  9
$ENDCAPS
280
     0
  9
$JOINSTYLE
280
     0
  9
$LWDISPLAY
290
     0
  9
$INSUNITS
 70
     0
  9
$HYPERLINKBASE
  1

  9
$STYLESHEET
  1

  9
$XEDIT
290
     1
  9
$CEPSNTYPE
380
     0
  9
$PSTYLEMODE
290
     1
  9
$FINGERPRINTGUID
  2
{F03348BA-D9F1-4CD3-8A0E-2D34D2AB11B6}
  9
$VERSIONGUID
  2
{B1777929-A1A3-43E9-AED2-E072B5605DC8}
  9
$EXTNAMES
290
     1
  9
$PSVPSCALE
 40
0.0
  9
$OLESTARTUP
290
     0
  0
ENDSEC
  0
SECTION
  2
CLASSES
  0
CLASS
  1
ACDBDICTIONARYWDFLT
  2
AcDbDictionaryWithDefault
  3
ObjectDBX Classes
 90
        0
280
     0
281
     0
  0
CLASS
  1
MATERIAL
  2
AcDbMaterial
  3
ObjectDBX Classes
 90
     1153
280
     0
281
     0
  0
CLASS
  1
VISUALSTYLE
  2
AcDbVisualStyle
  3
ObjectDBX Classes
 90
     4095
280
     0
281
     0
  0
CLASS
  1
SCALE
  2
AcDbScale
  3
ObjectDBX Classes
 90
     1153
280
     0
281
     0
  0
CLASS
  1
TABLESTYLE
  2
AcDbTableStyle
  3
ObjectDBX Classes
 90
     4095
280
     0
281
     0
  0
CLASS
  1
MLEADERSTYLE
  2
AcDbMLeaderStyle
  3
ACDB_MLEADERSTYLE_CLASS
 90
     4095
280
     0
281
     0
  0
CLASS
  1
AMGSETTINGSOBJ
  2
AmgSettingsObj
  3
"AcadM|Product Description: AutoCAD Mechanical|Company: Autodesk, Inc."
 90
     1024
280
     0
281
     0
  0
CLASS
  1
ACME_DOCUMENT
  2
AcMeDbDoc
  3
AcMeServices
 90
     1024
280
     0
281
     0
  0
CLASS
  1
ACMESCOPE
  2
AcMeScope
  3
AcMeServices
 90
     1024
280
     0
281
     0
  0
CLASS
  1
ACMECOMMANDHISTORY
  2
AcMeCommandHistory
  3
AcMeServices
 90
     1024
280
     0
281
     0
  0
CLASS
  1
ACIMSYSVARMAN
  2
AcImSysVarManager
  3
AcMeServices
 90
     1024
280
     0
281
     0
  0
CLASS
  1
ACIMREALSYSVAR
  2
AcImRealSysVar
  3
AcMeServices
 90
     1024
280
     0
281
     0
  0
CLASS
  1
ACIMINTSYSVAR
  2
AcImIntSysVar
  3
AcMeServices
 90
     1024
280
     0
281
     0
  0
CLASS
  1
ACMEDRAWINGMAN
  2
AcMeDrawingMan
  3
AcMeServices
 90
     1024
280
     0
281
     0
  0
CLASS
  1
ACMEVIEW
  2
AcMeView
  3
AcMeServices
 90
     1024
280
     0
281
     0
  0
CLASS
  1
ACDBENTITYCACHE
  2
AcMeEntityCache
  3
AcMeServices
 90
     1024
280
     0
281
     0
  0
CLASS
  1
GSMANAGER
  2
AcMeGSManager
  3
AcMeServices
 90
     1024
280
     0
281
     0
  0
CLASS
  1
AMDTINTERNALREACTOR
  2
AmdtInternalReactor
  3
AcMeServices
 90
     1024
280
     0
281
     0
  0
CLASS
  1
ACMESTATEMGR
  2
AcMeStateMgr
  3
AcMeServices
 90
     1024
280
     0
281
     0
  0
CLASS
  1
ACGREFMASTER
  2
AcGrefMaster
  3
AcAttribServices
 90
     1024
280
     0
281
     0
  0
CLASS
  1
AM_DRAWING_MGR
  2
AcDmDwgMgr
  3
AcMechDwgViewMgmt
 90
     1024
280
     0
281
     0
  0
CLASS
  1
AM_DWG_DOCUMENT
  2
AcDmDwgDocument
  3
AcMechDwgViewMgmt
 90
     1024
280
     0
281
     0
  0
CLASS
  1
AM_DWG_SHEET
  2
AcDmSheet
  3
AcMechDwgViewMgmt
 90
     1024
280
     0
281
     0
  0
CLASS
  1
AM_VIEWDIMPARMAP
  2
AcDmViewDimParMap
  3
AcMechDwgViewMgmt
 90
     1024
280
     0
281
     0
  0
CLASS
  1
AM_DWGMGR_NAME
  2
AcDmDwgMgrName
  3
AcMechDwgViewMgmt
 90
     1024
280
     0
281
     0
  0
CLASS
  1
ACME_DATABASE
  2
AcMeDbDatabase
  3
AcMeServices
 90
     1024
280
     0
281
     0
  0
CLASS
  1
ACRFINSADJUSTERMGR
  2
AcRfInsAdjusterMgr
  3
AcMeServices
 90
     1024
280
     0
281
     0
  0
CLASS
  1
ACGREFACADMASTER
  2
AcGrefacadMaster
  3
AcGrefServices
 90
     1024
280
     0
281
     0
  0
CLASS
  1
AMDTMENUSTATEMGR
  2
AmdtMenuStateMgr
  3
McadcomServices
 90
     1024
280
     0
281
     0
  0
CLASS
  1
AMDTMCOMMENUSTATE
  2
AmdtMcomMenuState
  3
McadcomServices
 90
     1024
280
     0
281
     0
  0
CLASS
  1
AMIMASTER
  2
AmiMaster
  3
AmiServices
 90
     1024
280
     0
281
     0
  0
CLASS
  1
ASAPP
  2
AcAsAppObject
  3
AutoSurfServices
 90
     1024
280
     0
281
     0
  0
CLASS
  1
IM_STATIC_MAN
  2
AcImStaticVarManager
  3
AcMeServices
 90
     1024
280
     0
281
     0
  0
CLASS
  1
ACIMSTRSYSVAR
  2
AcImStrSysVar
  3
AcMeServices
 90
     1024
280
     0
281
     0
  0
CLASS
  1
ACIMDBLSTATICVAR
  2
AcImDblStaticVar
  3
AcMeServices
 90
     1024
280
     0
281
     0
  0
CLASS
  1
ACIMSTRSTATICVAR
  2
AcImStrStaticVar
  3
AcMeServices
 90
     1024
280
     0
281
     0
  0
CLASS
  1
ACIMINTSTATICVAR
  2
AcImIntStaticVar
  3
AcMeServices
 90
     1024
280
     0
281
     0
  0
CLASS
  1
ACASGREFMASTER
  2
AcAsGrefMaster
  3
AutoSurfResolverServices
 90
     1024
280
     0
281
     0
  0
CLASS
  1
ACADGREFMODULE
  2
AcAdGrefModule
  3
AdGrefServices
 90
     1024
280
     0
281
     0
  0
CLASS
  1
AMDTMAPISURFMOUDULE
  2
AmdtMApiSurfModule
  3
MApiSurfServices
 90
     1024
280
     0
281
     0
  0
CLASS
  1
MAPIAMMOUDLE
  2
MApiAmModule
  3
MApiAmServices
 90
     1024
280
     0
281
     0
  0
CLASS
  1
AMDTADMENUSTATE
  2
AmdtAdMenuState
  3
DesignerServices
 90
     1024
280
     0
281
     0
  0
CLASS
  1
ADAPPL
  2
AcAdAppl
  3
DesignerServices
 90
     1024
280
     0
281
     0
  0
CLASS
  1
DEPMGR
  2
AcAdDepMgr
  3
DesignerServices
 90
     1024
280
     0
281
     0
  0
CLASS
  1
PARAMMGR
  2
AcAdParamMgr
  3
DesignerServices
 90
     1024
280
     0
281
     0
  0
CLASS
  1
PARAMSCOPE
  2
AcAdParamScope
  3
DesignerServices
 90
     1024
280
     0
281
     0
  0
CLASS
  1
NAMEDAPPL
  2
AcAdNamedAppl
  3
DesignerServices
 90
     1024
280
     0
281
     0
  0
CLASS
  1
AMDTDMMENUSTATE
  2
AmdtDmMenuState
  3
AcMechDwgViewMgmt
 90
     1024
280
     0
281
     0
  0
CLASS
  1
MAPIADMODULE
  2
MApiAdModule
  3
MApiAdServices
 90
     1024
280
     0
281
     0
  0
CLASS
  1
AMDTAMMENUSTATE
  2
AmdtAmMenuState
  3
DesignerAssemblies
 90
     1024
280
     0
281
     0
  0
CLASS
  1
ACAMPROJECT
  2
AcAmProject
  3
DesignerAssemblies
 90
     1024
280
     0
281
     0
  0
CLASS
  1
ACAMGRCOMPDEF
  2
AcAmGrCompDef
  3
DesignerAssemblies
 90
     1024
280
     0
281
     0
  0
CLASS
  1
ACCMCONTEXT
  2
AcCmContext
  3
DesignerAssemblies
 90
     1024
280
     0
281
     0
  0
CLASS
  1
ACAMCOMPDEF
  2
AcAmCompDef
  3
DesignerAssemblies
 90
     1024
280
     0
281
     0
  0
CLASS
  1
ACAMCOMPDEFMGR
  2
AcAmCompDefMgr
  3
DesignerAssemblies
 90
     1024
280
     0
281
     0
  0
CLASS
  1
AMCONTEXTMGR
  2
AcAmContextMgr
  3
DesignerAssemblies
 90
     1024
280
     0
281
     0
  0
CLASS
  1
ACAMCONTEXTMODELER
  2
AcAmContextModeler
  3
DesignerAssemblies
 90
     1024
280
     0
281
     0
  0
CLASS
  1
ACMDATADICTIONARY
  2
AcmDataDictionary
  3
"AcmSymBB|Product Description: AutoCAD Mechanical|Company: Autodesk, Inc."
 90
     1024
280
     0
281
     0
  0
CLASS
  1
ACMDATAENTRYBLOCK
  2
AcmDataEntryBlock
  3
AcmSymBB|Product Description: AutoCAD Mechanical|Company: Autodesk, Inc.
 90
     1024
280
     0
281
     0
  0
CLASS
  1
ACRFATTGENMGR
  2
AcRfAttGeneralMgr
  3
AcAttribServices
 90
     1024
280
     0
281
     0
  0
CLASS
  1
ACRFOBJATTMGR
  2
AcRfObjAttGroupMgr
  3
AcAttribServices
 90
     1024
280
     0
281
     0
  0
CLASS
  1
ACRFMCADAPIATTHOLDER
  2
AcRfMCADAPIAttHolder
  3
AcAttribServices
 90
     1024
280
     0
281
     0
  0
CLASS
  1
AMDTSYSATTR
  2
AmdtSystemAttribute
  3
AcAttribServices
 90
     1024
280
     0
281
     0
  0
CLASS
  1
CATALOGSTATE
  2
AcAmCatalogState
  3
DesignerAssemblies
 90
     1024
280
     0
281
     0
  0
CLASS
  1
ACAMGRCOMPDEFSET
  2
AcAmGrCompDefSet
  3
DesignerAssemblies
 90
     1024
280
     0
281
     0
  0
CLASS
  1
AMDTBROWSERDBTAB
  2
AmdtBrowserDbTab
  3
McadcomServices
 90
     1024
280
     0
281
     0
  0
CLASS
  1
CBROWSERAPPOBJECT
  2
CBrowserAppObject
  3
McadcomServices
 90
     1024
280
     0
281
     0
  0
CLASS
  1
DM_PLACEHOLDER
  2
AcDmSelsetPlaceholder
  3
AcMechDwgViewMgmt
 90
     1024
280
     0
281
     0
  0
CLASS
  1
ACMSTANDARDANSI
  2
AcmStandardANSI
  3
"Amdt_StdImp|Product Description: AutoCAD Mechanical|Company: Autodesk, Inc."
 90
     1024
280
     0
281
     0
  0
CLASS
  1
ACMSURFSTANDARDANSI
  2
AcmSurfTextStdANSI
  3
"Amdt_StdImp|Product Description: AutoCAD Mechanical|Company: Autodesk, Inc."
 90
     1024
280
     0
281
     0
  0
CLASS
  1
ACMFCFSTANDARDANSI
  2
AcmFCFStdANSI
  3
"Amdt_StdImp|Product Description: AutoCAD Mechanical|Company: Autodesk, Inc."
 90
     1024
280
     0
281
     0
  0
CLASS
  1
ACMWELDSTANDARDANSI
  2
AcmWeldingStdANSI
  3
"Amdt_StdImp|Product Description: AutoCAD Mechanical|Company: Autodesk, Inc."
 90
     1024
280
     0
281
     0
  0
CLASS
  1
ACMIDSTANDARDANSI
  2
AcmIdStdANSI
  3
"Amdt_StdImp|Product Description: AutoCAD Mechanical|Company: Autodesk, Inc."
 90
     1024
280
     0
281
     0
  0
CLASS
  1
ACMDATUMSTANDARDANSI
  2
AcmDatumStdANSI
  3
"Amdt_StdImp|Product Description: AutoCAD Mechanical|Company: Autodesk, Inc."
 90
     1024
280
     0
281
     0
  0
CLASS
  1
ACMBOMSTANDARDANSI
  2
AcmBOMStdANSI
  3
"Amdt_StdImp|Product Description: AutoCAD Mechanical|Company: Autodesk, Inc."
 90
     1024
280
     0
281
     0
  0
CLASS
  1
ACMDETAILSTANDARDANSI
  2
AmdtDetailSymStdANSI
  3
"Amdt_StdImp|Product Description: AutoCAD Mechanical|Company: Autodesk, Inc."
 90
     1024
280
     0
281
     0
  0
CLASS
  1
ACMSECTIONSTANDARDANSI
  2
AmdtSectionSymStdANSI
  3
"Amdt_StdImp|Product Description: AutoCAD Mechanical|Company: Autodesk, Inc."
 90
     1024
280
     0
281
     0
  0
CLASS
  1
ACMCENTERLINESTANDARDANSI
  2
AmdtCenterLineStdANSI
  3
"Amdt_StdImp|Product Description: AutoCAD Mechanical|Company: Autodesk, Inc."
 90
     1024
280
     0
281
     0
  0
CLASS
  1
ACMTHREADLINESTANDARDANSI
  2
AmdtThreadLineStdANSI
  3
"Amdt_StdImp|Product Description: AutoCAD Mechanical|Company: Autodesk, Inc."
 90
     1024
280
     0
281
     0
  0
CLASS
  1
ACMNOTESTANDARDANSI
  2
AmdtNoteStdANSI
  3
"Amdt_StdImp|Product Description: AutoCAD Mechanical|Company: Autodesk, Inc."
 90
     1024
280
     0
281
     0
  0
CLASS
  1
ACMTAPERSTANDARDANSI
  2
AcmTaperStdANSI
  3
"Amdt_StdImp|Product Description: AutoCAD Mechanical|Company: Autodesk, Inc."
 90
     1024
280
     0
281
     0
  0
CLASS
  1
ACMANOOTATIONVIEWSTANDARDANSI
  2
AmdtAnViewStdANSI
  3
"Amdt_StdImp|Product Description: AutoCAD Mechanical|Company: Autodesk, Inc."
 90
     1024
280
     0
281
     0
  0
CLASS
  1
ACAMGLAYSTD
  2
AcAmgLayStd
  3
"AmgLay|Product Description: AutoCAD Mechanical|Company: Autodesk, Inc."
 90
     1024
280
     0
281
     0
  0
CLASS
  1
ACAMGDIMSTD
  2
AcAmgDimStd
  3
"AmgDim|Product Description: AutoCAD Mechanical|Company: Autodesk, Inc."
 90
     1024
280
     0
281
     0
  0
CLASS
  1
ACAMGHOLECHARTSTDANSI
  2
AcAmgHoleChartStdANSI
  3
AmgDim|Product Description: AutoCAD Mechanical|Company: Autodesk, Inc.
 90
     1024
280
     0
281
     0
  0
CLASS
  1
AMGOBJPROPCFG
  2
AmgObjPropCfg
  3
"AmgLay|Product Description: AutoCAD Mechanical|Company: Autodesk, Inc."
 90
     1025
280
     0
281
     0
  0
CLASS
  1
ACAMGTITLESTD
  2
AcAmgTitleStd
  3
"AmgTitle|Product Description: AutoCAD Mechanical|Company: Autodesk, Inc."
 90
     4095
280
     0
281
     0
  0
CLASS
  1
AMDTNOTETEMPLATEDB
  2
AmdtNoteTemplateDB
  3
AcmSymBB|Product Description: AutoCAD Mechanical|Company: Autodesk, Inc.
 90
     1024
280
     0
281
     0
  0
CLASS
  1
ACAMGFILTERDAT
  2
AcAmgFilterDat
  3
"AcadM|Product Description: AutoCAD Mechanical|Company: Autodesk, Inc."
 90
     1024
280
     0
281
     0
  0
CLASS
  1
LAYER_INDEX
  2
AcDbLayerIndex
  3
ObjectDBX Classes
 90
        0
280
     0
281
     0
  0
CLASS
  1
IDBUFFER
  2
AcDbIdBuffer
  3
ObjectDBX Classes
 90
        0
280
     0
281
     0
  0
CLASS
  1
DICTIONARYVAR
  2
AcDbDictionaryVar
  3
ObjectDBX Classes
 90
        0
280
     0
281
     0
  0
CLASS
  1
CELLSTYLEMAP
  2
AcDbCellStyleMap
  3
ObjectDBX Classes
 90
     1152
280
     0
281
     0
  0
CLASS
  1
ACDBPLACEHOLDER
  2
AcDbPlaceHolder
  3
ObjectDBX Classes
 90
        0
280
     0
281
     0
  0
CLASS
  1
LAYOUT
  2
AcDbLayout
  3
ObjectDBX Classes
 90
        0
280
     0
281
     0
  0
ENDSEC
  0
SECTION
  2
TABLES
  0
TABLE
  2
VPORT
  5
2AA8
330
0
100
AcDbSymbolTable
 70
     1
  0
VPORT
  5
2B18
330
2AA8
100
AcDbSymbolTableRecord
100
AcDbViewportTableRecord
  2
*ACTIVE
 70
     0
 10
0.0
 20
0.0
 11
1.0
 21
1.0
 12
-292.3727852047942
 22
0.0
 13
0.0
 23
0.0
 14
1.0
 24
1.0
 15
0.0
 25
0.0
 16
0.0
 26
0.0
 36
1.0
 17
336.5584375141064
 27
-399.2614652952898
 37
0.0
 40
1712.738638490026
 41
1.712555066079295
 42
50.0
 43
0.0
 44
0.0
 50
0.0
 51
0.0
 71
     0
 72
   100
 73
     1
 74
     0
 75
     0
 76
     0
 77
     0
 78
     0
281
     0
 65
     0
110
0.0
120
0.0
130
0.0
111
1.0
121
0.0
131
0.0
112
0.0
122
1.0
132
0.0
 79
     0
146
0.0
  0
ENDTAB
  0
TABLE
  2
LTYPE
  5
2AA5
330
0
100
AcDbSymbolTable
 70
    19
  0
LTYPE
  5
2B02
330
2AA5
100
AcDbSymbolTableRecord
100
AcDbLinetypeTableRecord
  2
ByBlock
 70
     0
  3

 72
    65
 73
     0
 40
0.0
  0
LTYPE
  5
2B03
330
2AA5
100
AcDbSymbolTableRecord
100
AcDbLinetypeTableRecord
  2
ByLayer
 70
     0
  3

 72
    65
 73
     0
 40
0.0
  0
LTYPE
  5
2B04
330
2AA5
100
AcDbSymbolTableRecord
100
AcDbLinetypeTableRecord
  2
CONTINUOUS
 70
     0
  3
実線
 72
    65
 73
     0
 40
0.0
  0
LTYPE
  5
2B19
330
2AA5
100
AcDbSymbolTableRecord
100
AcDbLinetypeTableRecord
  2
DASHDOT
 70
     0
  3
____ _ ____ _ ____ _ ____ _ ____ _ ____ _ ____
 72
    65
 73
     4
 40
5.5
 49
4.0
 74
     0
 49
-0.6
 74
     0
 49
0.3
 74
     0
 49
-0.6
 74
     0
  0
LTYPE
  5
2B1A
330
2AA5
100
AcDbSymbolTableRecord
100
AcDbLinetypeTableRecord
  2
HIDDEN
 70
     0
  3
Hidden __ __ __ __ __ __ __ __ __ __ __ __ __ _
 72
    65
 73
     2
 40
0.375
 49
0.25
 74
     0
 49
-0.125
 74
     0
  0
LTYPE
  5
2B1B
330
2AA5
100
AcDbSymbolTableRecord
100
AcDbLinetypeTableRecord
  2
PHANTOM2
 70
     0
  3
Phantom (.5x) ___ _ _ ___ _ _ ___ _ _ ___ _ _
 72
    65
 73
     6
 40
1.25
 49
0.625
 74
     0
 49
-0.125
 74
     0
 49
0.125
 74
     0
 49
-0.125
 74
     0
 49
0.125
 74
     0
 49
-0.125
 74
     0
  0
LTYPE
  5
2B1C
330
2AA5
100
AcDbSymbolTableRecord
100
AcDbLinetypeTableRecord
  2
CENTER
 70
     0
  3
Center ____ _ ____ _ ____ _ ____ _ ____ _ ____
 72
    65
 73
     4
 40
2.0
 49
1.25
 74
     0
 49
-0.25
 74
     0
 49
0.25
 74
     0
 49
-0.25
 74
     0
  0
LTYPE
  5
2B1D
330
2AA5
100
AcDbSymbolTableRecord
100
AcDbLinetypeTableRecord
  2
ASULTYPE
 70
     0
  3
実線
 72
    65
 73
     2
 40
3.0
 49
2.5
 74
     0
 49
0.5
 74
     0
  0
LTYPE
  5
2B1E
330
2AA5
100
AcDbSymbolTableRecord
100
AcDbLinetypeTableRecord
  2
ASVLTYPE
 70
     0
  3
__ __ __ __ __ __ __ __ __ __ __ __ __ __ __ __ __ __ __ __ __
 72
    65
 73
     2
 40
0.75
 49
0.5
 74
     0
 49
-0.25
 74
     0
  0
LTYPE
  5
2B1F
330
2AA5
100
AcDbSymbolTableRecord
100
AcDbLinetypeTableRecord
  2
AM_ISO02W050
 70
     0
  3
__ __ __ __ __ __ __ __ __ __ __ __ __ __ __
 72
    65
 73
     2
 40
7.5
 49
6.0
 74
     0
 49
-1.5
 74
     0
  0
LTYPE
  5
2B20
330
2AA5
100
AcDbSymbolTableRecord
100
AcDbLinetypeTableRecord
  2
AM_ISO08W050
 70
     0
  3
____ . ____ . ____ . ____ . ____ . ____ . ____
 72
    65
 73
     4
 40
18.0
 49
12.0
 74
     0
 49
-1.5
 74
     0
 49
3.0
 74
     0
 49
-1.5
 74
     0
  0
LTYPE
  5
2B21
330
2AA5
100
AcDbSymbolTableRecord
100
AcDbLinetypeTableRecord
  2
AM_ISO09W050
 70
     0
  3
_____ . . _____ . . _____ . . ____ .. ____
 72
    65
 73
     6
 40
22.5
 49
12.0
 74
     0
 49
-1.5
 74
     0
 49
3.0
 74
     0
 49
-1.5
 74
     0
 49
3.0
 74
     0
 49
-1.5
 74
     0
  0
LTYPE
  5
2B22
330
2AA5
100
AcDbSymbolTableRecord
100
AcDbLinetypeTableRecord
  2
AMCONSTR
 70
     0
  3
_______________________
 72
    65
 73
     2
 40
9999.0
 49
9999.0
 74
     0
 49
0.0
 74
     0
  0
LTYPE
  5
2B23
330
2AA5
100
AcDbSymbolTableRecord
100
AcDbLinetypeTableRecord
  2
AM_ISO08W050X2
 70
     0
  3
__ . __ . __ . __ . __ . __
 72
    65
 73
     4
 40
9.0
 49
6.0
 74
     0
 49
-0.75
 74
     0
 49
1.5
 74
     0
 49
-0.75
 74
     0
  0
LTYPE
  5
2B24
330
2AA5
100
AcDbSymbolTableRecord
100
AcDbLinetypeTableRecord
  2
AM_ISO02W050X2
 70
     0
  3
 _ _ _ _ _ _ _ _ _ _ _ _
 72
    65
 73
     2
 40
3.75
 49
3.0
 74
     0
 49
-0.75
 74
     0
  0
LTYPE
  5
2B25
330
2AA5
100
AcDbSymbolTableRecord
100
AcDbLinetypeTableRecord
  2
AMZIGZAG
 70
     0
  3
/\/-/\/-/\/-/\/-/\/-/\/
 72
    65
 73
     2
 40
11.0001
 49
0.0001
 74
     0
 49
-11.0
 74
     0
  0
LTYPE
  5
2B26
330
2AA5
100
AcDbSymbolTableRecord
100
AcDbLinetypeTableRecord
  2
CENTER2
 70
     0
  3
Center (.5x) ___ _ ___ _ ___ _ ___ _ ___ _ ___
 72
    65
 73
     4
 40
1.125
 49
0.75
 74
     0
 49
-0.125
 74
     0
 49
0.125
 74
     0
 49
-0.125
 74
     0
  0
LTYPE
  5
2B27
330
2AA5
100
AcDbSymbolTableRecord
100
AcDbLinetypeTableRecord
  2
HIDDEN2
 70
     0
  3
Hidden (.5x) _ _ _ _ _ _ _ _ _ _ _ _ _ _ _ _ _
 72
    65
 73
     2
 40
0.1875
 49
0.125
 74
     0
 49
-0.0625
 74
     0
  0
LTYPE
  5
2B28
330
2AA5
100
AcDbSymbolTableRecord
100
AcDbLinetypeTableRecord
  2
AMZIGZAG2
 70
     0
  3
/\/-/\/-/\/-/\/-/\/-/\/
 72
    65
 73
     2
 40
0.4401
 49
0.0001
 74
     0
 49
-0.4400000000000003
 74
     0
  0
LTYPE
  5
2B29
330
2AA5
100
AcDbSymbolTableRecord
100
AcDbLinetypeTableRecord
  2
ACANSTGB
 70
     0
  3
__ . . __ . .
 72
    65
 73
     6
 40
0.35433070866
 49
0.15748031496
 74
     0
 49
-0.03937007874
 74
     0
 49
0.03937007874
 74
     0
 49
-0.03937007874
 74
     0
 49
0.03937007874
 74
     0
 49
-0.03937007874
 74
     0
  0
LTYPE
  5
2B2A
330
2AA5
100
AcDbSymbolTableRecord
100
AcDbLinetypeTableRecord
  2
ACANSTGL
 70
     0
  3
_ _ _ _ _
 72
    65
 73
     2
 40
0.11811023622
 49
0.07874015748
 74
     0
 49
-0.03937007874
 74
     0
  0
ENDTAB
  0
TABLE
  2
LAYER
  5
2AA2
330
0
100
AcDbSymbolTable
 70
    12
  0
LAYER
  5
2AFC
102
{ACAD_XDICTIONARY
360
2CD0
102
}
330
2AA2
100
AcDbSymbolTableRecord
100
AcDbLayerTableRecord
  2
0
 70
     0
 62
     7
  6
CONTINUOUS
370
    -3
390
2AAF
  0
LAYER
  5
2B2B
102
{ACAD_XDICTIONARY
360
2CD2
102
}
330
2AA2
100
AcDbSymbolTableRecord
100
AcDbLayerTableRecord
  2
OUTLINE
 70
     0
 62
     3
  6
CONTINUOUS
370
    -3
390
2AAF
  0
LAYER
  5
2B2C
102
{ACAD_XDICTIONARY
360
2CD4
102
}
330
2AA2
100
AcDbSymbolTableRecord
100
AcDbLayerTableRecord
  2
SIZE
 70
     0
 62
    30
  6
CONTINUOUS
370
    -3
390
2AAF
  0
LAYER
  5
2B2D
102
{ACAD_XDICTIONARY
360
2CD6
102
}
330
2AA2
100
AcDbSymbolTableRecord
100
AcDbLayerTableRecord
  2
BASIS
 70
     0
 62
     6
  6
DASHDOT
370
    -3
390
2AAF
  0
LAYER
  5
2B2E
102
{ACAD_XDICTIONARY
360
2CD8
102
}
330
2AA2
100
AcDbSymbolTableRecord
100
AcDbLayerTableRecord
  2
DETAIL
 70
     0
 62
     5
  6
CONTINUOUS
370
    -3
390
2AAF
  0
LAYER
  5
2B2F
102
{ACAD_XDICTIONARY
360
2CDA
102
}
330
2AA2
100
AcDbSymbolTableRecord
100
AcDbLayerTableRecord
  2
ARRANGE
 70
     0
 62
     1
  6
CONTINUOUS
370
    -3
390
2AAF
  0
LAYER
  5
2B30
330
2AA2
100
AcDbSymbolTableRecord
100
AcDbLayerTableRecord
  2
DEFPOINTS
 70
     0
 62
     7
  6
CONTINUOUS
290
     0
370
    -3
390
2AAF
  0
LAYER
  5
2B31
102
{ACAD_XDICTIONARY
360
2CDC
102
}
330
2AA2
100
AcDbSymbolTableRecord
100
AcDbLayerTableRecord
  2
ETC
 70
     0
 62
    61
  6
CONTINUOUS
370
    -3
390
2AAF
  0
LAYER
  5
2B32
102
{ACAD_XDICTIONARY
360
2CDE
102
}
330
2AA2
100
AcDbSymbolTableRecord
100
AcDbLayerTableRecord
  2
FIX
 70
     0
 62
    11
  6
CONTINUOUS
370
    -3
390
2AAF
  0
LAYER
  5
2B33
102
{ACAD_XDICTIONARY
360
2CE0
102
}
330
2AA2
100
AcDbSymbolTableRecord
100
AcDbLayerTableRecord
  2
NOTE
 70
     0
 62
     4
  6
CONTINUOUS
370
    -3
390
2AAF
  0
LAYER
  5
2B34
102
{ACAD_XDICTIONARY
360
2CE2
102
}
330
2AA2
100
AcDbSymbolTableRecord
100
AcDbLayerTableRecord
  2
SERVICESPACE
 70
     0
 62
     2
  6
DASHDOT
370
    -3
390
2AAF
  0
LAYER
  5
2B35
102
{ACAD_XDICTIONARY
360
2CE4
102
}
330
2AA2
100
AcDbSymbolTableRecord
100
AcDbLayerTableRecord
  2
SYMBOLLINE
 70
     0
 62
    15
  6
CONTINUOUS
370
    -3
390
2AAF
  0
ENDTAB
  0
TABLE
  2
STYLE
  5
2AA3
330
0
100
AcDbSymbolTable
 70
     5
  0
STYLE
  5
2AFD
330
2AA3
100
AcDbSymbolTableRecord
100
AcDbTextStyleTableRecord
  2
STANDARD
 70
     0
 40
64.0
 41
0.9
 50
0.0
 71
     0
 42
64.0
  3
SIMPLEX.shx
  4
BIGFONT.shx
  0
STYLE
  5
2B01
330
2AA3
100
AcDbSymbolTableRecord
100
AcDbTextStyleTableRecord
  2
ANNOTATIVE
 70
     0
 40
0.0
 41
1.0
 50
0.0
 71
     0
 42
0.2
  3
txt
  4

1001
ACADANNOTATIVE
1000
AnnotativeData
1002
{
1070
     1
1070
     1
1002
}
  0
STYLE
  5
2B36
330
2AA3
100
AcDbSymbolTableRecord
100
AcDbTextStyleTableRecord
  2

 70
     1
 40
0.0
 41
1.0
 50
0.0
 71
     0
 42
64.0
  3
genltshp.shx
  4

  0
STYLE
  5
2B37
330
2AA3
100
AcDbSymbolTableRecord
100
AcDbTextStyleTableRecord
  2
ACANSTS
 70
     0
 40
1.0
 41
1.0
 50
0.0
 71
     0
 42
64.0
  3
romans.shx
  4
extfont.shx
  0
STYLE
  5
2B38
330
2AA3
100
AcDbSymbolTableRecord
100
AcDbTextStyleTableRecord
  2
ACANSGDT
 70
     0
 40
0.0
 41
1.0
 50
0.0
 71
     0
 42
64.0
  3
amgdt.shx
  4

  0
ENDTAB
  0
TABLE
  2
VIEW
  5
2AA6
330
0
100
AcDbSymbolTable
 70
     1
  0
VIEW
  5
2B39
330
2AA6
100
AcDbSymbolTableRecord
100
AcDbViewTableRecord
  2
ALL
 70
     0
 40
4282.619807999997
 10
0.0
 20
41.30990399999999
 41
5940.0
 11
0.0
 21
0.0
 31
1.0
 12
0.0
 22
0.0
 32
0.0
 42
50.0
 43
0.0
 44
0.0
 50
0.0
 71
     0
281
     0
 72
     1
110
0.0
120
0.0
130
0.0
111
1.0
121
0.0
131
0.0
112
0.0
122
1.0
132
0.0
 79
     0
146
0.0
  0
ENDTAB
  0
TABLE
  2
UCS
  5
2AA7
330
0
100
AcDbSymbolTable
 70
     0
  0
ENDTAB
  0
TABLE
  2
APPID
  5
2AA9
330
0
100
AcDbSymbolTable
 70
    29
  0
APPID
  5
2AFE
330
2AA9
100
AcDbSymbolTableRecord
100
AcDbRegAppTableRecord
  2
ACAD
 70
     0
  0
APPID
  5
2B05
330
2AA9
100
AcDbSymbolTableRecord
100
AcDbRegAppTableRecord
  2
ACADANNOTATIVE
 70
     0
  0
APPID
  5
2B0F
330
2AA9
100
AcDbSymbolTableRecord
100
AcDbRegAppTableRecord
  2
ACAD_MLEADERVER
 70
     0
  0
APPID
  5
2B3A
330
2AA9
100
AcDbSymbolTableRecord
100
AcDbRegAppTableRecord
  2
GENIUS_GENDIM_13
 70
     0
  0
APPID
  5
2B3B
330
2AA9
100
AcDbSymbolTableRecord
100
AcDbRegAppTableRecord
  2
GENIUS_GENDTOL_13
 70
     0
  0
APPID
  5
2B3C
330
2AA9
100
AcDbSymbolTableRecord
100
AcDbRegAppTableRecord
  2
GENIUS_GE3DTOL_13
 70
     0
  0
APPID
  5
2B3D
330
2AA9
100
AcDbSymbolTableRecord
100
AcDbRegAppTableRecord
  2
MCAD_NO_VIS
 70
     0
  0
APPID
  5
2B3E
330
2AA9
100
AcDbSymbolTableRecord
100
AcDbRegAppTableRecord
  2
ACAD_TEMP_GRAPHIC
 70
     0
  0
APPID
  5
2B3F
330
2AA9
100
AcDbSymbolTableRecord
100
AcDbRegAppTableRecord
  2
AD_DRAW
 70
     0
  0
APPID
  5
2B40
330
2AA9
100
AcDbSymbolTableRecord
100
AcDbRegAppTableRecord
  2
ACATTRIBSERVICES
 70
     0
  0
APPID
  5
2B41
330
2AA9
100
AcDbSymbolTableRecord
100
AcDbRegAppTableRecord
  2
ASURF_PCURVE_APPNAME
 70
     0
  0
APPID
  5
2B42
330
2AA9
100
AcDbSymbolTableRecord
100
AcDbRegAppTableRecord
  2
AMG_3D2D_5_0
 70
     0
  0
APPID
  5
2B43
330
2AA9
100
AcDbSymbolTableRecord
100
AcDbRegAppTableRecord
  2
DESIGNERASSEMBLIES
 70
     0
  0
APPID
  5
2B44
330
2AA9
100
AcDbSymbolTableRecord
100
AcDbRegAppTableRecord
  2
ACADM_DIM_EDIT
 70
     0
  0
APPID
  5
2B45
330
2AA9
100
AcDbSymbolTableRecord
100
AcDbRegAppTableRecord
  2
AMDT_DM_ADJ
 70
     0
  0
APPID
  5
2B46
330
2AA9
100
AcDbSymbolTableRecord
100
AcDbRegAppTableRecord
  2
ACAD_DSTYLE_DIMARC_LENGTH_
 70
     0
  0
APPID
  5
2B47
330
2AA9
100
AcDbSymbolTableRecord
100
AcDbRegAppTableRecord
  2
ACAD_DSTYLE_DIMJOGGED_JOGA
 70
     0
  0
APPID
  5
2B48
330
2AA9
100
AcDbSymbolTableRecord
100
AcDbRegAppTableRecord
  2
ACAD_PSEXT
 70
     0
  0
APPID
  5
2B49
330
2AA9
100
AcDbSymbolTableRecord
100
AcDbRegAppTableRecord
  2
ACAD_EXEMPT_FROM_CAD_STANDARDS
 70
     0
  0
APPID
  5
2B4A
330
2AA9
100
AcDbSymbolTableRecord
100
AcDbRegAppTableRecord
  2
ACAD_DSTYLE_DIMJAG
 70
     0
  0
APPID
  5
2B4B
330
2AA9
100
AcDbSymbolTableRecord
100
AcDbRegAppTableRecord
  2
ACAD_DSTYLE_DIMTALN
 70
     0
  0
APPID
  5
2B4C
330
2AA9
100
AcDbSymbolTableRecord
100
AcDbRegAppTableRecord
  2
AMG_3D2D_5_00
 70
     0
  0
APPID
  5
2B4D
330
2AA9
100
AcDbSymbolTableRecord
100
AcDbRegAppTableRecord
  2
AMG_3D2D_5_01
 70
     0
  0
APPID
  5
2B4E
330
2AA9
100
AcDbSymbolTableRecord
100
AcDbRegAppTableRecord
  2
AMG_3D2D_5_02
 70
     0
  0
APPID
  5
2C70
330
2AA9
100
AcDbSymbolTableRecord
100
AcDbRegAppTableRecord
  2
AMG_3D2D_5.0
 70
     0
  0
APPID
  5
2D0D
330
2AA9
100
AcDbSymbolTableRecord
100
AcDbRegAppTableRecord
  2
ACAD_DSTYLE_DIMARC_LENGTH_SYMBOL
 70
     0
  0
APPID
  5
2D0E
330
2AA9
100
AcDbSymbolTableRecord
100
AcDbRegAppTableRecord
  2
ACAD_DSTYLE_DIM_LINETYPE
 70
     0
  0
APPID
  5
2D0F
330
2AA9
100
AcDbSymbolTableRecord
100
AcDbRegAppTableRecord
  2
ACAD_DSTYLE_DIM_EXT1_LINETYPE
 70
     0
  0
APPID
  5
2D10
330
2AA9
100
AcDbSymbolTableRecord
100
AcDbRegAppTableRecord
  2
ACAD_DSTYLE_DIM_EXT2_LINETYPE
 70
     0
  0
ENDTAB
  0
TABLE
  2
DIMSTYLE
  5
2AAA
330
0
100
AcDbSymbolTable
 70
    10
100
AcDbDimStyleTable
 71
     1
340
2B4F
  0
DIMSTYLE
105
2AFF
330
2AAA
100
AcDbSymbolTableRecord
100
AcDbDimStyleTableRecord
  2
STANDARD
 70
     0
 41
12.0
 42
20.0
 44
20.0
 77
     1
 78
     8
140
64.0
141
0.0
147
10.0
275
     1
279
     2
284
     7
285
     7
286
     7
340
2AFD
  0
DIMSTYLE
105
2B00
330
2AAA
100
AcDbSymbolTableRecord
100
AcDbDimStyleTableRecord
  2
ANNOTATIVE
 70
     0
275
     1
279
     2
284
     7
285
     7
286
     7
340
2AFD
1001
ACADANNOTATIVE
1000
AnnotativeData
1002
{
1070
     1
1070
     1
1002
}
  0
DIMSTYLE
105
2B4F
330
2AAA
100
AcDbSymbolTableRecord
100
AcDbDimStyleTableRecord
  2
AM_ANSI
 70
     0
  4
mm
 41
0.12
 42
0.05
 43
0.5
 44
0.1
 47
0.1
 48
0.1
 78
     7
 79
     2
140
0.12
141
0.0
146
0.71
147
0.06
176
   256
177
   256
178
     2
274
     4
284
     7
340
2AFD
371
    -1
372
    -1
1001
ACAD_DSTYLE_DIMARC_LENGTH_SYMBOL
1070
   379
1070
     1
1001
ACAD_DSTYLE_DIM_LINETYPE
1070
   380
1005
2B02
1001
ACAD_DSTYLE_DIM_EXT1_LINETYPE
1070
   381
1005
2B02
1001
ACAD_DSTYLE_DIM_EXT2_LINETYPE
1070
   382
1005
2B02
  0
DIMSTYLE
105
2B50
330
2AAA
100
AcDbSymbolTableRecord
100
AcDbDimStyleTableRecord
  2
AM_ANSI$3
 70
     0
  4
mm
 41
0.12
 42
0.05
 43
0.5
 44
0.1
 47
0.1
 48
0.1
 78
     7
 79
     2
140
0.12
141
0.0
146
0.71
147
0.06
176
   256
177
   256
178
     2
274
     4
284
     7
288
     1
289
     0
340
2AFD
371
    -1
372
    -1
1001
ACAD_DSTYLE_DIMARC_LENGTH_SYMBOL
1070
   379
1070
     1
1001
ACAD_DSTYLE_DIM_LINETYPE
1070
   380
1005
2B02
1001
ACAD_DSTYLE_DIM_EXT1_LINETYPE
1070
   381
1005
2B02
1001
ACAD_DSTYLE_DIM_EXT2_LINETYPE
1070
   382
1005
2B02
  0
DIMSTYLE
105
2B51
330
2AAA
100
AcDbSymbolTableRecord
100
AcDbDimStyleTableRecord
  2
AM_ANSI$4
 70
     0
  4
mm
 41
0.12
 42
0.05
 43
0.5
 44
0.1
 47
0.1
 48
0.1
 78
     7
 79
     2
140
0.12
141
0.0
146
0.71
147
0.06
176
   256
177
   256
178
     2
274
     4
284
     7
340
2AFD
371
    -1
372
    -1
1001
ACAD_DSTYLE_DIMARC_LENGTH_SYMBOL
1070
   379
1070
     1
1001
ACAD_DSTYLE_DIM_LINETYPE
1070
   380
1005
2B02
1001
ACAD_DSTYLE_DIM_EXT1_LINETYPE
1070
   381
1005
2B02
1001
ACAD_DSTYLE_DIM_EXT2_LINETYPE
1070
   382
1005
2B02
  0
DIMSTYLE
105
2B52
330
2AAA
100
AcDbSymbolTableRecord
100
AcDbDimStyleTableRecord
  2
AM_ANSI$7
 70
     0
  4
mm
 41
0.12
 42
0.05
 43
0.5
 44
0.1
 47
0.1
 48
0.1
 78
     7
 79
     2
140
0.12
141
0.0
146
0.71
147
0.06
176
   256
177
   256
178
     2
274
     4
284
     7
340
2AFD
371
    -1
372
    -1
1001
ACAD_DSTYLE_DIMARC_LENGTH_SYMBOL
1070
   379
1070
     1
1001
ACAD_DSTYLE_DIM_LINETYPE
1070
   380
1005
2B02
1001
ACAD_DSTYLE_DIM_EXT1_LINETYPE
1070
   381
1005
2B02
1001
ACAD_DSTYLE_DIM_EXT2_LINETYPE
1070
   382
1005
2B02
  0
DIMSTYLE
105
2B53
330
2AAA
100
AcDbSymbolTableRecord
100
AcDbDimStyleTableRecord
  2
AM_ANSI$SF
 70
     0
  4
mm
 41
0.12
 42
0.05
 43
0.5
 44
0.1
 47
0.1
 48
0.1
 75
     1
 76
     1
 78
     7
 79
     2
140
0.12
141
0.0
146
0.71
147
0.06
176
   256
177
   256
178
     2
274
     4
284
     7
340
2AFD
371
    -1
372
    -1
1001
ACAD_DSTYLE_DIMARC_LENGTH_SYMBOL
1070
   379
1070
     1
1001
ACAD_DSTYLE_DIM_LINETYPE
1070
   380
1005
2B02
1001
ACAD_DSTYLE_DIM_EXT1_LINETYPE
1070
   381
1005
2B02
1001
ACAD_DSTYLE_DIM_EXT2_LINETYPE
1070
   382
1005
2B02
  0
DIMSTYLE
105
2B54
330
2AAA
100
AcDbSymbolTableRecord
100
AcDbDimStyleTableRecord
  2
AM_ANSI$SH
 70
     0
  4
mm
 41
0.12
 42
0.05
 43
0.5
 44
0.1
 47
0.1
 48
0.1
 75
     1
 76
     1
 78
     7
 79
     2
140
0.12
141
0.0
146
0.71
147
0.06
173
     1
176
   256
177
   256
178
     2
274
     4
284
     7
340
2AFD
343
2B74
371
    -1
372
    -1
1001
ACAD_DSTYLE_DIMARC_LENGTH_SYMBOL
1070
   379
1070
     1
1001
ACAD_DSTYLE_DIM_LINETYPE
1070
   380
1005
2B02
1001
ACAD_DSTYLE_DIM_EXT1_LINETYPE
1070
   381
1005
2B02
1001
ACAD_DSTYLE_DIM_EXT2_LINETYPE
1070
   382
1005
2B02
  0
DIMSTYLE
105
2B55
330
2AAA
100
AcDbSymbolTableRecord
100
AcDbDimStyleTableRecord
  2
STANDARD1
 70
     0
 40
6.0
 41
2.5
 42
0.625
 43
6.0
 44
1.25
 47
1.0
 48
0.5
 77
     1
 78
     8
140
2.5
141
0.0
146
0.6
147
1.0
173
     1
275
     1
279
     2
284
     7
285
     7
286
     7
340
2AFD
  0
DIMSTYLE
105
2B56
330
2AAA
100
AcDbSymbolTableRecord
100
AcDbDimStyleTableRecord
  2
STANDARD$0
 70
     0
 41
12.0
 42
20.0
 44
20.0
 73
     0
 74
     0
 77
     1
 78
     8
140
64.0
141
0.0
147
10.0
275
     1
279
     2
284
     7
285
     7
286
     7
340
2AFD
  0
ENDTAB
  0
TABLE
  2
BLOCK_RECORD
  5
2AA1
330
0
100
AcDbSymbolTable
 70
    73
  0
BLOCK_RECORD
  5
2B14
102
{ACAD_XDICTIONARY
360
2CE6
102
}
330
2AA1
100
AcDbSymbolTableRecord
100
AcDbBlockTableRecord
  2
*Model_Space
340
2B17
  0
BLOCK_RECORD
  5
2B10
330
2AA1
100
AcDbSymbolTableRecord
100
AcDbBlockTableRecord
  2
*Paper_Space
340
2B13
  0
BLOCK_RECORD
  5
2B5E
330
2AA1
100
AcDbSymbolTableRecord
100
AcDbBlockTableRecord
  2
$MODEL_SPACE
340
0
  0
BLOCK_RECORD
  5
2B60
330
2AA1
100
AcDbSymbolTableRecord
100
AcDbBlockTableRecord
  2
$PAPER_SPACE
340
0
  0
BLOCK_RECORD
  5
2B62
330
2AA1
100
AcDbSymbolTableRecord
100
AcDbBlockTableRecord
  2
_ORIGIN
340
0
  0
BLOCK_RECORD
  5
2B64
330
2AA1
100
AcDbSymbolTableRecord
100
AcDbBlockTableRecord
  2
_DOTBLANK
340
0
102
{BLKREFS
331
1299
331
129A
331
11AA
331
11AB
331
E80
331
E81
331
1123
331
1124
331
11C2
331
11C3
331
11EC
331
11ED
331
11F9
331
11FA
331
1287
331
1288
331
1417
331
1418
331
1423
331
1424
331
142F
331
1430
331
143B
331
143C
331
166E
331
166F
331
1677
331
1678
331
1680
331
1681
331
1689
331
168A
331
1696
331
1697
331
16A3
331
16A4
331
16AF
331
16B0
331
16BB
331
16BC
331
16C7
331
16C8
331
16D3
331
16D4
331
1D86
331
1D87
331
1D8F
331
1D90
331
1D98
331
1D99
331
1DA1
331
1DA2
331
1DAB
331
1DAC
331
1DB5
331
1DB6
331
2A51
331
2A52
331
2A56
331
2A57
331
2A5B
331
2A5C
331
2A60
331
2A61
102
}
  0
BLOCK_RECORD
  5
2B66
330
2AA1
100
AcDbSymbolTableRecord
100
AcDbBlockTableRecord
  2
_OPEN30
340
0
102
{BLKREFS
331
2088
331
25A0
331
2890
102
}
  0
BLOCK_RECORD
  5
2B68
330
2AA1
100
AcDbSymbolTableRecord
100
AcDbBlockTableRecord
  2
*D5
340
0
  0
BLOCK_RECORD
  5
2B6A
330
2AA1
100
AcDbSymbolTableRecord
100
AcDbBlockTableRecord
  2
*U6
340
0
102
{BLKREFS
331
129B
102
}
  0
BLOCK_RECORD
  5
2B6C
330
2AA1
100
AcDbSymbolTableRecord
100
AcDbBlockTableRecord
  2
*D7
340
0
  0
BLOCK_RECORD
  5
2B6E
330
2AA1
100
AcDbSymbolTableRecord
100
AcDbBlockTableRecord
  2
*U8
340
0
102
{BLKREFS
331
11AC
102
}
  0
BLOCK_RECORD
  5
2B70
330
2AA1
100
AcDbSymbolTableRecord
100
AcDbBlockTableRecord
  2
*D9
340
0
  0
BLOCK_RECORD
  5
2B72
330
2AA1
100
AcDbSymbolTableRecord
100
AcDbBlockTableRecord
  2
*U10
340
0
102
{BLKREFS
331
E82
102
}
  0
BLOCK_RECORD
  5
2B74
330
2AA1
100
AcDbSymbolTableRecord
100
AcDbBlockTableRecord
  2
GENAXEH
340
0
  0
BLOCK_RECORD
  5
2B76
330
2AA1
100
AcDbSymbolTableRecord
100
AcDbBlockTableRecord
  2
*D12
340
0
  0
BLOCK_RECORD
  5
2B78
330
2AA1
100
AcDbSymbolTableRecord
100
AcDbBlockTableRecord
  2
*U13
340
0
102
{BLKREFS
331
1125
102
}
  0
BLOCK_RECORD
  5
2B7A
330
2AA1
100
AcDbSymbolTableRecord
100
AcDbBlockTableRecord
  2
*D14
340
0
  0
BLOCK_RECORD
  5
2B7C
330
2AA1
100
AcDbSymbolTableRecord
100
AcDbBlockTableRecord
  2
*U15
340
0
102
{BLKREFS
331
11C4
102
}
  0
BLOCK_RECORD
  5
2B7E
330
2AA1
100
AcDbSymbolTableRecord
100
AcDbBlockTableRecord
  2
*D16
340
0
  0
BLOCK_RECORD
  5
2B80
330
2AA1
100
AcDbSymbolTableRecord
100
AcDbBlockTableRecord
  2
*U17
340
0
102
{BLKREFS
331
11EE
102
}
  0
BLOCK_RECORD
  5
2B82
330
2AA1
100
AcDbSymbolTableRecord
100
AcDbBlockTableRecord
  2
*D18
340
0
  0
BLOCK_RECORD
  5
2B84
330
2AA1
100
AcDbSymbolTableRecord
100
AcDbBlockTableRecord
  2
*U19
340
0
102
{BLKREFS
331
11FB
102
}
  0
BLOCK_RECORD
  5
2B86
330
2AA1
100
AcDbSymbolTableRecord
100
AcDbBlockTableRecord
  2
*D20
340
0
  0
BLOCK_RECORD
  5
2B88
330
2AA1
100
AcDbSymbolTableRecord
100
AcDbBlockTableRecord
  2
*U21
340
0
102
{BLKREFS
331
1289
102
}
  0
BLOCK_RECORD
  5
2B8A
330
2AA1
100
AcDbSymbolTableRecord
100
AcDbBlockTableRecord
  2
*D22
340
0
  0
BLOCK_RECORD
  5
2B8C
330
2AA1
100
AcDbSymbolTableRecord
100
AcDbBlockTableRecord
  2
*U23
340
0
102
{BLKREFS
331
1419
102
}
  0
BLOCK_RECORD
  5
2B8E
330
2AA1
100
AcDbSymbolTableRecord
100
AcDbBlockTableRecord
  2
*D24
340
0
  0
BLOCK_RECORD
  5
2B90
330
2AA1
100
AcDbSymbolTableRecord
100
AcDbBlockTableRecord
  2
*U25
340
0
102
{BLKREFS
331
1425
102
}
  0
BLOCK_RECORD
  5
2B92
330
2AA1
100
AcDbSymbolTableRecord
100
AcDbBlockTableRecord
  2
*D26
340
0
  0
BLOCK_RECORD
  5
2B94
330
2AA1
100
AcDbSymbolTableRecord
100
AcDbBlockTableRecord
  2
*U27
340
0
102
{BLKREFS
331
1431
102
}
  0
BLOCK_RECORD
  5
2B96
330
2AA1
100
AcDbSymbolTableRecord
100
AcDbBlockTableRecord
  2
*D28
340
0
  0
BLOCK_RECORD
  5
2B98
330
2AA1
100
AcDbSymbolTableRecord
100
AcDbBlockTableRecord
  2
*U29
340
0
102
{BLKREFS
331
143D
102
}
  0
BLOCK_RECORD
  5
2B9A
330
2AA1
100
AcDbSymbolTableRecord
100
AcDbBlockTableRecord
  2
*D30
340
0
  0
BLOCK_RECORD
  5
2B9C
330
2AA1
100
AcDbSymbolTableRecord
100
AcDbBlockTableRecord
  2
*U31
340
0
102
{BLKREFS
331
1670
102
}
  0
BLOCK_RECORD
  5
2B9E
330
2AA1
100
AcDbSymbolTableRecord
100
AcDbBlockTableRecord
  2
*D32
340
0
  0
BLOCK_RECORD
  5
2BA0
330
2AA1
100
AcDbSymbolTableRecord
100
AcDbBlockTableRecord
  2
*U33
340
0
102
{BLKREFS
331
1679
102
}
  0
BLOCK_RECORD
  5
2BA2
330
2AA1
100
AcDbSymbolTableRecord
100
AcDbBlockTableRecord
  2
*D34
340
0
  0
BLOCK_RECORD
  5
2BA4
330
2AA1
100
AcDbSymbolTableRecord
100
AcDbBlockTableRecord
  2
*U35
340
0
102
{BLKREFS
331
1682
102
}
  0
BLOCK_RECORD
  5
2BA6
330
2AA1
100
AcDbSymbolTableRecord
100
AcDbBlockTableRecord
  2
*D36
340
0
  0
BLOCK_RECORD
  5
2BA8
330
2AA1
100
AcDbSymbolTableRecord
100
AcDbBlockTableRecord
  2
*U37
340
0
102
{BLKREFS
331
168B
102
}
  0
BLOCK_RECORD
  5
2BAA
330
2AA1
100
AcDbSymbolTableRecord
100
AcDbBlockTableRecord
  2
*U38
340
0
  0
BLOCK_RECORD
  5
2BAC
330
2AA1
100
AcDbSymbolTableRecord
100
AcDbBlockTableRecord
  2
*D39
340
0
  0
BLOCK_RECORD
  5
2BAE
330
2AA1
100
AcDbSymbolTableRecord
100
AcDbBlockTableRecord
  2
*U40
340
0
102
{BLKREFS
331
1698
102
}
  0
BLOCK_RECORD
  5
2BB0
330
2AA1
100
AcDbSymbolTableRecord
100
AcDbBlockTableRecord
  2
*D41
340
0
  0
BLOCK_RECORD
  5
2BB2
330
2AA1
100
AcDbSymbolTableRecord
100
AcDbBlockTableRecord
  2
*U42
340
0
102
{BLKREFS
331
16A5
102
}
  0
BLOCK_RECORD
  5
2BB4
330
2AA1
100
AcDbSymbolTableRecord
100
AcDbBlockTableRecord
  2
*D43
340
0
  0
BLOCK_RECORD
  5
2BB6
330
2AA1
100
AcDbSymbolTableRecord
100
AcDbBlockTableRecord
  2
*U44
340
0
102
{BLKREFS
331
16B1
102
}
  0
BLOCK_RECORD
  5
2BB8
330
2AA1
100
AcDbSymbolTableRecord
100
AcDbBlockTableRecord
  2
*D45
340
0
  0
BLOCK_RECORD
  5
2BBA
330
2AA1
100
AcDbSymbolTableRecord
100
AcDbBlockTableRecord
  2
*U46
340
0
102
{BLKREFS
331
16BD
102
}
  0
BLOCK_RECORD
  5
2BBC
330
2AA1
100
AcDbSymbolTableRecord
100
AcDbBlockTableRecord
  2
*D47
340
0
  0
BLOCK_RECORD
  5
2BBE
330
2AA1
100
AcDbSymbolTableRecord
100
AcDbBlockTableRecord
  2
*U48
340
0
102
{BLKREFS
331
16C9
102
}
  0
BLOCK_RECORD
  5
2BC0
330
2AA1
100
AcDbSymbolTableRecord
100
AcDbBlockTableRecord
  2
*D49
340
0
  0
BLOCK_RECORD
  5
2BC2
330
2AA1
100
AcDbSymbolTableRecord
100
AcDbBlockTableRecord
  2
*U50
340
0
102
{BLKREFS
331
16D5
102
}
  0
BLOCK_RECORD
  5
2BC4
330
2AA1
100
AcDbSymbolTableRecord
100
AcDbBlockTableRecord
  2
*D51
340
0
  0
BLOCK_RECORD
  5
2BC6
330
2AA1
100
AcDbSymbolTableRecord
100
AcDbBlockTableRecord
  2
*U52
340
0
102
{BLKREFS
331
1D88
102
}
  0
BLOCK_RECORD
  5
2BC8
330
2AA1
100
AcDbSymbolTableRecord
100
AcDbBlockTableRecord
  2
*D53
340
0
  0
BLOCK_RECORD
  5
2BCA
330
2AA1
100
AcDbSymbolTableRecord
100
AcDbBlockTableRecord
  2
*U54
340
0
102
{BLKREFS
331
1D91
102
}
  0
BLOCK_RECORD
  5
2BCC
330
2AA1
100
AcDbSymbolTableRecord
100
AcDbBlockTableRecord
  2
*D55
340
0
  0
BLOCK_RECORD
  5
2BCE
330
2AA1
100
AcDbSymbolTableRecord
100
AcDbBlockTableRecord
  2
*U56
340
0
102
{BLKREFS
331
1D9A
102
}
  0
BLOCK_RECORD
  5
2BD0
330
2AA1
100
AcDbSymbolTableRecord
100
AcDbBlockTableRecord
  2
*D57
340
0
  0
BLOCK_RECORD
  5
2BD2
330
2AA1
100
AcDbSymbolTableRecord
100
AcDbBlockTableRecord
  2
*U58
340
0
102
{BLKREFS
331
1DA3
102
}
  0
BLOCK_RECORD
  5
2BD4
330
2AA1
100
AcDbSymbolTableRecord
100
AcDbBlockTableRecord
  2
*D59
340
0
  0
BLOCK_RECORD
  5
2BD6
330
2AA1
100
AcDbSymbolTableRecord
100
AcDbBlockTableRecord
  2
*U60
340
0
102
{BLKREFS
331
1DAD
102
}
  0
BLOCK_RECORD
  5
2BD8
330
2AA1
100
AcDbSymbolTableRecord
100
AcDbBlockTableRecord
  2
*D61
340
0
  0
BLOCK_RECORD
  5
2BDA
330
2AA1
100
AcDbSymbolTableRecord
100
AcDbBlockTableRecord
  2
*U62
340
0
102
{BLKREFS
331
1DB7
102
}
  0
BLOCK_RECORD
  5
2BDC
330
2AA1
100
AcDbSymbolTableRecord
100
AcDbBlockTableRecord
  2
*U63
340
0
  0
BLOCK_RECORD
  5
2BDE
330
2AA1
100
AcDbSymbolTableRecord
100
AcDbBlockTableRecord
  2
*U64
340
0
  0
BLOCK_RECORD
  5
2BE0
330
2AA1
100
AcDbSymbolTableRecord
100
AcDbBlockTableRecord
  2
*U65
340
0
  0
BLOCK_RECORD
  5
2BE2
330
2AA1
100
AcDbSymbolTableRecord
100
AcDbBlockTableRecord
  2
*U66
340
0
  0
BLOCK_RECORD
  5
2BE4
330
2AA1
100
AcDbSymbolTableRecord
100
AcDbBlockTableRecord
  2
*U67
340
0
  0
BLOCK_RECORD
  5
2BE6
330
2AA1
100
AcDbSymbolTableRecord
100
AcDbBlockTableRecord
  2
*U68
340
0
102
{BLKREFS
331
2A3A
102
}
  0
BLOCK_RECORD
  5
2BE8
330
2AA1
100
AcDbSymbolTableRecord
100
AcDbBlockTableRecord
  2
*U69
340
0
102
{BLKREFS
331
2A3B
102
}
  0
BLOCK_RECORD
  5
2BEA
330
2AA1
100
AcDbSymbolTableRecord
100
AcDbBlockTableRecord
  2
*X70
340
0
102
{BLKREFS
331
2A48
102
}
  0
BLOCK_RECORD
  5
2BEC
330
2AA1
100
AcDbSymbolTableRecord
100
AcDbBlockTableRecord
  2
*X71
340
0
102
{BLKREFS
331
2A49
102
}
  0
ENDTAB
  0
ENDSEC
  0
SECTION
  2
BLOCKS
  0
BLOCK
  5
2B15
330
2B14
100
AcDbEntity
  8
0
100
AcDbBlockBegin
  2
*Model_Space
 70
     0
 10
0.0
 20
0.0
 30
0.0
  3
*Model_Space
  1

  0
ENDBLK
  5
2B16
330
2B14
100
AcDbEntity
  8
0
100
AcDbBlockEnd
  0
BLOCK
  5
2B11
330
2B10
100
AcDbEntity
 67
     1
  8
0
100
AcDbBlockBegin
  2
*Paper_Space
 70
     0
 10
0.0
 20
0.0
 30
0.0
  3
*Paper_Space
  1

  0
ENDBLK
  5
2B12
330
2B10
100
AcDbEntity
 67
     1
  8
0
100
AcDbBlockEnd
  0
BLOCK
  5
2B5F
330
2B5E
100
AcDbEntity
  8
0
100
AcDbBlockBegin
  2
$MODEL_SPACE
 70
     0
 10
0.0
 20
0.0
 30
0.0
  3
$MODEL_SPACE
  1

  0
ENDBLK
  5
26E3
330
2B5E
100
AcDbEntity
  8
0
100
AcDbBlockEnd
  0
BLOCK
  5
2B61
330
2B60
100
AcDbEntity
  8
0
100
AcDbBlockBegin
  2
$PAPER_SPACE
 70
     0
 10
0.0
 20
0.0
 30
0.0
  3
$PAPER_SPACE
  1

  0
ENDBLK
  5
26DF
330
2B60
100
AcDbEntity
  8
0
100
AcDbBlockEnd
  0
BLOCK
  5
2B63
330
2B62
100
AcDbEntity
  8
0
100
AcDbBlockBegin
  2
_ORIGIN
 70
     0
 10
0.0
 20
0.0
 30
0.0
  3
_ORIGIN
  1

  0
CIRCLE
  5
880
330
2B62
100
AcDbEntity
  8
0
  6
Continuous
 62
     7
100
AcDbCircle
 10
0.0
 20
0.0
 30
0.0
 40
0.5
  0
LINE
  5
881
330
2B62
100
AcDbEntity
  8
0
  6
Continuous
 62
     7
100
AcDbLine
 10
0.0
 20
0.0
 30
0.0
 11
-1.0
 21
0.0
 31
0.0
  0
ENDBLK
  5
882
330
2B62
100
AcDbEntity
  8
0
100
AcDbBlockEnd
  0
BLOCK
  5
2B65
330
2B64
100
AcDbEntity
  8
0
 62
     1
100
AcDbBlockBegin
  2
_DOTBLANK
 70
     0
 10
0.0
 20
0.0
 30
0.0
  3
_DOTBLANK
  1

  0
CIRCLE
  5
AB3
330
2B64
100
AcDbEntity
  8
0
  6
ByBlock
 62
     0
100
AcDbCircle
 10
0.0
 20
0.0
 30
0.0
 40
0.5
  0
LINE
  5
AB4
330
2B64
100
AcDbEntity
  8
0
  6
ByBlock
 62
     0
100
AcDbLine
 10
-0.5
 20
0.0
 30
0.0
 11
-1.0
 21
0.0
 31
0.0
  0
ENDBLK
  5
AB6
330
2B64
100
AcDbEntity
  8
0
 62
     1
100
AcDbBlockEnd
  0
BLOCK
  5
2B67
330
2B66
100
AcDbEntity
  8
0
 62
     1
100
AcDbBlockBegin
  2
_OPEN30
 70
     0
 10
0.0
 20
0.0
 30
0.0
  3
_OPEN30
  1

  0
LINE
  5
AB8
330
2B66
100
AcDbEntity
  8
0
  6
ByBlock
 62
     0
100
AcDbLine
 10
-1.0
 20
0.26794919
 30
0.0
 11
0.0
 21
0.0
 31
0.0
  0
LINE
  5
AB9
330
2B66
100
AcDbEntity
  8
0
  6
ByBlock
 62
     0
100
AcDbLine
 10
0.0
 20
0.0
 30
0.0
 11
-1.0
 21
-0.26794919
 31
0.0
  0
LINE
  5
ABA
330
2B66
100
AcDbEntity
  8
0
  6
ByBlock
 62
     0
100
AcDbLine
 10
0.0
 20
0.0
 30
0.0
 11
-1.0
 21
0.0
 31
0.0
  0
ENDBLK
  5
ABC
330
2B66
100
AcDbEntity
  8
0
 62
     1
100
AcDbBlockEnd
  0
BLOCK
  5
2B69
330
2B68
100
AcDbEntity
  8
0
100
AcDbBlockBegin
  2
*D5
 70
     1
 10
0.0
 20
0.0
 30
0.0
  3
*D5
  1

  0
LINE
  5
1296
330
2B68
100
AcDbEntity
  8
SIZE
 62
     0
100
AcDbLine
 10
-134.5
 20
-320.0
 30
0.0
 11
-134.5
 21
-468.0173952306001
 31
0.0
  0
LINE
  5
1297
330
2B68
100
AcDbEntity
  8
SIZE
 62
     0
100
AcDbLine
 10
134.5
 20
-320.0
 30
0.0
 11
134.5
 21
-468.0173952306001
 31
0.0
  0
LINE
  5
1298
330
2B68
100
AcDbEntity
  8
SIZE
 62
     0
100
AcDbLine
 10
-122.5
 20
-448.0173952306
 30
0.0
 11
122.5
 21
-448.0173952306
 31
0.0
  0
INSERT
  5
1299
330
2B68
100
AcDbEntity
  8
SIZE
 62
     0
100
AcDbBlockReference
  2
_DOTBLANK
 10
-134.5
 20
-448.0173952306
 30
0.0
 41
12.0
 42
12.0
 43
12.0
 50
180.0
  0
INSERT
  5
129A
330
2B68
100
AcDbEntity
  8
SIZE
 62
     0
100
AcDbBlockReference
  2
_DOTBLANK
 10
134.5
 20
-448.0173952306
 30
0.0
 41
12.0
 42
12.0
 43
12.0
  0
INSERT
  5
129B
330
2B68
100
AcDbEntity
  8
0
100
AcDbBlockReference
  2
*U6
 10
0.0
 20
0.0
 30
0.0
  0
POINT
  5
129C
330
2B68
100
AcDbEntity
  8
DEFPOINTS
 62
     0
100
AcDbPoint
 10
-134.5
 20
-300.0
 30
0.0
  0
POINT
  5
129D
330
2B68
100
AcDbEntity
  8
DEFPOINTS
 62
     0
100
AcDbPoint
 10
134.5
 20
-300.0
 30
0.0
  0
POINT
  5
129E
330
2B68
100
AcDbEntity
  8
DEFPOINTS
 62
     0
100
AcDbPoint
 10
134.5
 20
-448.0173952306
 30
0.0
  0
ENDBLK
  5
D72
330
2B68
100
AcDbEntity
  8
0
100
AcDbBlockEnd
  0
BLOCK
  5
2B6B
330
2B6A
100
AcDbEntity
  8
0
100
AcDbBlockBegin
  2
*U6
 70
     1
 10
0.0
 20
0.0
 30
0.0
  3
*U6
  1

  0
TEXT
  5
1EF5
330
2B6A
100
AcDbEntity
  8
SIZE
 62
     0
100
AcDbText
 10
-72.68571428571426
 20
-438.0173952305999
 30
0.0
 40
64.0
  1
269
 41
0.9
100
AcDbText
  0
ENDBLK
  5
1EF7
330
2B6A
100
AcDbEntity
  8
0
100
AcDbBlockEnd
  0
BLOCK
  5
2B6D
330
2B6C
100
AcDbEntity
  8
0
100
AcDbBlockBegin
  2
*D7
 70
     1
 10
0.0
 20
0.0
 30
0.0
  3
*D7
  1

  0
LINE
  5
11A7
330
2B6C
100
AcDbEntity
  8
SIZE
  6
Continuous
 62
     0
100
AcDbLine
 10
143.5
 20
-300.0
 30
0.0
 11
304.6432844803791
 21
-300.0
 31
0.0
  0
LINE
  5
11A8
330
2B6C
100
AcDbEntity
  8
SIZE
  6
Continuous
 62
     0
100
AcDbLine
 10
177.5
 20
-0.0000000000000057
 30
0.0
 11
304.6432844803792
 21
-0.0000000000000417
 31
0.0
  0
LINE
  5
11A9
330
2B6C
100
AcDbEntity
  8
SIZE
  6
Continuous
 62
     0
100
AcDbLine
 10
284.6432844803791
 20
-288.0000000000001
 30
0.0
 11
284.6432844803792
 21
-12.00000000000003
 31
0.0
  0
INSERT
  5
11AA
330
2B6C
100
AcDbEntity
  8
SIZE
  6
Continuous
 62
     0
100
AcDbBlockReference
  2
_DOTBLANK
 10
284.6432844803791
 20
-300.0
 30
0.0
 41
12.0
 42
12.0
 43
12.0
 50
270.0
  0
INSERT
  5
11AB
330
2B6C
100
AcDbEntity
  8
SIZE
  6
Continuous
 62
     0
100
AcDbBlockReference
  2
_DOTBLANK
 10
284.6432844803792
 20
-0.000000000000036
 30
0.0
 41
12.0
 42
12.0
 43
12.0
 50
90.0
  0
INSERT
  5
11AC
330
2B6C
100
AcDbEntity
  8
0
100
AcDbBlockReference
  2
*U8
 10
0.0
 20
0.0
 30
0.0
  0
POINT
  5
11AD
330
2B6C
100
AcDbEntity
  8
DEFPOINTS
  6
Continuous
 62
     0
100
AcDbPoint
 10
123.5
 20
-300.0
 30
0.0
  0
POINT
  5
11AE
330
2B6C
100
AcDbEntity
  8
DEFPOINTS
  6
Continuous
 62
     0
100
AcDbPoint
 10
157.5
 20
0.0
 30
0.0
  0
POINT
  5
11AF
330
2B6C
100
AcDbEntity
  8
DEFPOINTS
  6
Continuous
 62
     0
100
AcDbPoint
 10
284.6432844803792
 20
-0.000000000000036
 30
0.0
  0
ENDBLK
  5
E11
330
2B6C
100
AcDbEntity
  8
0
100
AcDbBlockEnd
  0
BLOCK
  5
2B6F
330
2B6E
100
AcDbEntity
  8
0
100
AcDbBlockBegin
  2
*U8
 70
     1
 10
0.0
 20
0.0
 30
0.0
  3
*U8
  1

  0
TEXT
  5
1EE1
330
2B6E
100
AcDbEntity
  8
SIZE
 62
     0
100
AcDbText
 10
274.6432844803792
 20
-224.0571428571429
 30
0.0
 40
64.0
  1
300
 50
90.0
 41
0.9
100
AcDbText
  0
ENDBLK
  5
1EE3
330
2B6E
100
AcDbEntity
  8
0
100
AcDbBlockEnd
  0
BLOCK
  5
2B71
330
2B70
100
AcDbEntity
  8
0
100
AcDbBlockBegin
  2
*D9
 70
     1
 10
0.0
 20
0.0
 30
0.0
  3
*D9
  1

  0
LINE
  5
E7D
330
2B70
100
AcDbEntity
  8
SIZE
 62
     0
100
AcDbLine
 10
-139.9999999999998
 20
32.46448280219375
 30
0.0
 11
-139.9999999999998
 21
136.4516878685508
 31
0.0
  0
LINE
  5
E7E
330
2B70
100
AcDbEntity
  8
SIZE
 62
     0
100
AcDbLine
 10
140.0
 20
32.46448280219375
 30
0.0
 11
140.0
 21
136.4516878685508
 31
0.0
  0
LINE
  5
E7F
330
2B70
100
AcDbEntity
  8
SIZE
 62
     0
100
AcDbLine
 10
-128.0
 20
116.4516878685508
 30
0.0
 11
128.0
 21
116.4516878685508
 31
0.0
  0
INSERT
  5
E80
330
2B70
100
AcDbEntity
  8
SIZE
 62
     0
100
AcDbBlockReference
  2
_DOTBLANK
 10
-139.9999999999998
 20
116.4516878685508
 30
0.0
 41
12.0
 42
12.0
 43
12.0
 50
180.0
  0
INSERT
  5
E81
330
2B70
100
AcDbEntity
  8
SIZE
 62
     0
100
AcDbBlockReference
  2
_DOTBLANK
 10
140.0
 20
116.4516878685508
 30
0.0
 41
12.0
 42
12.0
 43
12.0
  0
INSERT
  5
E82
330
2B70
100
AcDbEntity
  8
0
100
AcDbBlockReference
  2
*U10
 10
0.0
 20
0.0
 30
0.0
  0
POINT
  5
E83
330
2B70
100
AcDbEntity
  8
DEFPOINTS
 62
     0
100
AcDbPoint
 10
-139.9999999999998
 20
12.46448280219374
 30
0.0
  0
POINT
  5
E84
330
2B70
100
AcDbEntity
  8
DEFPOINTS
 62
     0
100
AcDbPoint
 10
140.0
 20
12.46448280219374
 30
0.0
  0
POINT
  5
E85
330
2B70
100
AcDbEntity
  8
DEFPOINTS
 62
     0
100
AcDbPoint
 10
140.0
 20
116.4516878685508
 30
0.0
  0
ENDBLK
  5
E7C
330
2B70
100
AcDbEntity
  8
0
100
AcDbBlockEnd
  0
BLOCK
  5
2B73
330
2B72
100
AcDbEntity
  8
0
100
AcDbBlockBegin
  2
*U10
 70
     1
 10
0.0
 20
0.0
 30
0.0
  3
*U10
  1

  0
TEXT
  5
1ED8
330
2B72
100
AcDbEntity
  8
SIZE
 62
     0
100
AcDbText
 10
-74.05714285714281
 20
126.4516878685508
 30
0.0
 40
64.0
  1
280
 41
0.9
100
AcDbText
  0
ENDBLK
  5
1EDA
330
2B72
100
AcDbEntity
  8
0
100
AcDbBlockEnd
  0
BLOCK
  5
2B75
330
2B74
100
AcDbEntity
  8
0
100
AcDbBlockBegin
  2
GENAXEH
 70
     0
 10
0.0
 20
0.0
 30
0.0
  3
GENAXEH
  1

  0
LINE
  5
FDB
330
2B74
100
AcDbEntity
  8
0
100
AcDbLine
 10
-1.0
 20
0.0
 30
0.0
 11
1.0
 21
0.0
 31
0.0
  0
ENDBLK
  5
FDD
330
2B74
100
AcDbEntity
  8
0
100
AcDbBlockEnd
  0
BLOCK
  5
2B77
330
2B76
100
AcDbEntity
  8
0
100
AcDbBlockBegin
  2
*D12
 70
     1
 10
0.0
 20
0.0
 30
0.0
  3
*D12
  1

  0
LINE
  5
1120
330
2B76
100
AcDbEntity
  8
SIZE
 62
     0
100
AcDbLine
 10
-157.5
 20
20.0
 30
0.0
 11
-157.5
 21
245.5794621189598
 31
0.0
  0
LINE
  5
1121
330
2B76
100
AcDbEntity
  8
SIZE
 62
     0
100
AcDbLine
 10
157.5
 20
20.0
 30
0.0
 11
157.5
 21
245.5794621189598
 31
0.0
  0
LINE
  5
1122
330
2B76
100
AcDbEntity
  8
SIZE
 62
     0
100
AcDbLine
 10
-145.5
 20
225.5794621189598
 30
0.0
 11
145.5
 21
225.5794621189598
 31
0.0
  0
INSERT
  5
1123
330
2B76
100
AcDbEntity
  8
SIZE
 62
     0
100
AcDbBlockReference
  2
_DOTBLANK
 10
-157.5
 20
225.5794621189598
 30
0.0
 41
12.0
 42
12.0
 43
12.0
 50
180.0
  0
INSERT
  5
1124
330
2B76
100
AcDbEntity
  8
SIZE
 62
     0
100
AcDbBlockReference
  2
_DOTBLANK
 10
157.5
 20
225.5794621189598
 30
0.0
 41
12.0
 42
12.0
 43
12.0
  0
INSERT
  5
1125
330
2B76
100
AcDbEntity
  8
0
100
AcDbBlockReference
  2
*U13
 10
0.0
 20
0.0
 30
0.0
  0
POINT
  5
1126
330
2B76
100
AcDbEntity
  8
DEFPOINTS
 62
     0
100
AcDbPoint
 10
-157.5
 20
0.0
 30
0.0
  0
POINT
  5
1127
330
2B76
100
AcDbEntity
  8
DEFPOINTS
 62
     0
100
AcDbPoint
 10
157.5
 20
0.0
 30
0.0
  0
POINT
  5
1128
330
2B76
100
AcDbEntity
  8
DEFPOINTS
 62
     0
100
AcDbPoint
 10
157.5
 20
225.5794621189598
 30
0.0
  0
ENDBLK
  5
111F
330
2B76
100
AcDbEntity
  8
0
100
AcDbBlockEnd
  0
BLOCK
  5
2B79
330
2B78
100
AcDbEntity
  8
0
100
AcDbBlockBegin
  2
*U13
 70
     1
 10
0.0
 20
0.0
 30
0.0
  3
*U13
  1

  0
TEXT
  5
1EDD
330
2B78
100
AcDbEntity
  8
SIZE
 62
     0
100
AcDbText
 10
-68.57142857142857
 20
235.5794621189599
 30
0.0
 40
64.0
  1
315
 41
0.9
100
AcDbText
  0
ENDBLK
  5
1EDF
330
2B78
100
AcDbEntity
  8
0
100
AcDbBlockEnd
  0
BLOCK
  5
2B7B
330
2B7A
100
AcDbEntity
  8
0
100
AcDbBlockBegin
  2
*D14
 70
     1
 10
0.0
 20
0.0
 30
0.0
  3
*D14
  1

  0
LINE
  5
11BD
330
2B7A
100
AcDbEntity
  8
NOTE
 62
     0
100
AcDbLine
 10
-123.4999999999999
 20
-320.0
 30
0.0
 11
-123.4999999999999
 21
-354.9529861856111
 31
0.0
  0
LINE
  5
11BE
330
2B7A
100
AcDbEntity
  8
NOTE
 62
     0
100
AcDbLine
 10
-133.4999999999998
 20
-331.2126909923287
 30
0.0
 11
-133.4999999999998
 21
-354.9529861856111
 31
0.0
  0
LINE
  5
11BF
330
2B7A
100
AcDbEntity
  8
NOTE
 62
     0
100
AcDbLine
 10
-111.4999999999999
 20
-334.9529861856112
 30
0.0
 11
-99.4999999999999
 21
-334.9529861856112
 31
0.0
  0
LINE
  5
11C0
330
2B7A
100
AcDbEntity
  8
NOTE
 62
     0
100
AcDbLine
 10
-145.4999999999998
 20
-334.9529861856112
 30
0.0
 11
-157.4999999999998
 21
-334.9529861856112
 31
0.0
  0
LINE
  5
11C1
330
2B7A
100
AcDbEntity
  8
NOTE
 62
     0
100
AcDbLine
 10
-123.4999999999999
 20
-334.9529861856112
 30
0.0
 11
-133.4999999999998
 21
-334.9529861856112
 31
0.0
  0
INSERT
  5
11C2
330
2B7A
100
AcDbEntity
  8
NOTE
 62
     0
100
AcDbBlockReference
  2
_DOTBLANK
 10
-123.4999999999999
 20
-334.9529861856112
 30
0.0
 41
12.0
 42
12.0
 43
12.0
 50
180.0
  0
INSERT
  5
11C3
330
2B7A
100
AcDbEntity
  8
NOTE
 62
     0
100
AcDbBlockReference
  2
_DOTBLANK
 10
-133.4999999999998
 20
-334.9529861856112
 30
0.0
 41
12.0
 42
12.0
 43
12.0
  0
INSERT
  5
11C4
330
2B7A
100
AcDbEntity
  8
0
100
AcDbBlockReference
  2
*U15
 10
0.0
 20
0.0
 30
0.0
  0
POINT
  5
11C5
330
2B7A
100
AcDbEntity
  8
DEFPOINTS
 62
     0
100
AcDbPoint
 10
-123.4999999999999
 20
-300.0
 30
0.0
  0
POINT
  5
11C6
330
2B7A
100
AcDbEntity
  8
DEFPOINTS
 62
     0
100
AcDbPoint
 10
-133.4999999999998
 20
-311.2126909923287
 30
0.0
  0
POINT
  5
11C7
330
2B7A
100
AcDbEntity
  8
DEFPOINTS
 62
     0
100
AcDbPoint
 10
-133.4999999999998
 20
-334.9529861856112
 30
0.0
  0
ENDBLK
  5
11BC
330
2B7A
100
AcDbEntity
  8
0
100
AcDbBlockEnd
  0
BLOCK
  5
2B7D
330
2B7C
100
AcDbEntity
  8
0
100
AcDbBlockBegin
  2
*U15
 70
     1
 10
0.0
 20
0.0
 30
0.0
  3
*U15
  1

  0
TEXT
  5
1EE5
330
2B7C
100
AcDbEntity
  8
NOTE
 62
     0
100
AcDbText
 10
-169.642857142857
 20
-324.9529861856112
 30
0.0
 40
64.0
  1
10
 41
0.9
100
AcDbText
  0
ENDBLK
  5
1EE7
330
2B7C
100
AcDbEntity
  8
0
100
AcDbBlockEnd
  0
BLOCK
  5
2B7F
330
2B7E
100
AcDbEntity
  8
0
100
AcDbBlockBegin
  2
*D16
 70
     1
 10
0.0
 20
0.0
 30
0.0
  3
*D16
  1

  0
LINE
  5
11E7
330
2B7E
100
AcDbEntity
  8
NOTE
 62
     0
100
AcDbLine
 10
-135.5
 20
-333.2126909923287
 30
0.0
 11
-135.5
 21
-386.2569421441843
 31
0.0
  0
LINE
  5
11E8
330
2B7E
100
AcDbEntity
  8
NOTE
 62
     0
100
AcDbLine
 10
-123.4999999999999
 20
-320.0
 30
0.0
 11
-123.4999999999999
 21
-386.2569421441843
 31
0.0
  0
LINE
  5
11E9
330
2B7E
100
AcDbEntity
  8
NOTE
 62
     0
100
AcDbLine
 10
-147.5
 20
-366.2569421441844
 30
0.0
 11
-159.5
 21
-366.2569421441844
 31
0.0
  0
LINE
  5
11EA
330
2B7E
100
AcDbEntity
  8
NOTE
 62
     0
100
AcDbLine
 10
-111.4999999999999
 20
-366.2569421441844
 30
0.0
 11
-99.4999999999999
 21
-366.2569421441844
 31
0.0
  0
LINE
  5
11EB
330
2B7E
100
AcDbEntity
  8
NOTE
 62
     0
100
AcDbLine
 10
-135.5
 20
-366.2569421441844
 30
0.0
 11
-123.4999999999999
 21
-366.2569421441844
 31
0.0
  0
INSERT
  5
11EC
330
2B7E
100
AcDbEntity
  8
NOTE
 62
     0
100
AcDbBlockReference
  2
_DOTBLANK
 10
-135.5
 20
-366.2569421441844
 30
0.0
 41
12.0
 42
12.0
 43
12.0
  0
INSERT
  5
11ED
330
2B7E
100
AcDbEntity
  8
NOTE
 62
     0
100
AcDbBlockReference
  2
_DOTBLANK
 10
-123.4999999999999
 20
-366.2569421441844
 30
0.0
 41
12.0
 42
12.0
 43
12.0
 50
180.0
  0
INSERT
  5
11EE
330
2B7E
100
AcDbEntity
  8
0
100
AcDbBlockReference
  2
*U17
 10
0.0
 20
0.0
 30
0.0
  0
POINT
  5
11EF
330
2B7E
100
AcDbEntity
  8
DEFPOINTS
 62
     0
100
AcDbPoint
 10
-135.5
 20
-313.2126909923287
 30
0.0
  0
POINT
  5
11F0
330
2B7E
100
AcDbEntity
  8
DEFPOINTS
 62
     0
100
AcDbPoint
 10
-123.4999999999999
 20
-300.0
 30
0.0
  0
POINT
  5
11F1
330
2B7E
100
AcDbEntity
  8
DEFPOINTS
 62
     0
100
AcDbPoint
 10
-123.4999999999999
 20
-366.2569421441844
 30
0.0
  0
ENDBLK
  5
11E6
330
2B7E
100
AcDbEntity
  8
0
100
AcDbBlockEnd
  0
BLOCK
  5
2B81
330
2B80
100
AcDbEntity
  8
0
100
AcDbBlockBegin
  2
*U17
 70
     1
 10
0.0
 20
0.0
 30
0.0
  3
*U17
  1

  0
TEXT
  5
1EE9
330
2B80
100
AcDbEntity
  8
NOTE
 62
     0
100
AcDbText
 10
-170.642857142857
 20
-356.2569421441843
 30
0.0
 40
64.0
  1
12
 41
0.9
100
AcDbText
  0
ENDBLK
  5
1EEB
330
2B80
100
AcDbEntity
  8
0
100
AcDbBlockEnd
  0
BLOCK
  5
2B83
330
2B82
100
AcDbEntity
  8
0
100
AcDbBlockBegin
  2
*D18
 70
     1
 10
0.0
 20
0.0
 30
0.0
  3
*D18
  1

  0
LINE
  5
11F6
330
2B82
100
AcDbEntity
  8
NOTE
 62
     0
100
AcDbLine
 10
-123.4999999999999
 20
-320.0
 30
0.0
 11
-123.4999999999999
 21
-583.8286022818904
 31
0.0
  0
LINE
  5
11F7
330
2B82
100
AcDbEntity
  8
NOTE
 62
     0
100
AcDbLine
 10
123.5
 20
-320.0
 30
0.0
 11
123.5
 21
-583.8286022818904
 31
0.0
  0
LINE
  5
11F8
330
2B82
100
AcDbEntity
  8
NOTE
 62
     0
100
AcDbLine
 10
-111.4999999999999
 20
-563.8286022818904
 30
0.0
 11
111.5
 21
-563.8286022818904
 31
0.0
  0
INSERT
  5
11F9
330
2B82
100
AcDbEntity
  8
NOTE
 62
     0
100
AcDbBlockReference
  2
_DOTBLANK
 10
-123.4999999999999
 20
-563.8286022818904
 30
0.0
 41
12.0
 42
12.0
 43
12.0
 50
180.0
  0
INSERT
  5
11FA
330
2B82
100
AcDbEntity
  8
NOTE
 62
     0
100
AcDbBlockReference
  2
_DOTBLANK
 10
123.5
 20
-563.8286022818904
 30
0.0
 41
12.0
 42
12.0
 43
12.0
  0
INSERT
  5
11FB
330
2B82
100
AcDbEntity
  8
0
100
AcDbBlockReference
  2
*U19
 10
0.0
 20
0.0
 30
0.0
  0
POINT
  5
11FC
330
2B82
100
AcDbEntity
  8
DEFPOINTS
 62
     0
100
AcDbPoint
 10
-123.4999999999999
 20
-300.0
 30
0.0
  0
POINT
  5
11FD
330
2B82
100
AcDbEntity
  8
DEFPOINTS
 62
     0
100
AcDbPoint
 10
123.5
 20
-300.0
 30
0.0
  0
POINT
  5
11FE
330
2B82
100
AcDbEntity
  8
DEFPOINTS
 62
     0
100
AcDbPoint
 10
123.5
 20
-563.8286022818904
 30
0.0
  0
ENDBLK
  5
11F5
330
2B82
100
AcDbEntity
  8
0
100
AcDbBlockEnd
  0
BLOCK
  5
2B85
330
2B84
100
AcDbEntity
  8
0
100
AcDbBlockBegin
  2
*U19
 70
     1
 10
0.0
 20
0.0
 30
0.0
  3
*U19
  1

  0
TEXT
  5
1EED
330
2B84
100
AcDbEntity
  8
NOTE
 62
     0
100
AcDbText
 10
-74.05714285714281
 20
-553.8286022818904
 30
0.0
 40
64.0
  1
247
 41
0.9
100
AcDbText
  0
ENDBLK
  5
1EEF
330
2B84
100
AcDbEntity
  8
0
100
AcDbBlockEnd
  0
BLOCK
  5
2B87
330
2B86
100
AcDbEntity
  8
0
100
AcDbBlockBegin
  2
*D20
 70
     1
 10
0.0
 20
0.0
 30
0.0
  3
*D20
  1

  0
LINE
  5
1284
330
2B86
100
AcDbEntity
  8
NOTE
 62
     0
100
AcDbLine
 10
-123.5
 20
12.0
 30
0.0
 11
-123.5
 21
71.83630134534229
 31
0.0
  0
LINE
  5
1285
330
2B86
100
AcDbEntity
  8
NOTE
 62
     0
100
AcDbLine
 10
123.5
 20
12.0
 30
0.0
 11
123.5
 21
71.83630134534229
 31
0.0
  0
LINE
  5
1286
330
2B86
100
AcDbEntity
  8
NOTE
 62
     0
100
AcDbLine
 10
-111.5
 20
51.83630134534229
 30
0.0
 11
111.5
 21
51.83630134534229
 31
0.0
  0
INSERT
  5
1287
330
2B86
100
AcDbEntity
  8
NOTE
 62
     0
100
AcDbBlockReference
  2
_DOTBLANK
 10
-123.5
 20
51.83630134534229
 30
0.0
 41
12.0
 42
12.0
 43
12.0
 50
180.0
  0
INSERT
  5
1288
330
2B86
100
AcDbEntity
  8
NOTE
 62
     0
100
AcDbBlockReference
  2
_DOTBLANK
 10
123.5
 20
51.83630134534229
 30
0.0
 41
12.0
 42
12.0
 43
12.0
  0
INSERT
  5
1289
330
2B86
100
AcDbEntity
  8
0
100
AcDbBlockReference
  2
*U21
 10
0.0
 20
0.0
 30
0.0
  0
POINT
  5
128A
330
2B86
100
AcDbEntity
  8
DEFPOINTS
 62
     0
100
AcDbPoint
 10
-123.5
 20
-8.0
 30
0.0
  0
POINT
  5
128B
330
2B86
100
AcDbEntity
  8
DEFPOINTS
 62
     0
100
AcDbPoint
 10
123.5
 20
-8.0
 30
0.0
  0
POINT
  5
128C
330
2B86
100
AcDbEntity
  8
DEFPOINTS
 62
     0
100
AcDbPoint
 10
123.5
 20
51.83630134534229
 30
0.0
  0
ENDBLK
  5
1283
330
2B86
100
AcDbEntity
  8
0
100
AcDbBlockEnd
  0
BLOCK
  5
2B89
330
2B88
100
AcDbEntity
  8
0
100
AcDbBlockBegin
  2
*U21
 70
     1
 10
0.0
 20
0.0
 30
0.0
  3
*U21
  1

  0
TEXT
  5
1EF1
330
2B88
100
AcDbEntity
  8
NOTE
 62
     0
100
AcDbText
 10
-74.05714285714283
 20
61.83630134534229
 30
0.0
 40
64.0
  1
247
 41
0.9
100
AcDbText
  0
ENDBLK
  5
1EF3
330
2B88
100
AcDbEntity
  8
0
100
AcDbBlockEnd
  0
BLOCK
  5
2B8B
330
2B8A
100
AcDbEntity
  8
0
100
AcDbBlockBegin
  2
*D22
 70
     1
 10
0.0
 20
0.0
 30
0.0
  3
*D22
  1

  0
LINE
  5
1414
330
2B8A
100
AcDbEntity
  8
SIZE
 62
     0
100
AcDbLine
 10
-22313.11521613997
 20
7365.702971374808
 30
0.0
 11
-22313.11521613997
 21
7217.685576144207
 31
0.0
  0
LINE
  5
1415
330
2B8A
100
AcDbEntity
  8
SIZE
 62
     0
100
AcDbLine
 10
-22044.11521613997
 20
7365.702971374808
 30
0.0
 11
-22044.11521613997
 21
7217.685576144207
 31
0.0
  0
LINE
  5
1416
330
2B8A
100
AcDbEntity
  8
SIZE
 62
     0
100
AcDbLine
 10
-22301.11521613997
 20
7237.685576144207
 30
0.0
 11
-22056.11521613997
 21
7237.685576144207
 31
0.0
  0
INSERT
  5
1417
330
2B8A
100
AcDbEntity
  8
SIZE
 62
     0
100
AcDbBlockReference
  2
_DOTBLANK
 10
-22313.11521613997
 20
7237.685576144207
 30
0.0
 41
12.0
 42
12.0
 43
12.0
 50
180.0
  0
INSERT
  5
1418
330
2B8A
100
AcDbEntity
  8
SIZE
 62
     0
100
AcDbBlockReference
  2
_DOTBLANK
 10
-22044.11521613997
 20
7237.685576144207
 30
0.0
 41
12.0
 42
12.0
 43
12.0
  0
INSERT
  5
1419
330
2B8A
100
AcDbEntity
  8
0
100
AcDbBlockReference
  2
*U23
 10
0.0
 20
0.0
 30
0.0
  0
POINT
  5
141A
330
2B8A
100
AcDbEntity
  8
DEFPOINTS
 62
     0
100
AcDbPoint
 10
-22313.11521613997
 20
7385.702971374808
 30
0.0
  0
POINT
  5
141B
330
2B8A
100
AcDbEntity
  8
DEFPOINTS
 62
     0
100
AcDbPoint
 10
-22044.11521613997
 20
7385.702971374808
 30
0.0
  0
POINT
  5
141C
330
2B8A
100
AcDbEntity
  8
DEFPOINTS
 62
     0
100
AcDbPoint
 10
-22044.11521613997
 20
7237.685576144207
 30
0.0
  0
ENDBLK
  5
141D
330
2B8A
100
AcDbEntity
  8
0
100
AcDbBlockEnd
  0
BLOCK
  5
2B8D
330
2B8C
100
AcDbEntity
  8
0
100
AcDbBlockBegin
  2
*U23
 70
     1
 10
0.0
 20
0.0
 30
0.0
  3
*U23
  1

  0
TEXT
  5
1EF9
330
2B8C
100
AcDbEntity
  8
SIZE
 62
     0
100
AcDbText
 10
-22251.30093042568
 20
7247.685576144205
 30
0.0
 40
64.0
  1
269
 41
0.9
100
AcDbText
  0
ENDBLK
  5
1EFB
330
2B8C
100
AcDbEntity
  8
0
100
AcDbBlockEnd
  0
BLOCK
  5
2B8F
330
2B8E
100
AcDbEntity
  8
0
100
AcDbBlockBegin
  2
*D24
 70
     1
 10
0.0
 20
0.0
 30
0.0
  3
*D24
  1

  0
LINE
  5
1420
330
2B8E
100
AcDbEntity
  8
SIZE
  6
Continuous
 62
     0
100
AcDbLine
 10
-22035.11521613997
 20
7385.702971374808
 30
0.0
 11
-21873.97193165959
 21
7385.702971374808
 31
0.0
  0
LINE
  5
1421
330
2B8E
100
AcDbEntity
  8
SIZE
  6
Continuous
 62
     0
100
AcDbLine
 10
-22001.11521613997
 20
7685.702971374808
 30
0.0
 11
-21873.97193165959
 21
7685.702971374808
 31
0.0
  0
LINE
  5
1422
330
2B8E
100
AcDbEntity
  8
SIZE
  6
Continuous
 62
     0
100
AcDbLine
 10
-21893.97193165959
 20
7397.702971374808
 30
0.0
 11
-21893.97193165959
 21
7673.702971374808
 31
0.0
  0
INSERT
  5
1423
330
2B8E
100
AcDbEntity
  8
SIZE
  6
Continuous
 62
     0
100
AcDbBlockReference
  2
_DOTBLANK
 10
-21893.97193165959
 20
7385.702971374808
 30
0.0
 41
12.0
 42
12.0
 43
12.0
 50
270.0
  0
INSERT
  5
1424
330
2B8E
100
AcDbEntity
  8
SIZE
  6
Continuous
 62
     0
100
AcDbBlockReference
  2
_DOTBLANK
 10
-21893.97193165959
 20
7685.702971374808
 30
0.0
 41
12.0
 42
12.0
 43
12.0
 50
90.0
  0
INSERT
  5
1425
330
2B8E
100
AcDbEntity
  8
0
100
AcDbBlockReference
  2
*U25
 10
0.0
 20
0.0
 30
0.0
  0
POINT
  5
1426
330
2B8E
100
AcDbEntity
  8
DEFPOINTS
  6
Continuous
 62
     0
100
AcDbPoint
 10
-22055.11521613997
 20
7385.702971374808
 30
0.0
  0
POINT
  5
1427
330
2B8E
100
AcDbEntity
  8
DEFPOINTS
  6
Continuous
 62
     0
100
AcDbPoint
 10
-22021.11521613997
 20
7685.702971374808
 30
0.0
  0
POINT
  5
1428
330
2B8E
100
AcDbEntity
  8
DEFPOINTS
  6
Continuous
 62
     0
100
AcDbPoint
 10
-21893.97193165959
 20
7685.702971374808
 30
0.0
  0
ENDBLK
  5
1429
330
2B8E
100
AcDbEntity
  8
0
100
AcDbBlockEnd
  0
BLOCK
  5
2B91
330
2B90
100
AcDbEntity
  8
0
100
AcDbBlockBegin
  2
*U25
 70
     1
 10
0.0
 20
0.0
 30
0.0
  3
*U25
  1

  0
TEXT
  5
1EFD
330
2B90
100
AcDbEntity
  8
SIZE
 62
     0
100
AcDbText
 10
-21903.97193165959
 20
7461.645828517662
 30
0.0
 40
64.0
  1
300
 50
90.0
 41
0.9
100
AcDbText
  0
ENDBLK
  5
1EFF
330
2B90
100
AcDbEntity
  8
0
100
AcDbBlockEnd
  0
BLOCK
  5
2B93
330
2B92
100
AcDbEntity
  8
0
100
AcDbBlockBegin
  2
*D26
 70
     1
 10
0.0
 20
0.0
 30
0.0
  3
*D26
  1

  0
LINE
  5
142C
330
2B92
100
AcDbEntity
  8
SIZE
 62
     0
100
AcDbLine
 10
-22318.61521613997
 20
7718.167454177002
 30
0.0
 11
-22318.61521613997
 21
7822.154659243358
 31
0.0
  0
LINE
  5
142D
330
2B92
100
AcDbEntity
  8
SIZE
 62
     0
100
AcDbLine
 10
-22038.61521613997
 20
7718.167454177002
 30
0.0
 11
-22038.61521613997
 21
7822.154659243358
 31
0.0
  0
LINE
  5
142E
330
2B92
100
AcDbEntity
  8
SIZE
 62
     0
100
AcDbLine
 10
-22306.61521613997
 20
7802.154659243358
 30
0.0
 11
-22050.61521613997
 21
7802.154659243358
 31
0.0
  0
INSERT
  5
142F
330
2B92
100
AcDbEntity
  8
SIZE
 62
     0
100
AcDbBlockReference
  2
_DOTBLANK
 10
-22318.61521613997
 20
7802.154659243358
 30
0.0
 41
12.0
 42
12.0
 43
12.0
 50
180.0
  0
INSERT
  5
1430
330
2B92
100
AcDbEntity
  8
SIZE
 62
     0
100
AcDbBlockReference
  2
_DOTBLANK
 10
-22038.61521613997
 20
7802.154659243358
 30
0.0
 41
12.0
 42
12.0
 43
12.0
  0
INSERT
  5
1431
330
2B92
100
AcDbEntity
  8
0
100
AcDbBlockReference
  2
*U27
 10
0.0
 20
0.0
 30
0.0
  0
POINT
  5
1432
330
2B92
100
AcDbEntity
  8
DEFPOINTS
 62
     0
100
AcDbPoint
 10
-22318.61521613997
 20
7698.167454177002
 30
0.0
  0
POINT
  5
1433
330
2B92
100
AcDbEntity
  8
DEFPOINTS
 62
     0
100
AcDbPoint
 10
-22038.61521613997
 20
7698.167454177002
 30
0.0
  0
POINT
  5
1434
330
2B92
100
AcDbEntity
  8
DEFPOINTS
 62
     0
100
AcDbPoint
 10
-22038.61521613997
 20
7802.154659243358
 30
0.0
  0
ENDBLK
  5
1435
330
2B92
100
AcDbEntity
  8
0
100
AcDbBlockEnd
  0
BLOCK
  5
2B95
330
2B94
100
AcDbEntity
  8
0
100
AcDbBlockBegin
  2
*U27
 70
     1
 10
0.0
 20
0.0
 30
0.0
  3
*U27
  1

  0
TEXT
  5
1F01
330
2B94
100
AcDbEntity
  8
SIZE
 62
     0
100
AcDbText
 10
-22252.6723589971
 20
7812.154659243358
 30
0.0
 40
64.0
  1
280
 41
0.9
100
AcDbText
  0
ENDBLK
  5
1F03
330
2B94
100
AcDbEntity
  8
0
100
AcDbBlockEnd
  0
BLOCK
  5
2B97
330
2B96
100
AcDbEntity
  8
0
100
AcDbBlockBegin
  2
*D28
 70
     1
 10
0.0
 20
0.0
 30
0.0
  3
*D28
  1

  0
LINE
  5
1438
330
2B96
100
AcDbEntity
  8
SIZE
 62
     0
100
AcDbLine
 10
-22336.11521613997
 20
7705.702971374808
 30
0.0
 11
-22336.11521613997
 21
7931.282433493766
 31
0.0
  0
LINE
  5
1439
330
2B96
100
AcDbEntity
  8
SIZE
 62
     0
100
AcDbLine
 10
-22021.11521613997
 20
7705.702971374808
 30
0.0
 11
-22021.11521613997
 21
7931.282433493766
 31
0.0
  0
LINE
  5
143A
330
2B96
100
AcDbEntity
  8
SIZE
 62
     0
100
AcDbLine
 10
-22324.11521613997
 20
7911.282433493766
 30
0.0
 11
-22033.11521613997
 21
7911.282433493766
 31
0.0
  0
INSERT
  5
143B
330
2B96
100
AcDbEntity
  8
SIZE
 62
     0
100
AcDbBlockReference
  2
_DOTBLANK
 10
-22336.11521613997
 20
7911.282433493766
 30
0.0
 41
12.0
 42
12.0
 43
12.0
 50
180.0
  0
INSERT
  5
143C
330
2B96
100
AcDbEntity
  8
SIZE
 62
     0
100
AcDbBlockReference
  2
_DOTBLANK
 10
-22021.11521613997
 20
7911.282433493766
 30
0.0
 41
12.0
 42
12.0
 43
12.0
  0
INSERT
  5
143D
330
2B96
100
AcDbEntity
  8
0
100
AcDbBlockReference
  2
*U29
 10
0.0
 20
0.0
 30
0.0
  0
POINT
  5
143E
330
2B96
100
AcDbEntity
  8
DEFPOINTS
 62
     0
100
AcDbPoint
 10
-22336.11521613997
 20
7685.702971374808
 30
0.0
  0
POINT
  5
143F
330
2B96
100
AcDbEntity
  8
DEFPOINTS
 62
     0
100
AcDbPoint
 10
-22021.11521613997
 20
7685.702971374808
 30
0.0
  0
POINT
  5
1440
330
2B96
100
AcDbEntity
  8
DEFPOINTS
 62
     0
100
AcDbPoint
 10
-22021.11521613997
 20
7911.282433493766
 30
0.0
  0
ENDBLK
  5
1441
330
2B96
100
AcDbEntity
  8
0
100
AcDbBlockEnd
  0
BLOCK
  5
2B99
330
2B98
100
AcDbEntity
  8
0
100
AcDbBlockBegin
  2
*U29
 70
     1
 10
0.0
 20
0.0
 30
0.0
  3
*U29
  1

  0
TEXT
  5
1F05
330
2B98
100
AcDbEntity
  8
SIZE
 62
     0
100
AcDbText
 10
-22247.18664471139
 20
7921.282433493766
 30
0.0
 40
64.0
  1
315
 41
0.9
100
AcDbText
  0
ENDBLK
  5
1F07
330
2B98
100
AcDbEntity
  8
0
100
AcDbBlockEnd
  0
BLOCK
  5
2B9B
330
2B9A
100
AcDbEntity
  8
0
100
AcDbBlockBegin
  2
*D30
 70
     1
 10
0.0
 20
0.0
 30
0.0
  3
*D30
  1

  0
LINE
  5
166B
330
2B9A
100
AcDbEntity
  8
SIZE
 62
     0
100
AcDbLine
 10
-134.5
 20
-320.0
 30
0.0
 11
-134.5
 21
-468.0173952306001
 31
0.0
  0
LINE
  5
166C
330
2B9A
100
AcDbEntity
  8
SIZE
 62
     0
100
AcDbLine
 10
134.5
 20
-320.0
 30
0.0
 11
134.5
 21
-468.0173952306001
 31
0.0
  0
LINE
  5
166D
330
2B9A
100
AcDbEntity
  8
SIZE
 62
     0
100
AcDbLine
 10
-122.5
 20
-448.0173952306
 30
0.0
 11
122.5
 21
-448.0173952306
 31
0.0
  0
INSERT
  5
166E
330
2B9A
100
AcDbEntity
  8
SIZE
 62
     0
100
AcDbBlockReference
  2
_DOTBLANK
 10
-134.5
 20
-448.0173952306
 30
0.0
 41
12.0
 42
12.0
 43
12.0
 50
180.0
  0
INSERT
  5
166F
330
2B9A
100
AcDbEntity
  8
SIZE
 62
     0
100
AcDbBlockReference
  2
_DOTBLANK
 10
134.5
 20
-448.0173952306
 30
0.0
 41
12.0
 42
12.0
 43
12.0
  0
INSERT
  5
1670
330
2B9A
100
AcDbEntity
  8
0
100
AcDbBlockReference
  2
*U31
 10
0.0
 20
0.0
 30
0.0
  0
POINT
  5
1671
330
2B9A
100
AcDbEntity
  8
DEFPOINTS
 62
     0
100
AcDbPoint
 10
-134.5
 20
-300.0
 30
0.0
  0
POINT
  5
1672
330
2B9A
100
AcDbEntity
  8
DEFPOINTS
 62
     0
100
AcDbPoint
 10
134.5
 20
-300.0
 30
0.0
  0
POINT
  5
1673
330
2B9A
100
AcDbEntity
  8
DEFPOINTS
 62
     0
100
AcDbPoint
 10
134.5
 20
-448.0173952306
 30
0.0
  0
ENDBLK
  5
14A7
330
2B9A
100
AcDbEntity
  8
0
100
AcDbBlockEnd
  0
BLOCK
  5
2B9D
330
2B9C
100
AcDbEntity
  8
0
100
AcDbBlockBegin
  2
*U31
 70
     1
 10
0.0
 20
0.0
 30
0.0
  3
*U31
  1

  0
TEXT
  5
1F09
330
2B9C
100
AcDbEntity
  8
SIZE
 62
     0
100
AcDbText
 10
-72.68571428571426
 20
-438.0173952306002
 30
0.0
 40
64.0
  1
269
 41
0.9
100
AcDbText
  0
ENDBLK
  5
1F0B
330
2B9C
100
AcDbEntity
  8
0
100
AcDbBlockEnd
  0
BLOCK
  5
2B9F
330
2B9E
100
AcDbEntity
  8
0
100
AcDbBlockBegin
  2
*D32
 70
     1
 10
0.0
 20
0.0
 30
0.0
  3
*D32
  1

  0
LINE
  5
1674
330
2B9E
100
AcDbEntity
  8
SIZE
  6
Continuous
 62
     0
100
AcDbLine
 10
143.5
 20
-300.0
 30
0.0
 11
304.6432844803784
 21
-300.0
 31
0.0
  0
LINE
  5
1675
330
2B9E
100
AcDbEntity
  8
SIZE
  6
Continuous
 62
     0
100
AcDbLine
 10
177.5
 20
-0.0000000000000057
 30
0.0
 11
304.6432844803785
 21
-0.0000000000000417
 31
0.0
  0
LINE
  5
1676
330
2B9E
100
AcDbEntity
  8
SIZE
  6
Continuous
 62
     0
100
AcDbLine
 10
284.6432844803784
 20
-288.0000000000001
 30
0.0
 11
284.6432844803785
 21
-12.00000000000003
 31
0.0
  0
INSERT
  5
1677
330
2B9E
100
AcDbEntity
  8
SIZE
  6
Continuous
 62
     0
100
AcDbBlockReference
  2
_DOTBLANK
 10
284.6432844803784
 20
-300.0
 30
0.0
 41
12.0
 42
12.0
 43
12.0
 50
270.0
  0
INSERT
  5
1678
330
2B9E
100
AcDbEntity
  8
SIZE
  6
Continuous
 62
     0
100
AcDbBlockReference
  2
_DOTBLANK
 10
284.6432844803785
 20
-0.000000000000036
 30
0.0
 41
12.0
 42
12.0
 43
12.0
 50
90.0
  0
INSERT
  5
1679
330
2B9E
100
AcDbEntity
  8
0
100
AcDbBlockReference
  2
*U33
 10
0.0
 20
0.0
 30
0.0
  0
POINT
  5
167A
330
2B9E
100
AcDbEntity
  8
DEFPOINTS
  6
Continuous
 62
     0
100
AcDbPoint
 10
123.5
 20
-300.0
 30
0.0
  0
POINT
  5
167B
330
2B9E
100
AcDbEntity
  8
DEFPOINTS
  6
Continuous
 62
     0
100
AcDbPoint
 10
157.5
 20
0.0
 30
0.0
  0
POINT
  5
167C
330
2B9E
100
AcDbEntity
  8
DEFPOINTS
  6
Continuous
 62
     0
100
AcDbPoint
 10
284.6432844803785
 20
-0.000000000000036
 30
0.0
  0
ENDBLK
  5
14B3
330
2B9E
100
AcDbEntity
  8
0
100
AcDbBlockEnd
  0
BLOCK
  5
2BA1
330
2BA0
100
AcDbEntity
  8
0
100
AcDbBlockBegin
  2
*U33
 70
     1
 10
0.0
 20
0.0
 30
0.0
  3
*U33
  1

  0
TEXT
  5
1F0D
330
2BA0
100
AcDbEntity
  8
SIZE
 62
     0
100
AcDbText
 10
274.6432844803785
 20
-224.0571428571429
 30
0.0
 40
64.0
  1
300
 50
90.0
 41
0.9
100
AcDbText
  0
ENDBLK
  5
1F0F
330
2BA0
100
AcDbEntity
  8
0
100
AcDbBlockEnd
  0
BLOCK
  5
2BA3
330
2BA2
100
AcDbEntity
  8
0
100
AcDbBlockBegin
  2
*D34
 70
     1
 10
0.0
 20
0.0
 30
0.0
  3
*D34
  1

  0
LINE
  5
167D
330
2BA2
100
AcDbEntity
  8
SIZE
 62
     0
100
AcDbLine
 10
-140.0
 20
32.46448280219375
 30
0.0
 11
-140.0
 21
136.4516878685507
 31
0.0
  0
LINE
  5
167E
330
2BA2
100
AcDbEntity
  8
SIZE
 62
     0
100
AcDbLine
 10
140.0
 20
32.46448280219375
 30
0.0
 11
140.0
 21
136.4516878685507
 31
0.0
  0
LINE
  5
167F
330
2BA2
100
AcDbEntity
  8
SIZE
 62
     0
100
AcDbLine
 10
-128.0
 20
116.4516878685508
 30
0.0
 11
128.0
 21
116.4516878685508
 31
0.0
  0
INSERT
  5
1680
330
2BA2
100
AcDbEntity
  8
SIZE
 62
     0
100
AcDbBlockReference
  2
_DOTBLANK
 10
-140.0
 20
116.4516878685508
 30
0.0
 41
12.0
 42
12.0
 43
12.0
 50
180.0
  0
INSERT
  5
1681
330
2BA2
100
AcDbEntity
  8
SIZE
 62
     0
100
AcDbBlockReference
  2
_DOTBLANK
 10
140.0
 20
116.4516878685508
 30
0.0
 41
12.0
 42
12.0
 43
12.0
  0
INSERT
  5
1682
330
2BA2
100
AcDbEntity
  8
0
100
AcDbBlockReference
  2
*U35
 10
0.0
 20
0.0
 30
0.0
  0
POINT
  5
1683
330
2BA2
100
AcDbEntity
  8
DEFPOINTS
 62
     0
100
AcDbPoint
 10
-140.0
 20
12.46448280219374
 30
0.0
  0
POINT
  5
1684
330
2BA2
100
AcDbEntity
  8
DEFPOINTS
 62
     0
100
AcDbPoint
 10
140.0
 20
12.46448280219374
 30
0.0
  0
POINT
  5
1685
330
2BA2
100
AcDbEntity
  8
DEFPOINTS
 62
     0
100
AcDbPoint
 10
140.0
 20
116.4516878685508
 30
0.0
  0
ENDBLK
  5
14BF
330
2BA2
100
AcDbEntity
  8
0
100
AcDbBlockEnd
  0
BLOCK
  5
2BA5
330
2BA4
100
AcDbEntity
  8
0
100
AcDbBlockBegin
  2
*U35
 70
     1
 10
0.0
 20
0.0
 30
0.0
  3
*U35
  1

  0
TEXT
  5
1F11
330
2BA4
100
AcDbEntity
  8
SIZE
 62
     0
100
AcDbText
 10
-74.05714285714283
 20
126.4516878685507
 30
0.0
 40
64.0
  1
280
 41
0.9
100
AcDbText
  0
ENDBLK
  5
1F13
330
2BA4
100
AcDbEntity
  8
0
100
AcDbBlockEnd
  0
BLOCK
  5
2BA7
330
2BA6
100
AcDbEntity
  8
0
100
AcDbBlockBegin
  2
*D36
 70
     1
 10
0.0
 20
0.0
 30
0.0
  3
*D36
  1

  0
LINE
  5
1686
330
2BA6
100
AcDbEntity
  8
SIZE
 62
     0
100
AcDbLine
 10
-157.5
 20
20.0
 30
0.0
 11
-157.5
 21
245.5794621189598
 31
0.0
  0
LINE
  5
1687
330
2BA6
100
AcDbEntity
  8
SIZE
 62
     0
100
AcDbLine
 10
157.5
 20
20.0
 30
0.0
 11
157.5
 21
245.5794621189598
 31
0.0
  0
LINE
  5
1688
330
2BA6
100
AcDbEntity
  8
SIZE
 62
     0
100
AcDbLine
 10
-145.5
 20
225.5794621189598
 30
0.0
 11
145.5
 21
225.5794621189598
 31
0.0
  0
INSERT
  5
1689
330
2BA6
100
AcDbEntity
  8
SIZE
 62
     0
100
AcDbBlockReference
  2
_DOTBLANK
 10
-157.5
 20
225.5794621189598
 30
0.0
 41
12.0
 42
12.0
 43
12.0
 50
180.0
  0
INSERT
  5
168A
330
2BA6
100
AcDbEntity
  8
SIZE
 62
     0
100
AcDbBlockReference
  2
_DOTBLANK
 10
157.5
 20
225.5794621189598
 30
0.0
 41
12.0
 42
12.0
 43
12.0
  0
INSERT
  5
168B
330
2BA6
100
AcDbEntity
  8
0
100
AcDbBlockReference
  2
*U37
 10
0.0
 20
0.0
 30
0.0
  0
POINT
  5
168C
330
2BA6
100
AcDbEntity
  8
DEFPOINTS
 62
     0
100
AcDbPoint
 10
-157.5
 20
0.0
 30
0.0
  0
POINT
  5
168D
330
2BA6
100
AcDbEntity
  8
DEFPOINTS
 62
     0
100
AcDbPoint
 10
157.5
 20
0.0
 30
0.0
  0
POINT
  5
168E
330
2BA6
100
AcDbEntity
  8
DEFPOINTS
 62
     0
100
AcDbPoint
 10
157.5
 20
225.5794621189598
 30
0.0
  0
ENDBLK
  5
14CB
330
2BA6
100
AcDbEntity
  8
0
100
AcDbBlockEnd
  0
BLOCK
  5
2BA9
330
2BA8
100
AcDbEntity
  8
0
100
AcDbBlockBegin
  2
*U37
 70
     1
 10
0.0
 20
0.0
 30
0.0
  3
*U37
  1

  0
TEXT
  5
1F15
330
2BA8
100
AcDbEntity
  8
SIZE
 62
     0
100
AcDbText
 10
-68.57142857142857
 20
235.5794621189598
 30
0.0
 40
64.0
  1
315
 41
0.9
100
AcDbText
  0
ENDBLK
  5
1F17
330
2BA8
100
AcDbEntity
  8
0
100
AcDbBlockEnd
  0
BLOCK
  5
2BAB
330
2BAA
100
AcDbEntity
  8
0
100
AcDbBlockBegin
  2
*U38
 70
     1
 10
0.0
 20
0.0
 30
0.0
  3
*U38
  1

  0
ENDBLK
  5
15CF
330
2BAA
100
AcDbEntity
  8
0
100
AcDbBlockEnd
  0
BLOCK
  5
2BAD
330
2BAC
100
AcDbEntity
  8
0
100
AcDbBlockBegin
  2
*D39
 70
     1
 10
0.0
 20
0.0
 30
0.0
  3
*D39
  1

  0
LINE
  5
1692
330
2BAC
100
AcDbEntity
  8
SIZE
 62
     0
100
AcDbLine
 10
-25844.51823276502
 20
7685.702971374808
 30
0.0
 11
-25981.04465488371
 21
7685.702971374808
 31
0.0
  0
LINE
  5
1693
330
2BAC
100
AcDbEntity
  8
SIZE
 62
     0
100
AcDbLine
 10
-25844.51823276502
 20
7677.702971374808
 30
0.0
 11
-25981.04465488371
 21
7677.702971374808
 31
0.0
  0
LINE
  5
1694
330
2BAC
100
AcDbEntity
  8
SIZE
 62
     0
100
AcDbLine
 10
-25961.04465488371
 20
7697.702971374808
 30
0.0
 11
-25961.04465488371
 21
7709.702971374809
 31
0.0
  0
LINE
  5
1695
330
2BAC
100
AcDbEntity
  8
SIZE
 62
     0
100
AcDbLine
 10
-25961.04465488371
 20
7665.70297137481
 30
0.0
 11
-25961.04465488371
 21
7595.302971374808
 31
0.0
  0
INSERT
  5
1696
330
2BAC
100
AcDbEntity
  8
SIZE
 62
     0
100
AcDbBlockReference
  2
_DOTBLANK
 10
-25961.04465488371
 20
7685.702971374808
 30
0.0
 41
12.0
 42
12.0
 43
12.0
 50
270.0
  0
INSERT
  5
1697
330
2BAC
100
AcDbEntity
  8
SIZE
 62
     0
100
AcDbBlockReference
  2
_DOTBLANK
 10
-25961.04465488371
 20
7677.702971374808
 30
0.0
 41
12.0
 42
12.0
 43
12.0
 50
90.0
  0
INSERT
  5
1698
330
2BAC
100
AcDbEntity
  8
0
100
AcDbBlockReference
  2
*U40
 10
0.0
 20
0.0
 30
0.0
  0
POINT
  5
1699
330
2BAC
100
AcDbEntity
  8
DEFPOINTS
 62
     0
100
AcDbPoint
 10
-25824.51823276501
 20
7685.702971374808
 30
0.0
  0
POINT
  5
169A
330
2BAC
100
AcDbEntity
  8
DEFPOINTS
 62
     0
100
AcDbPoint
 10
-25824.51823276501
 20
7677.702971374808
 30
0.0
  0
POINT
  5
169B
330
2BAC
100
AcDbEntity
  8
DEFPOINTS
 62
     0
100
AcDbPoint
 10
-25961.04465488371
 20
7677.702971374808
 30
0.0
  0
ENDBLK
  5
169C
330
2BAC
100
AcDbEntity
  8
0
100
AcDbBlockEnd
  0
BLOCK
  5
2BAF
330
2BAE
100
AcDbEntity
  8
0
100
AcDbBlockBegin
  2
*U40
 70
     1
 10
0.0
 20
0.0
 30
0.0
  3
*U40
  1

  0
TEXT
  5
1F19
330
2BAE
100
AcDbEntity
  8
SIZE
 62
     0
100
AcDbText
 10
-25971.04465488371
 20
7605.302971374804
 30
0.0
 40
64.0
  1
8
 50
90.0
 41
0.9
100
AcDbText
  0
ENDBLK
  5
1F1B
330
2BAE
100
AcDbEntity
  8
0
100
AcDbBlockEnd
  0
BLOCK
  5
2BB1
330
2BB0
100
AcDbEntity
  8
0
100
AcDbBlockBegin
  2
*D41
 70
     1
 10
0.0
 20
0.0
 30
0.0
  3
*D41
  1

  0
LINE
  5
169F
330
2BB0
100
AcDbEntity
  8
SIZE
 62
     0
100
AcDbLine
 10
-25512.51823276502
 20
7385.702971374808
 30
0.0
 11
-25362.37494828464
 21
7385.702971374808
 31
0.0
  0
LINE
  5
16A0
330
2BB0
100
AcDbEntity
  8
SIZE
 62
     0
100
AcDbLine
 10
-25523.51823276501
 20
7373.702971374808
 30
0.0
 11
-25362.37494828464
 21
7373.702971374808
 31
0.0
  0
LINE
  5
16A1
330
2BB0
100
AcDbEntity
  8
SIZE
 62
     0
100
AcDbLine
 10
-25382.37494828464
 20
7397.702971374808
 30
0.0
 11
-25382.37494828464
 21
7409.70297137481
 31
0.0
  0
LINE
  5
16A2
330
2BB0
100
AcDbEntity
  8
SIZE
 62
     0
100
AcDbLine
 10
-25382.37494828464
 20
7361.702971374808
 30
0.0
 11
-25382.37494828464
 21
7244.674399946238
 31
0.0
  0
INSERT
  5
16A3
330
2BB0
100
AcDbEntity
  8
SIZE
 62
     0
100
AcDbBlockReference
  2
_DOTBLANK
 10
-25382.37494828464
 20
7385.702971374808
 30
0.0
 41
12.0
 42
12.0
 43
12.0
 50
270.0
  0
INSERT
  5
16A4
330
2BB0
100
AcDbEntity
  8
SIZE
 62
     0
100
AcDbBlockReference
  2
_DOTBLANK
 10
-25382.37494828464
 20
7373.702971374808
 30
0.0
 41
12.0
 42
12.0
 43
12.0
 50
90.0
  0
INSERT
  5
16A5
330
2BB0
100
AcDbEntity
  8
0
100
AcDbBlockReference
  2
*U42
 10
0.0
 20
0.0
 30
0.0
  0
POINT
  5
16A6
330
2BB0
100
AcDbEntity
  8
DEFPOINTS
 62
     0
100
AcDbPoint
 10
-25532.51823276502
 20
7385.702971374808
 30
0.0
  0
POINT
  5
16A7
330
2BB0
100
AcDbEntity
  8
DEFPOINTS
 62
     0
100
AcDbPoint
 10
-25543.51823276502
 20
7373.702971374808
 30
0.0
  0
POINT
  5
16A8
330
2BB0
100
AcDbEntity
  8
DEFPOINTS
 62
     0
100
AcDbPoint
 10
-25382.37494828464
 20
7373.702971374808
 30
0.0
  0
ENDBLK
  5
16A9
330
2BB0
100
AcDbEntity
  8
0
100
AcDbBlockEnd
  0
BLOCK
  5
2BB3
330
2BB2
100
AcDbEntity
  8
0
100
AcDbBlockBegin
  2
*U42
 70
     1
 10
0.0
 20
0.0
 30
0.0
  3
*U42
  1

  0
TEXT
  5
1F1D
330
2BB2
100
AcDbEntity
  8
SIZE
 62
     0
100
AcDbText
 10
-25392.37494828464
 20
7256.045828517662
 30
0.0
 40
64.0
  1
12
 50
90.0
 41
0.9
100
AcDbText
  0
ENDBLK
  5
1F1F
330
2BB2
100
AcDbEntity
  8
0
100
AcDbBlockEnd
  0
BLOCK
  5
2BB5
330
2BB4
100
AcDbEntity
  8
0
100
AcDbBlockBegin
  2
*D43
 70
     1
 10
0.0
 20
0.0
 30
0.0
  3
*D43
  1

  0
LINE
  5
16AC
330
2BB4
100
AcDbEntity
  8
SIZE
 62
     0
100
AcDbLine
 10
-25801.51823276501
 20
7365.702971374808
 30
0.0
 11
-25801.51823276501
 21
7217.685576144207
 31
0.0
  0
LINE
  5
16AD
330
2BB4
100
AcDbEntity
  8
SIZE
 62
     0
100
AcDbLine
 10
-25532.51823276502
 20
7365.702971374808
 30
0.0
 11
-25532.51823276502
 21
7217.685576144207
 31
0.0
  0
LINE
  5
16AE
330
2BB4
100
AcDbEntity
  8
SIZE
 62
     0
100
AcDbLine
 10
-25789.51823276502
 20
7237.685576144207
 30
0.0
 11
-25544.51823276501
 21
7237.685576144207
 31
0.0
  0
INSERT
  5
16AF
330
2BB4
100
AcDbEntity
  8
SIZE
 62
     0
100
AcDbBlockReference
  2
_DOTBLANK
 10
-25801.51823276501
 20
7237.685576144207
 30
0.0
 41
12.0
 42
12.0
 43
12.0
 50
180.0
  0
INSERT
  5
16B0
330
2BB4
100
AcDbEntity
  8
SIZE
 62
     0
100
AcDbBlockReference
  2
_DOTBLANK
 10
-25532.51823276502
 20
7237.685576144207
 30
0.0
 41
12.0
 42
12.0
 43
12.0
  0
INSERT
  5
16B1
330
2BB4
100
AcDbEntity
  8
0
100
AcDbBlockReference
  2
*U44
 10
0.0
 20
0.0
 30
0.0
  0
POINT
  5
16B2
330
2BB4
100
AcDbEntity
  8
DEFPOINTS
 62
     0
100
AcDbPoint
 10
-25801.51823276501
 20
7385.702971374808
 30
0.0
  0
POINT
  5
16B3
330
2BB4
100
AcDbEntity
  8
DEFPOINTS
 62
     0
100
AcDbPoint
 10
-25532.51823276502
 20
7385.702971374808
 30
0.0
  0
POINT
  5
16B4
330
2BB4
100
AcDbEntity
  8
DEFPOINTS
 62
     0
100
AcDbPoint
 10
-25532.51823276502
 20
7237.685576144207
 30
0.0
  0
ENDBLK
  5
16B5
330
2BB4
100
AcDbEntity
  8
0
100
AcDbBlockEnd
  0
BLOCK
  5
2BB7
330
2BB6
100
AcDbEntity
  8
0
100
AcDbBlockBegin
  2
*U44
 70
     1
 10
0.0
 20
0.0
 30
0.0
  3
*U44
  1

  0
TEXT
  5
1F21
330
2BB6
100
AcDbEntity
  8
SIZE
 62
     0
100
AcDbText
 10
-25739.70394705074
 20
7247.685576144205
 30
0.0
 40
64.0
  1
269
 41
0.9
100
AcDbText
  0
ENDBLK
  5
1F23
330
2BB6
100
AcDbEntity
  8
0
100
AcDbBlockEnd
  0
BLOCK
  5
2BB9
330
2BB8
100
AcDbEntity
  8
0
100
AcDbBlockBegin
  2
*D45
 70
     1
 10
0.0
 20
0.0
 30
0.0
  3
*D45
  1

  0
LINE
  5
16B8
330
2BB8
100
AcDbEntity
  8
SIZE
 62
     0
100
AcDbLine
 10
-25512.51823276502
 20
7385.702971374808
 30
0.0
 11
-25362.37494828464
 21
7385.702971374808
 31
0.0
  0
LINE
  5
16B9
330
2BB8
100
AcDbEntity
  8
SIZE
 62
     0
100
AcDbLine
 10
-25489.51823276501
 20
7685.702971374808
 30
0.0
 11
-25362.37494828464
 21
7685.702971374808
 31
0.0
  0
LINE
  5
16BA
330
2BB8
100
AcDbEntity
  8
SIZE
 62
     0
100
AcDbLine
 10
-25382.37494828464
 20
7397.702971374808
 30
0.0
 11
-25382.37494828464
 21
7673.702971374808
 31
0.0
  0
INSERT
  5
16BB
330
2BB8
100
AcDbEntity
  8
SIZE
 62
     0
100
AcDbBlockReference
  2
_DOTBLANK
 10
-25382.37494828464
 20
7385.702971374808
 30
0.0
 41
12.0
 42
12.0
 43
12.0
 50
270.0
  0
INSERT
  5
16BC
330
2BB8
100
AcDbEntity
  8
SIZE
 62
     0
100
AcDbBlockReference
  2
_DOTBLANK
 10
-25382.37494828464
 20
7685.702971374808
 30
0.0
 41
12.0
 42
12.0
 43
12.0
 50
90.0
  0
INSERT
  5
16BD
330
2BB8
100
AcDbEntity
  8
0
100
AcDbBlockReference
  2
*U46
 10
0.0
 20
0.0
 30
0.0
  0
POINT
  5
16BE
330
2BB8
100
AcDbEntity
  8
DEFPOINTS
 62
     0
100
AcDbPoint
 10
-25532.51823276502
 20
7385.702971374808
 30
0.0
  0
POINT
  5
16BF
330
2BB8
100
AcDbEntity
  8
DEFPOINTS
 62
     0
100
AcDbPoint
 10
-25509.51823276502
 20
7685.702971374808
 30
0.0
  0
POINT
  5
16C0
330
2BB8
100
AcDbEntity
  8
DEFPOINTS
 62
     0
100
AcDbPoint
 10
-25382.37494828464
 20
7685.702971374808
 30
0.0
  0
ENDBLK
  5
16C1
330
2BB8
100
AcDbEntity
  8
0
100
AcDbBlockEnd
  0
BLOCK
  5
2BBB
330
2BBA
100
AcDbEntity
  8
0
100
AcDbBlockBegin
  2
*U46
 70
     1
 10
0.0
 20
0.0
 30
0.0
  3
*U46
  1

  0
TEXT
  5
1F25
330
2BBA
100
AcDbEntity
  8
SIZE
 62
     0
100
AcDbText
 10
-25392.37494828464
 20
7461.645828517662
 30
0.0
 40
64.0
  1
300
 50
90.0
 41
0.9
100
AcDbText
  0
ENDBLK
  5
1F27
330
2BBA
100
AcDbEntity
  8
0
100
AcDbBlockEnd
  0
BLOCK
  5
2BBD
330
2BBC
100
AcDbEntity
  8
0
100
AcDbBlockBegin
  2
*D47
 70
     1
 10
0.0
 20
0.0
 30
0.0
  3
*D47
  1

  0
LINE
  5
16C4
330
2BBC
100
AcDbEntity
  8
SIZE
 62
     0
100
AcDbLine
 10
-25807.01823276501
 20
7718.167454177002
 30
0.0
 11
-25807.01823276501
 21
7822.154659243358
 31
0.0
  0
LINE
  5
16C5
330
2BBC
100
AcDbEntity
  8
SIZE
 62
     0
100
AcDbLine
 10
-25527.01823276501
 20
7718.167454177002
 30
0.0
 11
-25527.01823276501
 21
7822.154659243358
 31
0.0
  0
LINE
  5
16C6
330
2BBC
100
AcDbEntity
  8
SIZE
 62
     0
100
AcDbLine
 10
-25795.01823276502
 20
7802.154659243358
 30
0.0
 11
-25539.01823276501
 21
7802.154659243358
 31
0.0
  0
INSERT
  5
16C7
330
2BBC
100
AcDbEntity
  8
SIZE
 62
     0
100
AcDbBlockReference
  2
_DOTBLANK
 10
-25807.01823276501
 20
7802.154659243358
 30
0.0
 41
12.0
 42
12.0
 43
12.0
 50
180.0
  0
INSERT
  5
16C8
330
2BBC
100
AcDbEntity
  8
SIZE
 62
     0
100
AcDbBlockReference
  2
_DOTBLANK
 10
-25527.01823276501
 20
7802.154659243358
 30
0.0
 41
12.0
 42
12.0
 43
12.0
  0
INSERT
  5
16C9
330
2BBC
100
AcDbEntity
  8
0
100
AcDbBlockReference
  2
*U48
 10
0.0
 20
0.0
 30
0.0
  0
POINT
  5
16CA
330
2BBC
100
AcDbEntity
  8
DEFPOINTS
 62
     0
100
AcDbPoint
 10
-25807.01823276501
 20
7698.167454177002
 30
0.0
  0
POINT
  5
16CB
330
2BBC
100
AcDbEntity
  8
DEFPOINTS
 62
     0
100
AcDbPoint
 10
-25527.01823276501
 20
7698.167454177002
 30
0.0
  0
POINT
  5
16CC
330
2BBC
100
AcDbEntity
  8
DEFPOINTS
 62
     0
100
AcDbPoint
 10
-25527.01823276501
 20
7802.154659243358
 30
0.0
  0
ENDBLK
  5
16CD
330
2BBC
100
AcDbEntity
  8
0
100
AcDbBlockEnd
  0
BLOCK
  5
2BBF
330
2BBE
100
AcDbEntity
  8
0
100
AcDbBlockBegin
  2
*U48
 70
     1
 10
0.0
 20
0.0
 30
0.0
  3
*U48
  1

  0
TEXT
  5
1F29
330
2BBE
100
AcDbEntity
  8
SIZE
 62
     0
100
AcDbText
 10
-25741.07537562216
 20
7812.154659243358
 30
0.0
 40
64.0
  1
280
 41
0.9
100
AcDbText
  0
ENDBLK
  5
1F2B
330
2BBE
100
AcDbEntity
  8
0
100
AcDbBlockEnd
  0
BLOCK
  5
2BC1
330
2BC0
100
AcDbEntity
  8
0
100
AcDbBlockBegin
  2
*D49
 70
     1
 10
0.0
 20
0.0
 30
0.0
  3
*D49
  1

  0
LINE
  5
16D0
330
2BC0
100
AcDbEntity
  8
SIZE
 62
     0
100
AcDbLine
 10
-25824.51823276501
 20
7705.702971374808
 30
0.0
 11
-25824.51823276501
 21
7931.282433493766
 31
0.0
  0
LINE
  5
16D1
330
2BC0
100
AcDbEntity
  8
SIZE
 62
     0
100
AcDbLine
 10
-25509.51823276502
 20
7705.702971374808
 30
0.0
 11
-25509.51823276502
 21
7931.282433493766
 31
0.0
  0
LINE
  5
16D2
330
2BC0
100
AcDbEntity
  8
SIZE
 62
     0
100
AcDbLine
 10
-25812.51823276502
 20
7911.282433493766
 30
0.0
 11
-25521.51823276501
 21
7911.282433493766
 31
0.0
  0
INSERT
  5
16D3
330
2BC0
100
AcDbEntity
  8
SIZE
 62
     0
100
AcDbBlockReference
  2
_DOTBLANK
 10
-25824.51823276501
 20
7911.282433493766
 30
0.0
 41
12.0
 42
12.0
 43
12.0
 50
180.0
  0
INSERT
  5
16D4
330
2BC0
100
AcDbEntity
  8
SIZE
 62
     0
100
AcDbBlockReference
  2
_DOTBLANK
 10
-25509.51823276502
 20
7911.282433493766
 30
0.0
 41
12.0
 42
12.0
 43
12.0
  0
INSERT
  5
16D5
330
2BC0
100
AcDbEntity
  8
0
100
AcDbBlockReference
  2
*U50
 10
0.0
 20
0.0
 30
0.0
  0
POINT
  5
16D6
330
2BC0
100
AcDbEntity
  8
DEFPOINTS
 62
     0
100
AcDbPoint
 10
-25824.51823276501
 20
7685.702971374808
 30
0.0
  0
POINT
  5
16D7
330
2BC0
100
AcDbEntity
  8
DEFPOINTS
 62
     0
100
AcDbPoint
 10
-25509.51823276502
 20
7685.702971374808
 30
0.0
  0
POINT
  5
16D8
330
2BC0
100
AcDbEntity
  8
DEFPOINTS
 62
     0
100
AcDbPoint
 10
-25509.51823276502
 20
7911.282433493766
 30
0.0
  0
ENDBLK
  5
16D9
330
2BC0
100
AcDbEntity
  8
0
100
AcDbBlockEnd
  0
BLOCK
  5
2BC3
330
2BC2
100
AcDbEntity
  8
0
100
AcDbBlockBegin
  2
*U50
 70
     1
 10
0.0
 20
0.0
 30
0.0
  3
*U50
  1

  0
TEXT
  5
1F2D
330
2BC2
100
AcDbEntity
  8
SIZE
 62
     0
100
AcDbText
 10
-25735.58966133645
 20
7921.282433493766
 30
0.0
 40
64.0
  1
315
 41
0.9
100
AcDbText
  0
ENDBLK
  5
1F2F
330
2BC2
100
AcDbEntity
  8
0
100
AcDbBlockEnd
  0
BLOCK
  5
2BC5
330
2BC4
100
AcDbEntity
  8
0
100
AcDbBlockBegin
  2
*D51
 70
     1
 10
0.0
 20
0.0
 30
0.0
  3
*D51
  1

  0
LINE
  5
1D83
330
2BC4
100
AcDbEntity
  8
SIZE
 62
     0
100
AcDbLine
 10
-134.5
 20
-320.0
 30
0.0
 11
-134.5
 21
-468.0173952306001
 31
0.0
  0
LINE
  5
1D84
330
2BC4
100
AcDbEntity
  8
SIZE
 62
     0
100
AcDbLine
 10
134.5
 20
-320.0
 30
0.0
 11
134.5
 21
-468.0173952306001
 31
0.0
  0
LINE
  5
1D85
330
2BC4
100
AcDbEntity
  8
SIZE
 62
     0
100
AcDbLine
 10
-122.5
 20
-448.0173952306
 30
0.0
 11
122.5
 21
-448.0173952306
 31
0.0
  0
INSERT
  5
1D86
330
2BC4
100
AcDbEntity
  8
SIZE
 62
     0
100
AcDbBlockReference
  2
_DOTBLANK
 10
-134.5
 20
-448.0173952306
 30
0.0
 41
12.0
 42
12.0
 43
12.0
 50
180.0
  0
INSERT
  5
1D87
330
2BC4
100
AcDbEntity
  8
SIZE
 62
     0
100
AcDbBlockReference
  2
_DOTBLANK
 10
134.5
 20
-448.0173952306
 30
0.0
 41
12.0
 42
12.0
 43
12.0
  0
INSERT
  5
1D88
330
2BC4
100
AcDbEntity
  8
0
100
AcDbBlockReference
  2
*U52
 10
0.0
 20
0.0
 30
0.0
  0
POINT
  5
1D89
330
2BC4
100
AcDbEntity
  8
DEFPOINTS
 62
     0
100
AcDbPoint
 10
-134.5
 20
-300.0
 30
0.0
  0
POINT
  5
1D8A
330
2BC4
100
AcDbEntity
  8
DEFPOINTS
 62
     0
100
AcDbPoint
 10
134.5
 20
-300.0
 30
0.0
  0
POINT
  5
1D8B
330
2BC4
100
AcDbEntity
  8
DEFPOINTS
 62
     0
100
AcDbPoint
 10
134.5
 20
-448.0173952306
 30
0.0
  0
ENDBLK
  5
173D
330
2BC4
100
AcDbEntity
  8
0
100
AcDbBlockEnd
  0
BLOCK
  5
2BC7
330
2BC6
100
AcDbEntity
  8
0
100
AcDbBlockBegin
  2
*U52
 70
     1
 10
0.0
 20
0.0
 30
0.0
  3
*U52
  1

  0
TEXT
  5
1F31
330
2BC6
100
AcDbEntity
  8
SIZE
 62
     0
100
AcDbText
 10
-72.68571428571426
 20
-438.0173952306003
 30
0.0
 40
64.0
  1
269
 41
0.9
100
AcDbText
  0
ENDBLK
  5
1F33
330
2BC6
100
AcDbEntity
  8
0
100
AcDbBlockEnd
  0
BLOCK
  5
2BC9
330
2BC8
100
AcDbEntity
  8
0
100
AcDbBlockBegin
  2
*D53
 70
     1
 10
0.0
 20
0.0
 30
0.0
  3
*D53
  1

  0
LINE
  5
1D8C
330
2BC8
100
AcDbEntity
  8
SIZE
 62
     0
100
AcDbLine
 10
154.5
 20
-300.0
 30
0.0
 11
304.6432844803784
 21
-300.0
 31
0.0
  0
LINE
  5
1D8D
330
2BC8
100
AcDbEntity
  8
SIZE
 62
     0
100
AcDbLine
 10
177.5
 20
-0.0000000000000057
 30
0.0
 11
304.6432844803785
 21
-0.0000000000000417
 31
0.0
  0
LINE
  5
1D8E
330
2BC8
100
AcDbEntity
  8
SIZE
 62
     0
100
AcDbLine
 10
284.6432844803784
 20
-288.0
 30
0.0
 11
284.6432844803785
 21
-12.00000000000003
 31
0.0
  0
INSERT
  5
1D8F
330
2BC8
100
AcDbEntity
  8
SIZE
 62
     0
100
AcDbBlockReference
  2
_DOTBLANK
 10
284.6432844803784
 20
-300.0
 30
0.0
 41
12.0
 42
12.0
 43
12.0
 50
270.0
  0
INSERT
  5
1D90
330
2BC8
100
AcDbEntity
  8
SIZE
 62
     0
100
AcDbBlockReference
  2
_DOTBLANK
 10
284.6432844803785
 20
-0.000000000000036
 30
0.0
 41
12.0
 42
12.0
 43
12.0
 50
90.0
  0
INSERT
  5
1D91
330
2BC8
100
AcDbEntity
  8
0
100
AcDbBlockReference
  2
*U54
 10
0.0
 20
0.0
 30
0.0
  0
POINT
  5
1D92
330
2BC8
100
AcDbEntity
  8
DEFPOINTS
 62
     0
100
AcDbPoint
 10
134.5
 20
-300.0
 30
0.0
  0
POINT
  5
1D93
330
2BC8
100
AcDbEntity
  8
DEFPOINTS
 62
     0
100
AcDbPoint
 10
157.5
 20
0.0
 30
0.0
  0
POINT
  5
1D94
330
2BC8
100
AcDbEntity
  8
DEFPOINTS
 62
     0
100
AcDbPoint
 10
284.6432844803785
 20
-0.000000000000036
 30
0.0
  0
ENDBLK
  5
1749
330
2BC8
100
AcDbEntity
  8
0
100
AcDbBlockEnd
  0
BLOCK
  5
2BCB
330
2BCA
100
AcDbEntity
  8
0
100
AcDbBlockBegin
  2
*U54
 70
     1
 10
0.0
 20
0.0
 30
0.0
  3
*U54
  1

  0
TEXT
  5
1F35
330
2BCA
100
AcDbEntity
  8
SIZE
 62
     0
100
AcDbText
 10
274.6432844803785
 20
-224.0571428571429
 30
0.0
 40
64.0
  1
300
 50
90.0
 41
0.9
100
AcDbText
  0
ENDBLK
  5
1F37
330
2BCA
100
AcDbEntity
  8
0
100
AcDbBlockEnd
  0
BLOCK
  5
2BCD
330
2BCC
100
AcDbEntity
  8
0
100
AcDbBlockBegin
  2
*D55
 70
     1
 10
0.0
 20
0.0
 30
0.0
  3
*D55
  1

  0
LINE
  5
1D95
330
2BCC
100
AcDbEntity
  8
SIZE
 62
     0
100
AcDbLine
 10
-140.0
 20
32.46448280219375
 30
0.0
 11
-140.0
 21
136.4516878685508
 31
0.0
  0
LINE
  5
1D96
330
2BCC
100
AcDbEntity
  8
SIZE
 62
     0
100
AcDbLine
 10
140.0
 20
32.46448280219375
 30
0.0
 11
140.0
 21
136.4516878685508
 31
0.0
  0
LINE
  5
1D97
330
2BCC
100
AcDbEntity
  8
SIZE
 62
     0
100
AcDbLine
 10
-128.0
 20
116.4516878685508
 30
0.0
 11
128.0
 21
116.4516878685508
 31
0.0
  0
INSERT
  5
1D98
330
2BCC
100
AcDbEntity
  8
SIZE
 62
     0
100
AcDbBlockReference
  2
_DOTBLANK
 10
-140.0
 20
116.4516878685508
 30
0.0
 41
12.0
 42
12.0
 43
12.0
 50
180.0
  0
INSERT
  5
1D99
330
2BCC
100
AcDbEntity
  8
SIZE
 62
     0
100
AcDbBlockReference
  2
_DOTBLANK
 10
140.0
 20
116.4516878685508
 30
0.0
 41
12.0
 42
12.0
 43
12.0
  0
INSERT
  5
1D9A
330
2BCC
100
AcDbEntity
  8
0
100
AcDbBlockReference
  2
*U56
 10
0.0
 20
0.0
 30
0.0
  0
POINT
  5
1D9B
330
2BCC
100
AcDbEntity
  8
DEFPOINTS
 62
     0
100
AcDbPoint
 10
-140.0
 20
12.46448280219374
 30
0.0
  0
POINT
  5
1D9C
330
2BCC
100
AcDbEntity
  8
DEFPOINTS
 62
     0
100
AcDbPoint
 10
140.0
 20
12.46448280219374
 30
0.0
  0
POINT
  5
1D9D
330
2BCC
100
AcDbEntity
  8
DEFPOINTS
 62
     0
100
AcDbPoint
 10
140.0
 20
116.4516878685508
 30
0.0
  0
ENDBLK
  5
1755
330
2BCC
100
AcDbEntity
  8
0
100
AcDbBlockEnd
  0
BLOCK
  5
2BCF
330
2BCE
100
AcDbEntity
  8
0
100
AcDbBlockBegin
  2
*U56
 70
     1
 10
0.0
 20
0.0
 30
0.0
  3
*U56
  1

  0
TEXT
  5
1F39
330
2BCE
100
AcDbEntity
  8
SIZE
 62
     0
100
AcDbText
 10
-74.05714285714283
 20
126.4516878685508
 30
0.0
 40
64.0
  1
280
 41
0.9
100
AcDbText
  0
ENDBLK
  5
1F3B
330
2BCE
100
AcDbEntity
  8
0
100
AcDbBlockEnd
  0
BLOCK
  5
2BD1
330
2BD0
100
AcDbEntity
  8
0
100
AcDbBlockBegin
  2
*D57
 70
     1
 10
0.0
 20
0.0
 30
0.0
  3
*D57
  1

  0
LINE
  5
1D9E
330
2BD0
100
AcDbEntity
  8
SIZE
 62
     0
100
AcDbLine
 10
-157.5
 20
20.0
 30
0.0
 11
-157.5
 21
245.5794621189598
 31
0.0
  0
LINE
  5
1D9F
330
2BD0
100
AcDbEntity
  8
SIZE
 62
     0
100
AcDbLine
 10
157.5
 20
20.0
 30
0.0
 11
157.5
 21
245.5794621189598
 31
0.0
  0
LINE
  5
1DA0
330
2BD0
100
AcDbEntity
  8
SIZE
 62
     0
100
AcDbLine
 10
-145.5
 20
225.5794621189598
 30
0.0
 11
145.5
 21
225.5794621189598
 31
0.0
  0
INSERT
  5
1DA1
330
2BD0
100
AcDbEntity
  8
SIZE
 62
     0
100
AcDbBlockReference
  2
_DOTBLANK
 10
-157.5
 20
225.5794621189598
 30
0.0
 41
12.0
 42
12.0
 43
12.0
 50
180.0
  0
INSERT
  5
1DA2
330
2BD0
100
AcDbEntity
  8
SIZE
 62
     0
100
AcDbBlockReference
  2
_DOTBLANK
 10
157.5
 20
225.5794621189598
 30
0.0
 41
12.0
 42
12.0
 43
12.0
  0
INSERT
  5
1DA3
330
2BD0
100
AcDbEntity
  8
0
100
AcDbBlockReference
  2
*U58
 10
0.0
 20
0.0
 30
0.0
  0
POINT
  5
1DA4
330
2BD0
100
AcDbEntity
  8
DEFPOINTS
 62
     0
100
AcDbPoint
 10
-157.5
 20
0.0
 30
0.0
  0
POINT
  5
1DA5
330
2BD0
100
AcDbEntity
  8
DEFPOINTS
 62
     0
100
AcDbPoint
 10
157.5
 20
0.0
 30
0.0
  0
POINT
  5
1DA6
330
2BD0
100
AcDbEntity
  8
DEFPOINTS
 62
     0
100
AcDbPoint
 10
157.5
 20
225.5794621189598
 30
0.0
  0
ENDBLK
  5
1761
330
2BD0
100
AcDbEntity
  8
0
100
AcDbBlockEnd
  0
BLOCK
  5
2BD3
330
2BD2
100
AcDbEntity
  8
0
100
AcDbBlockBegin
  2
*U58
 70
     1
 10
0.0
 20
0.0
 30
0.0
  3
*U58
  1

  0
TEXT
  5
1F3D
330
2BD2
100
AcDbEntity
  8
SIZE
 62
     0
100
AcDbText
 10
-68.57142857142857
 20
235.5794621189599
 30
0.0
 40
64.0
  1
315
 41
0.9
100
AcDbText
  0
ENDBLK
  5
1F3F
330
2BD2
100
AcDbEntity
  8
0
100
AcDbBlockEnd
  0
BLOCK
  5
2BD5
330
2BD4
100
AcDbEntity
  8
0
100
AcDbBlockBegin
  2
*D59
 70
     1
 10
0.0
 20
0.0
 30
0.0
  3
*D59
  1

  0
LINE
  5
1DA7
330
2BD4
100
AcDbEntity
  8
SIZE
 62
     0
100
AcDbLine
 10
-177.5
 20
0.0000000000000057
 30
0.0
 11
-314.0264221186908
 21
0.0000000000000443
 31
0.0
  0
LINE
  5
1DA8
330
2BD4
100
AcDbEntity
  8
SIZE
 62
     0
100
AcDbLine
 10
-177.5
 20
-7.999999999999993
 30
0.0
 11
-314.0264221186908
 21
-7.999999999999958
 31
0.0
  0
LINE
  5
1DA9
330
2BD4
100
AcDbEntity
  8
SIZE
 62
     0
100
AcDbLine
 10
-294.0264221186908
 20
12.00000000000003
 30
0.0
 11
-294.0264221186908
 21
24.00000000000004
 31
0.0
  0
LINE
  5
1DAA
330
2BD4
100
AcDbEntity
  8
SIZE
 62
     0
100
AcDbLine
 10
-294.0264221186908
 20
-19.99999999999996
 30
0.0
 11
-294.0264221186908
 21
-90.39999999999997
 31
0.0
  0
INSERT
  5
1DAB
330
2BD4
100
AcDbEntity
  8
SIZE
 62
     0
100
AcDbBlockReference
  2
_DOTBLANK
 10
-294.0264221186908
 20
0.0000000000000387
 30
0.0
 41
12.0
 42
12.0
 43
12.0
 50
270.0
  0
INSERT
  5
1DAC
330
2BD4
100
AcDbEntity
  8
SIZE
 62
     0
100
AcDbBlockReference
  2
_DOTBLANK
 10
-294.0264221186908
 20
-7.999999999999961
 30
0.0
 41
12.0
 42
12.0
 43
12.0
 50
90.0
  0
INSERT
  5
1DAD
330
2BD4
100
AcDbEntity
  8
0
100
AcDbBlockReference
  2
*U60
 10
0.0
 20
0.0
 30
0.0
  0
POINT
  5
1DAE
330
2BD4
100
AcDbEntity
  8
DEFPOINTS
 62
     0
100
AcDbPoint
 10
-157.5
 20
0.0
 30
0.0
  0
POINT
  5
1DAF
330
2BD4
100
AcDbEntity
  8
DEFPOINTS
 62
     0
100
AcDbPoint
 10
-157.5
 20
-8.000000000000003
 30
0.0
  0
POINT
  5
1DB0
330
2BD4
100
AcDbEntity
  8
DEFPOINTS
 62
     0
100
AcDbPoint
 10
-294.0264221186908
 20
-7.999999999999961
 30
0.0
  0
ENDBLK
  5
176D
330
2BD4
100
AcDbEntity
  8
0
100
AcDbBlockEnd
  0
BLOCK
  5
2BD7
330
2BD6
100
AcDbEntity
  8
0
100
AcDbBlockBegin
  2
*U60
 70
     1
 10
0.0
 20
0.0
 30
0.0
  3
*U60
  1

  0
TEXT
  5
1F41
330
2BD6
100
AcDbEntity
  8
SIZE
 62
     0
100
AcDbText
 10
-304.0264221186908
 20
-80.4
 30
0.0
 40
64.0
  1
8
 50
90.0
 41
0.9
100
AcDbText
  0
ENDBLK
  5
1F43
330
2BD6
100
AcDbEntity
  8
0
100
AcDbBlockEnd
  0
BLOCK
  5
2BD9
330
2BD8
100
AcDbEntity
  8
0
100
AcDbBlockBegin
  2
*D61
 70
     1
 10
0.0
 20
0.0
 30
0.0
  3
*D61
  1

  0
LINE
  5
1DB1
330
2BD8
100
AcDbEntity
  8
SIZE
 62
     0
100
AcDbLine
 10
154.5
 20
-300.0
 30
0.0
 11
304.6432844803785
 21
-300.0
 31
0.0
  0
LINE
  5
1DB2
330
2BD8
100
AcDbEntity
  8
SIZE
 62
     0
100
AcDbLine
 10
143.5
 20
-312.0
 30
0.0
 11
304.6432844803785
 21
-312.0
 31
0.0
  0
LINE
  5
1DB3
330
2BD8
100
AcDbEntity
  8
SIZE
 62
     0
100
AcDbLine
 10
284.6432844803785
 20
-288.0
 30
0.0
 11
284.6432844803785
 21
-276.0
 31
0.0
  0
LINE
  5
1DB4
330
2BD8
100
AcDbEntity
  8
SIZE
 62
     0
100
AcDbLine
 10
284.6432844803785
 20
-324.0000000000001
 30
0.0
 11
284.6432844803784
 21
-438.2857142857143
 31
0.0
  0
INSERT
  5
1DB5
330
2BD8
100
AcDbEntity
  8
SIZE
 62
     0
100
AcDbBlockReference
  2
_DOTBLANK
 10
284.6432844803785
 20
-300.0
 30
0.0
 41
12.0
 42
12.0
 43
12.0
 50
270.0
  0
INSERT
  5
1DB6
330
2BD8
100
AcDbEntity
  8
SIZE
 62
     0
100
AcDbBlockReference
  2
_DOTBLANK
 10
284.6432844803785
 20
-312.0
 30
0.0
 41
12.0
 42
12.0
 43
12.0
 50
90.0
  0
INSERT
  5
1DB7
330
2BD8
100
AcDbEntity
  8
0
100
AcDbBlockReference
  2
*U62
 10
0.0
 20
0.0
 30
0.0
  0
POINT
  5
1DB8
330
2BD8
100
AcDbEntity
  8
DEFPOINTS
 62
     0
100
AcDbPoint
 10
134.5
 20
-300.0
 30
0.0
  0
POINT
  5
1DB9
330
2BD8
100
AcDbEntity
  8
DEFPOINTS
 62
     0
100
AcDbPoint
 10
123.5
 20
-312.0
 30
0.0
  0
POINT
  5
1DBA
330
2BD8
100
AcDbEntity
  8
DEFPOINTS
 62
     0
100
AcDbPoint
 10
284.6432844803785
 20
-312.0
 30
0.0
  0
ENDBLK
  5
177B
330
2BD8
100
AcDbEntity
  8
0
100
AcDbBlockEnd
  0
BLOCK
  5
2BDB
330
2BDA
100
AcDbEntity
  8
0
100
AcDbBlockBegin
  2
*U62
 70
     1
 10
0.0
 20
0.0
 30
0.0
  3
*U62
  1

  0
TEXT
  5
1F45
330
2BDA
100
AcDbEntity
  8
SIZE
 62
     0
100
AcDbText
 10
274.6432844803785
 20
-428.2857142857142
 30
0.0
 40
64.0
  1
12
 50
90.0
 41
0.9
100
AcDbText
  0
ENDBLK
  5
1F47
330
2BDA
100
AcDbEntity
  8
0
100
AcDbBlockEnd
  0
BLOCK
  5
2BDD
330
2BDC
100
AcDbEntity
  8
0
100
AcDbBlockBegin
  2
*U63
 70
     1
 10
0.0
 20
0.0
 30
0.0
  3
*U63
  1

  0
ENDBLK
  5
1D57
330
2BDC
100
AcDbEntity
  8
0
100
AcDbBlockEnd
  0
BLOCK
  5
2BDF
330
2BDE
100
AcDbEntity
  8
0
100
AcDbBlockBegin
  2
*U64
 70
     1
 10
0.0
 20
0.0
 30
0.0
  3
*U64
  1

  0
INSERT
  5
2088
330
2BDE
100
AcDbEntity
  8
NOTE
100
AcDbBlockReference
  2
_OPEN30
 10
-140.0
 20
0.0
 30
0.0
 41
12.0
 42
12.0
 43
12.0
 50
312.6090116116894
  0
POLYLINE
  5
2089
330
2BDE
100
AcDbEntity
  8
NOTE
100
AcDb2dPolyline
 66
     1
 10
0.0
 20
0.0
 30
0.0
  0
VERTEX
  5
2124
330
2089
100
AcDbEntity
  8
NOTE
100
AcDbVertex
100
AcDb2dVertex
 10
-148.1239008361894
 20
8.831887408915472
 30
0.0
  0
VERTEX
  5
2125
330
2089
100
AcDbEntity
  8
NOTE
100
AcDbVertex
100
AcDb2dVertex
 10
-227.8693999922543
 20
95.52709505801338
 30
0.0
  0
VERTEX
  5
2126
330
2089
100
AcDbEntity
  8
NOTE
100
AcDbVertex
100
AcDb2dVertex
 10
-773.7093999922541
 20
95.52709505801338
 30
0.0
  0
SEQEND
  5
2127
330
2089
100
AcDbEntity
  8
NOTE
  0
ENDBLK
  5
208A
330
2BDE
100
AcDbEntity
  8
0
100
AcDbBlockEnd
  0
BLOCK
  5
2BE1
330
2BE0
100
AcDbEntity
  8
0
100
AcDbBlockBegin
  2
*U65
 70
     1
 10
0.0
 20
0.0
 30
0.0
  3
*U65
  1

  0
TEXT
  5
208D
330
2BE0
100
AcDbEntity
  8
NOTE
100
AcDbText
 10
-773.7093999922541
 20
113.5270950580134
 30
0.0
 40
64.0
  1
4×φ10取付穴
 41
0.9
100
AcDbText
  0
ENDBLK
  5
208E
330
2BE0
100
AcDbEntity
  8
0
100
AcDbBlockEnd
  0
BLOCK
  5
2BE3
330
2BE2
100
AcDbEntity
  8
0
100
AcDbBlockBegin
  2
*U66
 70
     1
 10
0.0
 20
0.0
 30
0.0
  3
*U66
  1

  0
INSERT
  5
25A0
330
2BE2
100
AcDbEntity
  8
NOTE
100
AcDbBlockReference
  2
_OPEN30
 10
-530.0
 20
0.0
 30
0.0
 41
12.0
 42
12.0
 43
12.0
 50
312.6090116116894
  0
POLYLINE
  5
25A1
330
2BE2
100
AcDbEntity
  8
NOTE
100
AcDb2dPolyline
 66
     1
 10
0.0
 20
0.0
 30
0.0
  0
VERTEX
  5
25A2
330
25A1
100
AcDbEntity
  8
NOTE
100
AcDbVertex
100
AcDb2dVertex
 10
-538.1239008361895
 20
8.831887408915484
 30
0.0
  0
VERTEX
  5
25A3
330
25A1
100
AcDbEntity
  8
NOTE
100
AcDbVertex
100
AcDb2dVertex
 10
-617.8693999922541
 20
95.52709505801338
 30
0.0
  0
VERTEX
  5
25A4
330
25A1
100
AcDbEntity
  8
NOTE
100
AcDbVertex
100
AcDb2dVertex
 10
-1207.595114277969
 20
95.52709505801338
 30
0.0
  0
SEQEND
  5
25A5
330
25A1
100
AcDbEntity
  8
NOTE
  0
ENDBLK
  5
25A6
330
2BE2
100
AcDbEntity
  8
0
100
AcDbBlockEnd
  0
BLOCK
  5
2BE5
330
2BE4
100
AcDbEntity
  8
0
100
AcDbBlockBegin
  2
*U67
 70
     1
 10
0.0
 20
0.0
 30
0.0
  3
*U67
  1

  0
TEXT
  5
25A9
330
2BE4
100
AcDbEntity
  8
NOTE
100
AcDbText
 10
-1207.595114277969
 20
113.5270950580134
 30
0.0
 40
64.0
  1
10×φ15取付穴
 41
0.9
100
AcDbText
  0
ENDBLK
  5
25AA
330
2BE4
100
AcDbEntity
  8
0
100
AcDbBlockEnd
  0
BLOCK
  5
2BE7
330
2BE6
100
AcDbEntity
  8
0
100
AcDbBlockBegin
  2
*U68
 70
     1
 10
0.0
 20
0.0
 30
0.0
  3
*U68
  1

  0
INSERT
  5
2890
330
2BE6
100
AcDbEntity
  8
NOTE
100
AcDbBlockReference
  2
_OPEN30
 10
-530.0000004810002
 20
0.0
 30
0.0
 41
12.0
 42
12.0
 43
12.0
 50
312.6090116116895
  0
POLYLINE
  5
2891
330
2BE6
100
AcDbEntity
  8
NOTE
100
AcDb2dPolyline
 66
     1
 10
0.0
 20
0.0
 30
0.0
  0
VERTEX
  5
2892
330
2891
100
AcDbEntity
  8
NOTE
100
AcDbVertex
100
AcDb2dVertex
 10
-538.1239013171897
 20
8.831887408915461
 30
0.0
  0
VERTEX
  5
2893
330
2891
100
AcDbEntity
  8
NOTE
100
AcDbVertex
100
AcDb2dVertex
 10
-617.8694004732548
 20
95.52709505801338
 30
0.0
  0
VERTEX
  5
2894
330
2891
100
AcDbEntity
  8
NOTE
100
AcDbVertex
100
AcDb2dVertex
 10
-1207.595114758969
 20
95.52709505801338
 30
0.0
  0
SEQEND
  5
2895
330
2891
100
AcDbEntity
  8
NOTE
  0
ENDBLK
  5
2896
330
2BE6
100
AcDbEntity
  8
0
100
AcDbBlockEnd
  0
BLOCK
  5
2BE9
330
2BE8
100
AcDbEntity
  8
0
100
AcDbBlockBegin
  2
*U69
 70
     1
 10
0.0
 20
0.0
 30
0.0
  3
*U69
  1

  0
TEXT
  5
2899
330
2BE8
100
AcDbEntity
  8
NOTE
100
AcDbText
 10
-1207.595114758969
 20
113.5270950580134
 30
0.0
 40
64.0
  1
10×φ15取付穴
 41
0.9
100
AcDbText
  0
ENDBLK
  5
289A
330
2BE8
100
AcDbEntity
  8
0
100
AcDbBlockEnd
  0
BLOCK
  5
2BEB
330
2BEA
100
AcDbEntity
  8
0
100
AcDbBlockBegin
  2
*X70
 70
     1
 10
0.0
 20
0.0
 30
0.0
  3
*X70
  1

  0
LINE
  5
289D
330
2BEA
100
AcDbEntity
  8
0
 62
     0
100
AcDbLine
 10
-481.4999623857691
 20
-896.2397052100158
 30
0.0
 11
-463.1033336253331
 21
-905.0000000000016
 31
0.0
  0
LINE
  5
289E
330
2BEA
100
AcDbEntity
  8
0
 62
     0
100
AcDbLine
 10
-481.4999623857691
 20
-886.2397534658839
 30
0.0
 11
-442.103423888342
 21
-905.0000000000036
 31
0.0
  0
LINE
  5
289F
330
2BEA
100
AcDbEntity
  8
0
 62
     0
100
AcDbLine
 10
-481.4999623857691
 20
-876.239801721749
 30
0.0
 11
-421.1035141513528
 21
-905.0000000000029
 31
0.0
  0
LINE
  5
28A0
330
2BEA
100
AcDbEntity
  8
0
 62
     0
100
AcDbLine
 10
-481.4999623857691
 20
-866.2398499776143
 30
0.0
 11
-400.103604414362
 21
-905.0000000000029
 31
0.0
  0
LINE
  5
28A1
330
2BEA
100
AcDbEntity
  8
0
 62
     0
100
AcDbLine
 10
-481.4999623857691
 20
-856.23989823348
 30
0.0
 11
-379.1036946773691
 21
-905.0000000000029
 31
0.0
  0
LINE
  5
28A2
330
2BEA
100
AcDbEntity
  8
0
 62
     0
100
AcDbLine
 10
-481.499962385771
 20
-846.2399464893442
 30
0.0
 11
-358.1037849403819
 21
-905.0000000000016
 31
0.0
  0
LINE
  5
28A3
330
2BEA
100
AcDbEntity
  8
0
 62
     0
100
AcDbLine
 10
-481.4999623857691
 20
-836.2399947452104
 30
0.0
 11
-337.1038752033892
 21
-905.0000000000006
 31
0.0
  0
LINE
  5
28A4
330
2BEA
100
AcDbEntity
  8
0
 62
     0
100
AcDbLine
 10
-481.4999623857691
 20
-826.2400430010766
 30
0.0
 11
-316.1039654663982
 21
-905.0000000000029
 31
0.0
  0
LINE
  5
28A5
330
2BEA
100
AcDbEntity
  8
0
 62
     0
100
AcDbLine
 10
-481.499962385771
 20
-816.2400912569419
 30
0.0
 11
-295.1040557294072
 21
-905.0000000000029
 31
0.0
  0
LINE
  5
28A6
330
2BEA
100
AcDbEntity
  8
0
 62
     0
100
AcDbLine
 10
-481.499962385771
 20
-806.2401395128071
 30
0.0
 11
-274.1041459924181
 21
-905.0000000000016
 31
0.0
  0
LINE
  5
28A7
330
2BEA
100
AcDbEntity
  8
0
 62
     0
100
AcDbLine
 10
-481.4999623857691
 20
-796.2401877686723
 30
0.0
 11
-253.1042362554272
 21
-905.0000000000016
 31
0.0
  0
LINE
  5
28A8
330
2BEA
100
AcDbEntity
  8
0
 62
     0
100
AcDbLine
 10
-481.499962385771
 20
-786.2402360245377
 30
0.0
 11
-232.1043265184362
 21
-905.0000000000016
 31
0.0
  0
LINE
  5
28A9
330
2BEA
100
AcDbEntity
  8
0
 62
     0
100
AcDbLine
 10
-481.4999623857691
 20
-776.240284280404
 30
0.0
 11
-211.1044167814453
 21
-905.0000000000029
 31
0.0
  0
LINE
  5
28AA
330
2BEA
100
AcDbEntity
  8
0
 62
     0
100
AcDbLine
 10
-481.4999623857691
 20
-766.2403325362703
 30
0.0
 11
-190.1045070444542
 21
-905.0000000000029
 31
0.0
  0
LINE
  5
28AB
330
2BEA
100
AcDbEntity
  8
0
 62
     0
100
AcDbLine
 10
-481.4999623857728
 20
-756.2403807921346
 30
0.0
 11
-169.1045973074651
 21
-905.0000000000029
 31
0.0
  0
LINE
  5
28AC
330
2BEA
100
AcDbEntity
  8
0
 62
     0
100
AcDbLine
 10
-481.4999623857691
 20
-746.2404290479999
 30
0.0
 11
-148.1046875704705
 21
-905.0000000000029
 31
0.0
  0
LINE
  5
28AD
330
2BEA
100
AcDbEntity
  8
0
 62
     0
100
AcDbLine
 10
-481.499962385771
 20
-736.2404773038652
 30
0.0
 11
-127.1047778334832
 21
-905.0000000000016
 31
0.0
  0
LINE
  5
28AE
330
2BEA
100
AcDbEntity
  8
0
 62
     0
100
AcDbLine
 10
-481.4999623857675
 20
-726.2405255597314
 30
0.0
 11
-106.1048680964904
 21
-905.0000000000016
 31
0.0
  0
LINE
  5
28AF
330
2BEA
100
AcDbEntity
  8
0
 62
     0
100
AcDbLine
 10
-481.4999623857675
 20
-716.2405738155984
 30
0.0
 11
-85.10495835949951
 21
-905.0000000000029
 31
0.0
  0
LINE
  5
28B0
330
2BEA
100
AcDbEntity
  8
0
 62
     0
100
AcDbLine
 10
-481.4999623857691
 20
-706.2406220714636
 30
0.0
 11
-64.10504862251037
 21
-905.0000000000029
 31
0.0
  0
LINE
  5
28B1
330
2BEA
100
AcDbEntity
  8
0
 62
     0
100
AcDbLine
 10
-481.4999623857675
 20
-696.2406703273289
 30
0.0
 11
-43.1051388855194
 21
-905.0000000000016
 31
0.0
  0
LINE
  5
28B2
330
2BEA
100
AcDbEntity
  8
0
 62
     0
100
AcDbLine
 10
-481.4999623857675
 20
-686.2407185831943
 30
0.0
 11
-22.10522914852845
 21
-905.0000000000016
 31
0.0
  0
LINE
  5
28B3
330
2BEA
100
AcDbEntity
  8
0
 62
     0
100
AcDbLine
 10
-481.4999623857691
 20
-676.2407668390586
 30
0.0
 11
-1.105319411539311
 21
-905.0000000000006
 31
0.0
  0
LINE
  5
28B4
330
2BEA
100
AcDbEntity
  8
0
 62
     0
100
AcDbLine
 10
-481.4999623857675
 20
-666.2408150949268
 30
0.0
 11
19.89459032545164
 21
-905.0000000000029
 31
0.0
  0
LINE
  5
28B5
330
2BEA
100
AcDbEntity
  8
0
 62
     0
100
AcDbLine
 10
-481.4999623857691
 20
-656.2408633507913
 30
0.0
 11
40.8945000624444
 21
-905.0000000000029
 31
0.0
  0
LINE
  5
28B6
330
2BEA
100
AcDbEntity
  8
0
 62
     0
100
AcDbLine
 10
-481.4999623857691
 20
-646.2409116066574
 30
0.0
 11
61.89440979943356
 21
-905.0000000000029
 31
0.0
  0
LINE
  5
28B7
330
2BEA
100
AcDbEntity
  8
0
 62
     0
100
AcDbLine
 10
-481.4999623857691
 20
-636.2409598625227
 30
0.0
 11
82.89431953642452
 21
-905.0000000000016
 31
0.0
  0
LINE
  5
28B8
330
2BEA
100
AcDbEntity
  8
0
 62
     0
100
AcDbLine
 10
-481.4999623857675
 20
-626.241008118388
 30
0.0
 11
103.8942292734154
 21
-905.0000000000016
 31
0.0
  0
LINE
  5
28B9
330
2BEA
100
AcDbEntity
  8
0
 62
     0
100
AcDbLine
 10
-481.4999623857691
 20
-616.2410563742549
 30
0.0
 11
124.8941390104064
 21
-905.0000000000036
 31
0.0
  0
LINE
  5
28BA
330
2BEA
100
AcDbEntity
  8
0
 62
     0
100
AcDbLine
 10
-481.4999623857675
 20
-606.2411046301201
 30
0.0
 11
145.8940487473974
 21
-905.0000000000029
 31
0.0
  0
LINE
  5
28BB
330
2BEA
100
AcDbEntity
  8
0
 62
     0
100
AcDbLine
 10
-481.4999623857675
 20
-596.2411528859856
 30
0.0
 11
166.8939584843881
 21
-905.0000000000029
 31
0.0
  0
LINE
  5
28BC
330
2BEA
100
AcDbEntity
  8
0
 62
     0
100
AcDbLine
 10
-481.499962385771
 20
-586.2412011418499
 30
0.0
 11
187.8938682213775
 21
-905.0000000000016
 31
0.0
  0
LINE
  5
28BD
330
2BEA
100
AcDbEntity
  8
0
 62
     0
100
AcDbLine
 10
-481.4999623857657
 20
-576.2412493977161
 30
0.0
 11
208.8937779583702
 21
-905.0000000000016
 31
0.0
  0
LINE
  5
28BE
330
2BEA
100
AcDbEntity
  8
0
 62
     0
100
AcDbLine
 10
-481.4999623857691
 20
-566.2412976535803
 30
0.0
 11
229.8936876953612
 21
-905.0000000000016
 31
0.0
  0
LINE
  5
28BF
330
2BEA
100
AcDbEntity
  8
0
 62
     0
100
AcDbLine
 10
-481.4999623857691
 20
-556.2413459094478
 30
0.0
 11
250.8935974323504
 21
-905.0000000000029
 31
0.0
  0
LINE
  5
28C0
330
2BEA
100
AcDbEntity
  8
0
 62
     0
100
AcDbLine
 10
-481.4999623857675
 20
-546.2413941653131
 30
0.0
 11
271.8935071693413
 21
-905.0000000000016
 31
0.0
  0
LINE
  5
28C1
330
2BEA
100
AcDbEntity
  8
0
 62
     0
100
AcDbLine
 10
-481.4999623857691
 20
-536.2414424211784
 30
0.0
 11
292.8934169063305
 21
-905.0000000000016
 31
0.0
  0
LINE
  5
28C2
330
2BEA
100
AcDbEntity
  8
0
 62
     0
100
AcDbLine
 10
-481.4999623857675
 20
-526.2414906770437
 30
0.0
 11
313.8933266433233
 21
-905.0000000000016
 31
0.0
  0
LINE
  5
28C3
330
2BEA
100
AcDbEntity
  8
0
 62
     0
100
AcDbLine
 10
-481.4999623857691
 20
-516.241538932908
 30
0.0
 11
334.8932363803142
 21
-905.0000000000016
 31
0.0
  0
LINE
  5
28C4
330
2BEA
100
AcDbEntity
  8
0
 62
     0
100
AcDbLine
 10
-481.4999623857691
 20
-506.2415871887758
 30
0.0
 11
355.8931461173052
 21
-905.0000000000036
 31
0.0
  0
LINE
  5
28C5
330
2BEA
100
AcDbEntity
  8
0
 62
     0
100
AcDbLine
 10
-481.4999623857691
 20
-496.2416354446403
 30
0.0
 11
376.893055854296
 21
-905.0000000000036
 31
0.0
  0
LINE
  5
28C6
330
2BEA
100
AcDbEntity
  8
0
 62
     0
100
AcDbLine
 10
-481.4999623857691
 20
-486.2416837005056
 30
0.0
 11
397.8929655912852
 21
-905.0000000000029
 31
0.0
  0
LINE
  5
28C7
330
2BEA
100
AcDbEntity
  8
0
 62
     0
100
AcDbLine
 10
-481.4999623857691
 20
-476.2417319563708
 30
0.0
 11
418.8928753282743
 21
-905.0000000000016
 31
0.0
  0
LINE
  5
28C8
330
2BEA
100
AcDbEntity
  8
0
 62
     0
100
AcDbLine
 10
-481.4999623857691
 20
-466.2417802122361
 30
0.0
 11
439.8927850652651
 21
-905.0000000000006
 31
0.0
  0
LINE
  5
28C9
330
2BEA
100
AcDbEntity
  8
0
 62
     0
100
AcDbLine
 10
-481.4999623857691
 20
-456.2418284681016
 30
0.0
 11
460.8926948022579
 21
-905.0000000000006
 31
0.0
  0
LINE
  5
28CA
330
2BEA
100
AcDbEntity
  8
0
 62
     0
100
AcDbLine
 10
-481.4999623857691
 20
-446.2418767239687
 30
0.0
 11
481.4999995189918
 21
-904.8130453270433
 31
0.0
  0
LINE
  5
28CB
330
2BEA
100
AcDbEntity
  8
0
 62
     0
100
AcDbLine
 10
-481.4999623857675
 20
-436.241924979834
 30
0.0
 11
481.4999995189936
 21
-894.8130935829084
 31
0.0
  0
LINE
  5
28CC
330
2BEA
100
AcDbEntity
  8
0
 62
     0
100
AcDbLine
 10
-481.4999623857675
 20
-426.2419732356991
 30
0.0
 11
481.4999995189918
 21
-884.8131418387739
 31
0.0
  0
LINE
  5
28CD
330
2BEA
100
AcDbEntity
  8
0
 62
     0
100
AcDbLine
 10
-481.4999623857691
 20
-416.2420214915655
 30
0.0
 11
481.4999995189918
 21
-874.8131900946392
 31
0.0
  0
LINE
  5
28CE
330
2BEA
100
AcDbEntity
  8
0
 62
     0
100
AcDbLine
 10
-481.4999623857675
 20
-406.24206974743
 30
0.0
 11
481.4999995189936
 21
-864.8132383505043
 31
0.0
  0
LINE
  5
28CF
330
2BEA
100
AcDbEntity
  8
0
 62
     0
100
AcDbLine
 10
-481.4999623857691
 20
-396.242118003297
 30
0.0
 11
481.4999995189936
 21
-854.8132866063713
 31
0.0
  0
LINE
  5
28D0
330
2BEA
100
AcDbEntity
  8
0
 62
     0
100
AcDbLine
 10
-481.4999623857691
 20
-386.2421662591623
 30
0.0
 11
481.4999995189918
 21
-844.8133348622356
 31
0.0
  0
LINE
  5
28D1
330
2BEA
100
AcDbEntity
  8
0
 62
     0
100
AcDbLine
 10
-481.4999623857675
 20
-376.2422145150276
 30
0.0
 11
481.4999995189936
 21
-834.8133831181021
 31
0.0
  0
LINE
  5
28D2
330
2BEA
100
AcDbEntity
  8
0
 62
     0
100
AcDbLine
 10
-481.4999623857691
 20
-366.2422627708929
 30
0.0
 11
481.4999995189918
 21
-824.8134313739665
 31
0.0
  0
LINE
  5
28D3
330
2BEA
100
AcDbEntity
  8
0
 62
     0
100
AcDbLine
 10
-481.4999623857675
 20
-356.2423110267583
 30
0.0
 11
481.4999995189918
 21
-814.8134796298318
 31
0.0
  0
LINE
  5
28D4
330
2BEA
100
AcDbEntity
  8
0
 62
     0
100
AcDbLine
 10
-481.4999623857675
 20
-346.2423592826253
 30
0.0
 11
481.4999995189936
 21
-804.8135278856987
 31
0.0
  0
LINE
  5
28D5
330
2BEA
100
AcDbEntity
  8
0
 62
     0
100
AcDbLine
 10
-481.4999623857691
 20
-336.2424075384906
 30
0.0
 11
481.4999995189918
 21
-794.8135761415642
 31
0.0
  0
LINE
  5
28D6
330
2BEA
100
AcDbEntity
  8
0
 62
     0
100
AcDbLine
 10
-481.4999623857675
 20
-326.2424557943559
 30
0.0
 11
481.4999995189936
 21
-784.8136243974295
 31
0.0
  0
LINE
  5
28D7
330
2BEA
100
AcDbEntity
  8
0
 62
     0
100
AcDbLine
 10
-481.4999623857691
 20
-316.2425040502203
 30
0.0
 11
481.4999995189936
 21
-774.8136726532947
 31
0.0
  0
LINE
  5
28D8
330
2BEA
100
AcDbEntity
  8
0
 62
     0
100
AcDbLine
 10
-481.4999623857691
 20
-306.2425523060856
 30
0.0
 11
481.4999995189918
 21
-764.8137209091601
 31
0.0
  0
LINE
  5
28D9
330
2BEA
100
AcDbEntity
  8
0
 62
     0
100
AcDbLine
 10
-481.4999623857691
 20
-296.2426005619509
 30
0.0
 11
481.4999995189918
 21
-754.8137691650246
 31
0.0
  0
LINE
  5
28DA
330
2BEA
100
AcDbEntity
  8
0
 62
     0
100
AcDbLine
 10
-481.4999623857691
 20
-286.242648817818
 30
0.0
 11
481.4999995189936
 21
-744.8138174208925
 31
0.0
  0
LINE
  5
28DB
330
2BEA
100
AcDbEntity
  8
0
 62
     0
100
AcDbLine
 10
-481.4999623857691
 20
-276.2426970736833
 30
0.0
 11
481.4999995189918
 21
-734.8138656767567
 31
0.0
  0
LINE
  5
28DC
330
2BEA
100
AcDbEntity
  8
0
 62
     0
100
AcDbLine
 10
-481.4999623857675
 20
-266.2427453295486
 30
0.0
 11
481.4999995189936
 21
-724.8139139326227
 31
0.0
  0
LINE
  5
28DD
330
2BEA
100
AcDbEntity
  8
0
 62
     0
100
AcDbLine
 10
-481.4999623857675
 20
-256.2427935854137
 30
0.0
 11
481.4999995189918
 21
-714.8139621884881
 31
0.0
  0
LINE
  5
28DE
330
2BEA
100
AcDbEntity
  8
0
 62
     0
100
AcDbLine
 10
-481.4999623857675
 20
-246.2428418412792
 30
0.0
 11
481.4999995189936
 21
-704.8140104443538
 31
0.0
  0
LINE
  5
28DF
330
2BEA
100
AcDbEntity
  8
0
 62
     0
100
AcDbLine
 10
-481.4999623857675
 20
-236.2428900971463
 30
0.0
 11
481.4999995189936
 21
-694.8140587002208
 31
0.0
  0
LINE
  5
28E0
330
2BEA
100
AcDbEntity
  8
0
 62
     0
100
AcDbLine
 10
-481.4999623857691
 20
-226.2429383530116
 30
0.0
 11
481.4999995189936
 21
-684.8141069560861
 31
0.0
  0
LINE
  5
28E1
330
2BEA
100
AcDbEntity
  8
0
 62
     0
100
AcDbLine
 10
-481.4999623857675
 20
-216.2429866088769
 30
0.0
 11
481.4999995189936
 21
-674.8141552119514
 31
0.0
  0
LINE
  5
28E2
330
2BEA
100
AcDbEntity
  8
0
 62
     0
100
AcDbLine
 10
-481.4999623857675
 20
-206.2430348647422
 30
0.0
 11
481.4999995189936
 21
-664.8142034678167
 31
0.0
  0
LINE
  5
28E3
330
2BEA
100
AcDbEntity
  8
0
 62
     0
100
AcDbLine
 10
-481.4999623857691
 20
-196.2430831206073
 30
0.0
 11
481.4999995189936
 21
-654.8142517236819
 31
0.0
  0
LINE
  5
28E4
330
2BEA
100
AcDbEntity
  8
0
 62
     0
100
AcDbLine
 10
-481.4999623857691
 20
-186.2431313764727
 30
0.0
 11
481.4999995189918
 21
-644.8142999795464
 31
0.0
  0
LINE
  5
28E5
330
2BEA
100
AcDbEntity
  8
0
 62
     0
100
AcDbLine
 10
-481.4999623857675
 20
-176.2431796323398
 30
0.0
 11
481.4999995189953
 21
-634.8143482354144
 31
0.0
  0
LINE
  5
28E6
330
2BEA
100
AcDbEntity
  8
0
 62
     0
100
AcDbLine
 10
-481.4999623857691
 20
-166.2432278882052
 30
0.0
 11
481.4999995189918
 21
-624.8143964912783
 31
0.0
  0
LINE
  5
28E7
330
2BEA
100
AcDbEntity
  8
0
 62
     0
100
AcDbLine
 10
-481.4999623857675
 20
-156.2432761440704
 30
0.0
 11
481.4999995189918
 21
-614.8144447471438
 31
0.0
  0
LINE
  5
28E8
330
2BEA
100
AcDbEntity
  8
0
 62
     0
100
AcDbLine
 10
-481.4999623857675
 20
-146.2433243999357
 30
0.0
 11
481.4999995189936
 21
-604.8144930030092
 31
0.0
  0
LINE
  5
28E9
330
2BEA
100
AcDbEntity
  8
0
 62
     0
100
AcDbLine
 10
-481.499962385771
 20
-136.2433726558001
 30
0.0
 11
481.4999995189918
 21
-594.8145412588745
 31
0.0
  0
LINE
  5
28EA
330
2BEA
100
AcDbEntity
  8
0
 62
     0
100
AcDbLine
 10
-481.4999623857675
 20
-126.2434209116682
 30
0.0
 11
481.4999995189936
 21
-584.8145895147418
 31
0.0
  0
LINE
  5
28EB
330
2BEA
100
AcDbEntity
  8
0
 62
     0
100
AcDbLine
 10
-481.4999623857691
 20
-116.2434691675325
 30
0.0
 11
481.4999995189936
 21
-574.8146377706071
 31
0.0
  0
LINE
  5
28EC
330
2BEA
100
AcDbEntity
  8
0
 62
     0
100
AcDbLine
 10
-481.4999623857691
 20
-106.2435174233978
 30
0.0
 11
481.4999995189918
 21
-564.8146860264724
 31
0.0
  0
LINE
  5
28ED
330
2BEA
100
AcDbEntity
  8
0
 62
     0
100
AcDbLine
 10
-463.1114406150209
 20
-105.0000000000036
 30
0.0
 11
481.4999995189936
 21
-554.8147342823368
 31
0.0
  0
LINE
  5
28EE
330
2BEA
100
AcDbEntity
  8
0
 62
     0
100
AcDbLine
 10
-442.1115308780335
 20
-105.0000000000018
 30
0.0
 11
481.4999995189936
 21
-544.8147825382029
 31
0.0
  0
LINE
  5
28EF
330
2BEA
100
AcDbEntity
  8
0
 62
     0
100
AcDbLine
 10
-421.1116211410424
 20
-105.0000000000036
 30
0.0
 11
481.4999995189936
 21
-534.814830794069
 31
0.0
  0
LINE
  5
28F0
330
2BEA
100
AcDbEntity
  8
0
 62
     0
100
AcDbLine
 10
-400.1117114040515
 20
-105.0000000000036
 30
0.0
 11
481.4999995189936
 21
-524.8148790499343
 31
0.0
  0
LINE
  5
28F1
330
2BEA
100
AcDbEntity
  8
0
 62
     0
100
AcDbLine
 10
-379.1118016670608
 20
-105.0000000000027
 30
0.0
 11
481.4999995189918
 21
-514.8149273057997
 31
0.0
  0
LINE
  5
28F2
330
2BEA
100
AcDbEntity
  8
0
 62
     0
100
AcDbLine
 10
-358.1118919300698
 20
-105.0000000000027
 30
0.0
 11
481.4999995189936
 21
-504.8149755616648
 31
0.0
  0
LINE
  5
28F3
330
2BEA
100
AcDbEntity
  8
0
 62
     0
100
AcDbLine
 10
-337.1119821930769
 20
-105.0000000000027
 30
0.0
 11
481.4999995189936
 21
-494.8150238175302
 31
0.0
  0
LINE
  5
28F4
330
2BEA
100
AcDbEntity
  8
0
 62
     0
100
AcDbLine
 10
-316.1120724560878
 20
-105.0000000000027
 30
0.0
 11
481.4999995189936
 21
-484.8150720733965
 31
0.0
  0
LINE
  5
28F5
330
2BEA
100
AcDbEntity
  8
0
 62
     0
100
AcDbLine
 10
-295.1121627190988
 20
-105.0000000000027
 30
0.0
 11
481.4999995189936
 21
-474.8151203292636
 31
0.0
  0
LINE
  5
28F6
330
2BEA
100
AcDbEntity
  8
0
 62
     0
100
AcDbLine
 10
-274.1122529821077
 20
-105.0000000000027
 30
0.0
 11
481.4999995189936
 21
-464.8151685851288
 31
0.0
  0
LINE
  5
28F7
330
2BEA
100
AcDbEntity
  8
0
 62
     0
100
AcDbLine
 10
-253.1123432451168
 20
-105.0000000000027
 30
0.0
 11
481.4999995189936
 21
-454.815216840994
 31
0.0
  0
LINE
  5
28F8
330
2BEA
100
AcDbEntity
  8
0
 62
     0
100
AcDbLine
 10
-232.1124335081258
 20
-105.0000000000027
 30
0.0
 11
481.4999995189918
 21
-444.8152650968586
 31
0.0
  0
LINE
  5
28F9
330
2BEA
100
AcDbEntity
  8
0
 62
     0
100
AcDbLine
 10
-211.1125237711349
 20
-105.0000000000027
 30
0.0
 11
481.4999995189936
 21
-434.8153133527239
 31
0.0
  0
LINE
  5
28FA
330
2BEA
100
AcDbEntity
  8
0
 62
     0
100
AcDbLine
 10
-190.1126140341438
 20
-105.0000000000045
 30
0.0
 11
481.4999995189918
 21
-424.8153616085908
 31
0.0
  0
LINE
  5
28FB
330
2BEA
100
AcDbEntity
  8
0
 62
     0
100
AcDbLine
 10
-169.1127042971511
 20
-105.0000000000036
 30
0.0
 11
481.4999995189953
 21
-414.8154098644561
 31
0.0
  0
LINE
  5
28FC
330
2BEA
100
AcDbEntity
  8
0
 62
     0
100
AcDbLine
 10
-148.1127945601638
 20
-105.0000000000027
 30
0.0
 11
481.4999995189936
 21
-404.8154581203216
 31
0.0
  0
LINE
  5
28FD
330
2BEA
100
AcDbEntity
  8
0
 62
     0
100
AcDbLine
 10
265.6999995189945
 20
-292.0536558058028
 30
0.0
 11
279.8673297979567
 21
-298.800000000002
 31
0.0
  0
LINE
  5
28FE
330
2BEA
100
AcDbEntity
  8
0
 62
     0
100
AcDbLine
 10
279.8673297979604
 20
-298.8000000000028
 30
0.0
 11
481.4999995189918
 21
-394.8155063761869
 31
0.0
  0
LINE
  5
28FF
330
2BEA
100
AcDbEntity
  8
0
 62
     0
100
AcDbLine
 10
-127.1128848231747
 20
-105.0000000000027
 30
0.0
 11
265.6999995189926
 21
-292.053655805802
 31
0.0
  0
LINE
  5
2900
330
2BEA
100
AcDbEntity
  8
0
 62
     0
100
AcDbLine
 10
265.6999995189963
 20
-282.0537040616682
 30
0.0
 11
300.8672395349514
 21
-298.800000000002
 31
0.0
  0
LINE
  5
2901
330
2BEA
100
AcDbEntity
  8
0
 62
     0
100
AcDbLine
 10
300.8672395349549
 20
-298.8000000000028
 30
0.0
 11
481.4999995189953
 21
-384.8155546320522
 31
0.0
  0
LINE
  5
2902
330
2BEA
100
AcDbEntity
  8
0
 62
     0
100
AcDbLine
 10
-106.1129750861801
 20
-105.0000000000018
 30
0.0
 11
265.6999995189963
 21
-282.0537040616673
 31
0.0
  0
LINE
  5
2903
330
2BEA
100
AcDbEntity
  8
0
 62
     0
100
AcDbLine
 10
265.6999995189963
 20
-272.0537523175353
 30
0.0
 11
321.8671492719404
 21
-298.8000000000028
 31
0.0
  0
LINE
  5
2904
330
2BEA
100
AcDbEntity
  8
0
 62
     0
100
AcDbLine
 10
321.8671492719404
 20
-298.8000000000028
 30
0.0
 11
481.4999995189936
 21
-374.8156028879192
 31
0.0
  0
LINE
  5
2905
330
2BEA
100
AcDbEntity
  8
0
 62
     0
100
AcDbLine
 10
-85.11306534919095
 20
-105.0000000000036
 30
0.0
 11
265.6999995189945
 21
-272.0537523175344
 31
0.0
  0
LINE
  5
2906
330
2BEA
100
AcDbEntity
  8
0
 62
     0
100
AcDbLine
 10
265.6999995189963
 20
-262.0538005734006
 30
0.0
 11
342.8670590089331
 21
-298.8000000000028
 31
0.0
  0
LINE
  5
2907
330
2BEA
100
AcDbEntity
  8
0
 62
     0
100
AcDbLine
 10
342.8670590089331
 20
-298.8000000000028
 30
0.0
 11
481.4999995189936
 21
-364.8156511437846
 31
0.0
  0
LINE
  5
2908
330
2BEA
100
AcDbEntity
  8
0
 62
     0
100
AcDbLine
 10
-64.11315561219817
 20
-105.0000000000036
 30
0.0
 11
265.6999995189945
 21
-262.0538005733997
 31
0.0
  0
LINE
  5
2909
330
2BEA
100
AcDbEntity
  8
0
 62
     0
100
AcDbLine
 10
265.6999995189981
 20
-252.0538488292658
 30
0.0
 11
363.8669687459242
 21
-298.8000000000028
 31
0.0
  0
LINE
  5
290A
330
2BEA
100
AcDbEntity
  8
0
 62
     0
100
AcDbLine
 10
363.8669687459242
 20
-298.8000000000028
 30
0.0
 11
481.4999995189936
 21
-354.815699399649
 31
0.0
  0
LINE
  5
290B
330
2BEA
100
AcDbEntity
  8
0
 62
     0
100
AcDbLine
 10
-43.11324587520721
 20
-105.0000000000036
 30
0.0
 11
265.6999995189963
 21
-252.053848829265
 31
0.0
  0
LINE
  5
290C
330
2BEA
100
AcDbEntity
  8
0
 62
     0
100
AcDbLine
 10
265.6999995189963
 20
-242.0538970851312
 30
0.0
 11
384.8668784829151
 21
-298.8000000000028
 31
0.0
  0
LINE
  5
290D
330
2BEA
100
AcDbEntity
  8
0
 62
     0
100
AcDbLine
 10
384.8668784829151
 20
-298.8000000000038
 30
0.0
 11
481.4999995189936
 21
-344.8157476555152
 31
0.0
  0
LINE
  5
290E
330
2BEA
100
AcDbEntity
  8
0
 62
     0
100
AcDbLine
 10
-22.11333613821989
 20
-105.0000000000018
 30
0.0
 11
265.6999995189945
 21
-242.0538970851303
 31
0.0
  0
LINE
  5
290F
330
2BEA
100
AcDbEntity
  8
0
 62
     0
100
AcDbLine
 10
265.6999995189963
 20
-232.0539453409965
 30
0.0
 11
405.8667882199022
 21
-298.8000000000011
 31
0.0
  0
LINE
  5
2910
330
2BEA
100
AcDbEntity
  8
0
 62
     0
100
AcDbLine
 10
405.8667882199061
 20
-298.8000000000028
 30
0.0
 11
481.4999995189936
 21
-334.8157959113796
 31
0.0
  0
LINE
  5
2911
330
2BEA
100
AcDbEntity
  8
0
 62
     0
100
AcDbLine
 10
-1.113426401228934
 20
-105.0000000000018
 30
0.0
 11
265.6999995189963
 21
-232.0539453409956
 31
0.0
  0
LINE
  5
2912
330
2BEA
100
AcDbEntity
  8
0
 62
     0
100
AcDbLine
 10
265.6999995189981
 20
-222.0539935968618
 30
0.0
 11
426.8666979568952
 21
-298.8000000000011
 31
0.0
  0
LINE
  5
2913
330
2BEA
100
AcDbEntity
  8
0
 62
     0
100
AcDbLine
 10
426.8666979568968
 20
-298.8000000000028
 30
0.0
 11
481.4999995189936
 21
-324.8158441672448
 31
0.0
  0
LINE
  5
2914
330
2BEA
100
AcDbEntity
  8
0
 62
     0
100
AcDbLine
 10
19.88648333576201
 20
-105.0000000000018
 30
0.0
 11
265.6999995189945
 21
-222.0539935968609
 31
0.0
  0
LINE
  5
2915
330
2BEA
100
AcDbEntity
  8
0
 62
     0
100
AcDbLine
 10
265.6999995189945
 20
-212.0540418527289
 30
0.0
 11
447.8666076938843
 21
-298.8000000000028
 31
0.0
  0
LINE
  5
2916
330
2BEA
100
AcDbEntity
  8
0
 62
     0
100
AcDbLine
 10
447.866607693886
 20
-298.8000000000038
 30
0.0
 11
481.4999995189936
 21
-314.815892423112
 31
0.0
  0
LINE
  5
2917
330
2BEA
100
AcDbEntity
  8
0
 62
     0
100
AcDbLine
 10
40.88639307275296
 20
-105.0000000000036
 30
0.0
 11
265.6999995189945
 21
-212.0540418527289
 31
0.0
  0
LINE
  5
2918
330
2BEA
100
AcDbEntity
  8
0
 62
     0
100
AcDbLine
 10
265.6999995189963
 20
-202.0540901085942
 30
0.0
 11
468.8665174308751
 21
-298.8000000000028
 31
0.0
  0
LINE
  5
2919
330
2BEA
100
AcDbEntity
  8
0
 62
     0
100
AcDbLine
 10
468.8665174308771
 20
-298.8000000000038
 30
0.0
 11
481.4999995189936
 21
-304.8159406789773
 31
0.0
  0
LINE
  5
291A
330
2BEA
100
AcDbEntity
  8
0
 62
     0
100
AcDbLine
 10
61.88630280974393
 20
-105.0000000000036
 30
0.0
 11
265.6999995189945
 21
-202.0540901085933
 31
0.0
  0
LINE
  5
291B
330
2BEA
100
AcDbEntity
  8
0
 62
     0
100
AcDbLine
 10
265.6999995189963
 20
-192.0541383644595
 30
0.0
 11
481.4999995189918
 21
-294.8159889348428
 31
0.0
  0
LINE
  5
291C
330
2BEA
100
AcDbEntity
  8
0
 62
     0
100
AcDbLine
 10
82.88621254673667
 20
-105.0000000000036
 30
0.0
 11
265.6999995189945
 21
-192.0541383644586
 31
0.0
  0
LINE
  5
291D
330
2BEA
100
AcDbEntity
  8
0
 62
     0
100
AcDbLine
 10
265.6999995189945
 20
-182.0541866203248
 30
0.0
 11
481.4999995189918
 21
-284.8160371907079
 31
0.0
  0
LINE
  5
291E
330
2BEA
100
AcDbEntity
  8
0
 62
     0
100
AcDbLine
 10
103.8861222837258
 20
-105.0000000000027
 30
0.0
 11
265.6999995189945
 21
-182.0541866203238
 31
0.0
  0
LINE
  5
291F
330
2BEA
100
AcDbEntity
  8
0
 62
     0
100
AcDbLine
 10
265.6999995189963
 20
-172.0542348761901
 30
0.0
 11
481.4999995189918
 21
-274.8160854465732
 31
0.0
  0
LINE
  5
2920
330
2BEA
100
AcDbEntity
  8
0
 62
     0
100
AcDbLine
 10
124.886032020715
 20
-105.0000000000018
 30
0.0
 11
265.6999995189945
 21
-172.0542348761892
 31
0.0
  0
LINE
  5
2921
330
2BEA
100
AcDbEntity
  8
0
 62
     0
100
AcDbLine
 10
265.6999995189963
 20
-162.0542831320572
 30
0.0
 11
481.4999995189936
 21
-264.8161337024403
 31
0.0
  0
LINE
  5
2922
330
2BEA
100
AcDbEntity
  8
0
 62
     0
100
AcDbLine
 10
145.8859417577058
 20
-105.0000000000036
 30
0.0
 11
265.6999995189945
 21
-162.0542831320563
 31
0.0
  0
LINE
  5
2923
330
2BEA
100
AcDbEntity
  8
0
 62
     0
100
AcDbLine
 10
265.6999995189963
 20
-152.0543313879225
 30
0.0
 11
481.4999995189918
 21
-254.8161819583056
 31
0.0
  0
LINE
  5
2924
330
2BEA
100
AcDbEntity
  8
0
 62
     0
100
AcDbLine
 10
166.8858514946969
 20
-105.0000000000027
 30
0.0
 11
265.6999995189945
 21
-152.0543313879216
 31
0.0
  0
LINE
  5
2925
330
2BEA
100
AcDbEntity
  8
0
 62
     0
100
AcDbLine
 10
265.6999995189963
 20
-142.0543796437868
 30
0.0
 11
481.4999995189936
 21
-244.8162302141709
 31
0.0
  0
LINE
  5
2926
330
2BEA
100
AcDbEntity
  8
0
 62
     0
100
AcDbLine
 10
187.8857612316897
 20
-105.0000000000027
 30
0.0
 11
265.6999995189963
 21
-142.0543796437868
 31
0.0
  0
LINE
  5
2927
330
2BEA
100
AcDbEntity
  8
0
 62
     0
100
AcDbLine
 10
265.6999995189945
 20
-132.0544278996512
 30
0.0
 11
481.4999995189936
 21
-234.8162784700362
 31
0.0
  0
LINE
  5
2928
330
2BEA
100
AcDbEntity
  8
0
 62
     0
100
AcDbLine
 10
208.8856709686788
 20
-105.0000000000027
 30
0.0
 11
265.6999995189945
 21
-132.0544278996512
 31
0.0
  0
LINE
  5
2929
330
2BEA
100
AcDbEntity
  8
0
 62
     0
100
AcDbLine
 10
265.6999995189926
 20
-122.0544761555165
 30
0.0
 11
481.4999995189918
 21
-224.8163267259015
 31
0.0
  0
LINE
  5
292A
330
2BEA
100
AcDbEntity
  8
0
 62
     0
100
AcDbLine
 10
229.8855807056698
 20
-105.0000000000027
 30
0.0
 11
265.6999995189926
 21
-122.0544761555165
 31
0.0
  0
LINE
  5
292B
330
2BEA
100
AcDbEntity
  8
0
 62
     0
100
AcDbLine
 10
265.6999995189945
 20
-112.0545244113818
 30
0.0
 11
481.4999995189936
 21
-214.8163749817659
 31
0.0
  0
LINE
  5
292C
330
2BEA
100
AcDbEntity
  8
0
 62
     0
100
AcDbLine
 10
250.8854904426589
 20
-105.0000000000009
 30
0.0
 11
265.6999995189945
 21
-112.0545244113818
 31
0.0
  0
LINE
  5
292D
330
2BEA
100
AcDbEntity
  8
0
 62
     0
100
AcDbLine
 10
271.8854001796553
 20
-105.0000000000054
 30
0.0
 11
481.4999995189918
 21
-204.816423237633
 31
0.0
  0
LINE
  5
292E
330
2BEA
100
AcDbEntity
  8
0
 62
     0
100
AcDbLine
 10
292.8853099166462
 20
-105.0000000000054
 30
0.0
 11
481.4999995189918
 21
-194.8164714934982
 31
0.0
  0
LINE
  5
292F
330
2BEA
100
AcDbEntity
  8
0
 62
     0
100
AcDbLine
 10
313.8852196536372
 20
-105.0000000000045
 30
0.0
 11
481.4999995189936
 21
-184.8165197493635
 31
0.0
  0
LINE
  5
2930
330
2BEA
100
AcDbEntity
  8
0
 62
     0
100
AcDbLine
 10
334.8851293906264
 20
-105.0000000000036
 30
0.0
 11
481.4999995189918
 21
-174.8165680052288
 31
0.0
  0
LINE
  5
2931
330
2BEA
100
AcDbEntity
  8
0
 62
     0
100
AcDbLine
 10
355.8850391276174
 20
-105.0000000000027
 30
0.0
 11
481.4999995189936
 21
-164.8166162610941
 31
0.0
  0
LINE
  5
2932
330
2BEA
100
AcDbEntity
  8
0
 62
     0
100
AcDbLine
 10
376.8849488646065
 20
-105.0000000000036
 30
0.0
 11
481.4999995189936
 21
-154.8166645169612
 31
0.0
  0
LINE
  5
2933
330
2BEA
100
AcDbEntity
  8
0
 62
     0
100
AcDbLine
 10
397.8848586015938
 20
-105.0000000000027
 30
0.0
 11
481.4999995189918
 21
-144.8167127728264
 31
0.0
  0
LINE
  5
2934
330
2BEA
100
AcDbEntity
  8
0
 62
     0
100
AcDbLine
 10
418.8847683385847
 20
-105.0000000000018
 30
0.0
 11
481.4999995189936
 21
-134.8167610286918
 31
0.0
  0
LINE
  5
2935
330
2BEA
100
AcDbEntity
  8
0
 62
     0
100
AcDbLine
 10
439.8846780755757
 20
-105.0000000000018
 30
0.0
 11
481.4999995189918
 21
-124.8168092845562
 31
0.0
  0
LINE
  5
2936
330
2BEA
100
AcDbEntity
  8
0
 62
     0
100
AcDbLine
 10
460.8845878125628
 20
-105.0000000000009
 30
0.0
 11
481.4999995189918
 21
-114.8168575404215
 31
0.0
  0
ENDBLK
  5
2937
330
2BEA
100
AcDbEntity
  8
0
100
AcDbBlockEnd
  0
BLOCK
  5
2BED
330
2BEC
100
AcDbEntity
  8
0
100
AcDbBlockBegin
  2
*X71
 70
     1
 10
0.0
 20
0.0
 30
0.0
  3
*X71
  1

  0
LINE
  5
293A
330
2BEC
100
AcDbEntity
  8
0
 62
     0
100
AcDbLine
 10
474.4012263881704
 20
-905.0
 30
0.0
 11
481.4999995189991
 21
-901.6196336251013
 31
0.0
  0
LINE
  5
293B
330
2BEC
100
AcDbEntity
  8
0
 62
     0
100
AcDbLine
 10
453.4013166511813
 20
-904.9999999999991
 30
0.0
 11
481.4999995189973
 21
-891.6196818809666
 31
0.0
  0
LINE
  5
293C
330
2BEC
100
AcDbEntity
  8
0
 62
     0
100
AcDbLine
 10
432.4014069141922
 20
-905.0
 30
0.0
 11
481.4999995189991
 21
-881.619730136833
 31
0.0
  0
LINE
  5
293D
330
2BEC
100
AcDbEntity
  8
0
 62
     0
100
AcDbLine
 10
411.4014971772012
 20
-904.9999999999991
 30
0.0
 11
481.4999995189991
 21
-871.6197783926972
 31
0.0
  0
LINE
  5
293E
330
2BEC
100
AcDbEntity
  8
0
 62
     0
100
AcDbLine
 10
390.4015874402103
 20
-904.9999999999981
 30
0.0
 11
481.4999995189973
 21
-861.6198266485636
 31
0.0
  0
LINE
  5
293F
330
2BEC
100
AcDbEntity
  8
0
 62
     0
100
AcDbLine
 10
369.4016777032192
 20
-904.9999999999991
 30
0.0
 11
481.4999995190007
 21
-851.6198749044287
 31
0.0
  0
LINE
  5
2940
330
2BEC
100
AcDbEntity
  8
0
 62
     0
100
AcDbLine
 10
348.4017679662283
 20
-904.9999999999991
 30
0.0
 11
481.4999995189991
 21
-841.6199231602941
 31
0.0
  0
LINE
  5
2941
330
2BEC
100
AcDbEntity
  8
0
 62
     0
100
AcDbLine
 10
327.4018582292374
 20
-904.9999999999991
 30
0.0
 11
481.4999995189991
 21
-831.6199714161603
 31
0.0
  0
LINE
  5
2942
330
2BEC
100
AcDbEntity
  8
0
 62
     0
100
AcDbLine
 10
306.4019484922464
 20
-904.9999999999991
 30
0.0
 11
481.4999995189973
 21
-821.6200196720256
 31
0.0
  0
LINE
  5
2943
330
2BEC
100
AcDbEntity
  8
0
 62
     0
100
AcDbLine
 10
285.4020387552555
 20
-904.9999999999991
 30
0.0
 11
481.4999995189991
 21
-811.6200679278909
 31
0.0
  0
LINE
  5
2944
330
2BEC
100
AcDbEntity
  8
0
 62
     0
100
AcDbLine
 10
264.4021290182645
 20
-905.0
 30
0.0
 11
481.4999995189991
 21
-801.6201161837571
 31
0.0
  0
LINE
  5
2945
330
2BEC
100
AcDbEntity
  8
0
 62
     0
100
AcDbLine
 10
243.4022192812736
 20
-904.9999999999991
 30
0.0
 11
481.4999995189973
 21
-791.6201644396224
 31
0.0
  0
LINE
  5
2946
330
2BEC
100
AcDbEntity
  8
0
 62
     0
100
AcDbLine
 10
222.4023095442845
 20
-904.9999999999991
 30
0.0
 11
481.4999995190007
 21
-781.6202126954864
 31
0.0
  0
LINE
  5
2947
330
2BEC
100
AcDbEntity
  8
0
 62
     0
100
AcDbLine
 10
201.4023998072936
 20
-905.0
 30
0.0
 11
481.4999995189973
 21
-771.6202609513539
 31
0.0
  0
LINE
  5
2948
330
2BEC
100
AcDbEntity
  8
0
 62
     0
100
AcDbLine
 10
180.4024900703024
 20
-904.9999999999991
 30
0.0
 11
481.4999995189991
 21
-761.6203092072183
 31
0.0
  0
LINE
  5
2949
330
2BEC
100
AcDbEntity
  8
0
 62
     0
100
AcDbLine
 10
159.4025803333134
 20
-905.0
 30
0.0
 11
481.4999995190007
 21
-751.6203574630845
 31
0.0
  0
LINE
  5
294A
330
2BEC
100
AcDbEntity
  8
0
 62
     0
100
AcDbLine
 10
138.4026705963206
 20
-904.9999999999991
 30
0.0
 11
481.4999995189991
 21
-741.6204057189498
 31
0.0
  0
LINE
  5
294B
330
2BEC
100
AcDbEntity
  8
0
 62
     0
100
AcDbLine
 10
117.4027608593315
 20
-904.9999999999991
 30
0.0
 11
481.4999995189991
 21
-731.6204539748149
 31
0.0
  0
LINE
  5
294C
330
2BEC
100
AcDbEntity
  8
0
 62
     0
100
AcDbLine
 10
96.40285112233868
 20
-904.9999999999991
 30
0.0
 11
481.4999995189973
 21
-721.6205022306811
 31
0.0
  0
LINE
  5
294D
330
2BEC
100
AcDbEntity
  8
0
 62
     0
100
AcDbLine
 10
75.40294138534955
 20
-904.9999999999991
 30
0.0
 11
481.4999995189991
 21
-711.6205504865464
 31
0.0
  0
LINE
  5
294E
330
2BEC
100
AcDbEntity
  8
0
 62
     0
100
AcDbLine
 10
54.40303164835859
 20
-904.9999999999981
 30
0.0
 11
481.4999995189991
 21
-701.6205987424116
 31
0.0
  0
LINE
  5
294F
330
2BEC
100
AcDbEntity
  8
0
 62
     0
100
AcDbLine
 10
33.40312191136764
 20
-904.9999999999991
 30
0.0
 11
481.4999995189991
 21
-691.620646998278
 31
0.0
  0
LINE
  5
2950
330
2BEC
100
AcDbEntity
  8
0
 62
     0
100
AcDbLine
 10
12.40321217437849
 20
-904.9999999999991
 30
0.0
 11
481.4999995189991
 21
-681.6206952541433
 31
0.0
  0
LINE
  5
2951
330
2BEC
100
AcDbEntity
  8
0
 62
     0
100
AcDbLine
 10
-8.596697562614281
 20
-905.0
 30
0.0
 11
481.4999995189991
 21
-671.6207435100095
 31
0.0
  0
LINE
  5
2952
330
2BEC
100
AcDbEntity
  8
0
 62
     0
100
AcDbLine
 10
-29.59660729960523
 20
-905.0
 30
0.0
 11
481.4999995189991
 21
-661.6207917658748
 31
0.0
  0
LINE
  5
2953
330
2BEC
100
AcDbEntity
  8
0
 62
     0
100
AcDbLine
 10
-50.5965170365962
 20
-904.9999999999991
 30
0.0
 11
481.4999995189991
 21
-651.6208400217401
 31
0.0
  0
LINE
  5
2954
330
2BEC
100
AcDbEntity
  8
0
 62
     0
100
AcDbLine
 10
-71.59642677358535
 20
-905.0
 30
0.0
 11
481.4999995189991
 21
-641.6208882776063
 31
0.0
  0
LINE
  5
2955
330
2BEC
100
AcDbEntity
  8
0
 62
     0
100
AcDbLine
 10
-92.5963365105763
 20
-904.9999999999991
 30
0.0
 11
481.4999995189991
 21
-631.6209365334716
 31
0.0
  0
LINE
  5
2956
330
2BEC
100
AcDbEntity
  8
0
 62
     0
100
AcDbLine
 10
-113.5962462475672
 20
-904.9999999999991
 30
0.0
 11
481.4999995189973
 21
-621.620984789337
 31
0.0
  0
LINE
  5
2957
330
2BEC
100
AcDbEntity
  8
0
 62
     0
100
AcDbLine
 10
-134.5961559845582
 20
-905.0
 30
0.0
 11
481.4999995189991
 21
-611.6210330452032
 31
0.0
  0
LINE
  5
2958
330
2BEC
100
AcDbEntity
  8
0
 62
     0
100
AcDbLine
 10
-155.5960657215491
 20
-904.9999999999991
 30
0.0
 11
481.4999995189991
 21
-601.6210813010675
 31
0.0
  0
LINE
  5
2959
330
2BEC
100
AcDbEntity
  8
0
 62
     0
100
AcDbLine
 10
-176.5959754585383
 20
-904.9999999999991
 30
0.0
 11
481.4999995189973
 21
-591.6211295569346
 31
0.0
  0
LINE
  5
295A
330
2BEC
100
AcDbEntity
  8
0
 62
     0
100
AcDbLine
 10
-197.5958851955311
 20
-904.9999999999991
 30
0.0
 11
481.4999995189991
 21
-581.621177812799
 31
0.0
  0
LINE
  5
295B
330
2BEC
100
AcDbEntity
  8
0
 62
     0
100
AcDbLine
 10
-218.5957949325184
 20
-904.9999999999981
 30
0.0
 11
481.4999995189991
 21
-571.6212260686644
 31
0.0
  0
LINE
  5
295C
330
2BEC
100
AcDbEntity
  8
0
 62
     0
100
AcDbLine
 10
-239.5957046695112
 20
-904.9999999999991
 30
0.0
 11
481.4999995189991
 21
-561.6212743245305
 31
0.0
  0
LINE
  5
295D
330
2BEC
100
AcDbEntity
  8
0
 62
     0
100
AcDbLine
 10
-260.5956144065022
 20
-904.9999999999991
 30
0.0
 11
481.4999995189973
 21
-551.6213225803958
 31
0.0
  0
LINE
  5
295E
330
2BEC
100
AcDbEntity
  8
0
 62
     0
100
AcDbLine
 10
-281.5955241434931
 20
-905.0
 30
0.0
 11
481.4999995189991
 21
-541.621370836262
 31
0.0
  0
LINE
  5
295F
330
2BEC
100
AcDbEntity
  8
0
 62
     0
100
AcDbLine
 10
-302.5954338804841
 20
-905.0
 30
0.0
 11
481.4999995190007
 21
-531.6214190921264
 31
0.0
  0
LINE
  5
2960
330
2BEC
100
AcDbEntity
  8
0
 62
     0
100
AcDbLine
 10
-323.595343617475
 20
-905.0
 30
0.0
 11
481.4999995189973
 21
-521.6214673479925
 31
0.0
  0
LINE
  5
2961
330
2BEC
100
AcDbEntity
  8
0
 62
     0
100
AcDbLine
 10
-344.5952533544641
 20
-905.0
 30
0.0
 11
481.4999995190007
 21
-511.6215156038578
 31
0.0
  0
LINE
  5
2962
330
2BEC
100
AcDbEntity
  8
0
 62
     0
100
AcDbLine
 10
-365.5951630914552
 20
-904.9999999999991
 30
0.0
 11
481.4999995189991
 21
-501.6215638597231
 31
0.0
  0
LINE
  5
2963
330
2BEC
100
AcDbEntity
  8
0
 62
     0
100
AcDbLine
 10
-386.595072828446
 20
-904.9999999999991
 30
0.0
 11
481.4999995189991
 21
-491.6216121155882
 31
0.0
  0
LINE
  5
2964
330
2BEC
100
AcDbEntity
  8
0
 62
     0
100
AcDbLine
 10
-407.5949825654368
 20
-905.0
 30
0.0
 11
481.4999995189991
 21
-481.6216603714547
 31
0.0
  0
LINE
  5
2965
330
2BEC
100
AcDbEntity
  8
0
 62
     0
100
AcDbLine
 10
-428.5948923024279
 20
-904.9999999999991
 30
0.0
 11
481.4999995189991
 21
-471.6217086273208
 31
0.0
  0
LINE
  5
2966
330
2BEC
100
AcDbEntity
  8
0
 62
     0
100
AcDbLine
 10
-449.5948020394187
 20
-904.9999999999991
 30
0.0
 11
481.4999995189991
 21
-461.6217568831863
 31
0.0
  0
LINE
  5
2967
330
2BEC
100
AcDbEntity
  8
0
 62
     0
100
AcDbLine
 10
-470.5947117764098
 20
-904.9999999999991
 30
0.0
 11
481.4999995189973
 21
-451.6218051390523
 31
0.0
  0
LINE
  5
2968
330
2BEC
100
AcDbEntity
  8
0
 62
     0
100
AcDbLine
 10
-481.4999623857636
 20
-900.1930219979922
 30
0.0
 11
481.4999995190007
 21
-441.6218533949169
 31
0.0
  0
LINE
  5
2969
330
2BEC
100
AcDbEntity
  8
0
 62
     0
100
AcDbLine
 10
-481.4999623857636
 20
-890.1930702538582
 30
0.0
 11
481.4999995189991
 21
-431.6219016507838
 31
0.0
  0
LINE
  5
296A
330
2BEC
100
AcDbEntity
  8
0
 62
     0
100
AcDbLine
 10
-481.4999623857636
 20
-880.1931185097236
 30
0.0
 11
481.4999995189991
 21
-421.6219499066482
 31
0.0
  0
LINE
  5
296B
330
2BEC
100
AcDbEntity
  8
0
 62
     0
100
AcDbLine
 10
-481.4999623857657
 20
-870.1931667655886
 30
0.0
 11
481.4999995189991
 21
-411.6219981625135
 31
0.0
  0
LINE
  5
296C
330
2BEC
100
AcDbEntity
  8
0
 62
     0
100
AcDbLine
 10
-481.4999623857636
 20
-860.1932150214551
 30
0.0
 11
481.4999995189991
 21
-401.6220464183795
 31
0.0
  0
LINE
  5
296D
330
2BEC
100
AcDbEntity
  8
0
 62
     0
100
AcDbLine
 10
-481.4999623857636
 20
-850.1932632773195
 30
0.0
 11
481.4999995189991
 21
-391.6220946742451
 31
0.0
  0
LINE
  5
296E
330
2BEC
100
AcDbEntity
  8
0
 62
     0
100
AcDbLine
 10
-481.4999623857636
 20
-840.1933115331857
 30
0.0
 11
481.4999995189991
 21
-381.6221429301112
 31
0.0
  0
LINE
  5
296F
330
2BEC
100
AcDbEntity
  8
0
 62
     0
100
AcDbLine
 10
-481.499962385762
 20
-830.193359789051
 30
0.0
 11
481.4999995189991
 21
-371.6221911859766
 31
0.0
  0
LINE
  5
2970
330
2BEC
100
AcDbEntity
  8
0
 62
     0
100
AcDbLine
 10
-481.4999623857636
 20
-820.1934080449159
 30
0.0
 11
481.4999995189991
 21
-361.6222394418417
 31
0.0
  0
LINE
  5
2971
330
2BEC
100
AcDbEntity
  8
0
 62
     0
100
AcDbLine
 10
-481.4999623857636
 20
-810.1934563007826
 30
0.0
 11
481.4999995189991
 21
-351.6222876977072
 31
0.0
  0
LINE
  5
2972
330
2BEC
100
AcDbEntity
  8
0
 62
     0
100
AcDbLine
 10
-481.4999623857657
 20
-800.1935045566479
 30
0.0
 11
481.4999995189991
 21
-341.6223359535725
 31
0.0
  0
LINE
  5
2973
330
2BEC
100
AcDbEntity
  8
0
 62
     0
100
AcDbLine
 10
-481.4999623857636
 20
-790.1935528125142
 30
0.0
 11
481.4999995189991
 21
-331.6223842094378
 31
0.0
  0
LINE
  5
2974
330
2BEC
100
AcDbEntity
  8
0
 62
     0
100
AcDbLine
 10
-481.4999623857636
 20
-780.1936010683803
 30
0.0
 11
481.4999995189991
 21
-321.622432465304
 31
0.0
  0
LINE
  5
2975
330
2BEC
100
AcDbEntity
  8
0
 62
     0
100
AcDbLine
 10
-481.4999623857657
 20
-770.1936493242456
 30
0.0
 11
481.4999995189991
 21
-311.6224807211693
 31
0.0
  0
LINE
  5
2976
330
2BEC
100
AcDbEntity
  8
0
 62
     0
100
AcDbLine
 10
-481.499962385762
 20
-760.1936975801097
 30
0.0
 11
481.4999995189991
 21
-301.6225289770346
 31
0.0
  0
LINE
  5
2977
330
2BEC
100
AcDbEntity
  8
0
 62
     0
100
AcDbLine
 10
466.4274037595531
 20
-298.8000000000002
 30
0.0
 11
481.4999995189973
 21
-291.6225772329017
 31
0.0
  0
LINE
  5
2978
330
2BEC
100
AcDbEntity
  8
0
 62
     0
100
AcDbLine
 10
-481.4999623857636
 20
-750.1937458359764
 30
0.0
 11
466.4274037595531
 21
-298.8000000000002
 31
0.0
  0
LINE
  5
2979
330
2BEC
100
AcDbEntity
  8
0
 62
     0
100
AcDbLine
 10
445.4274940225623
 20
-298.7999999999992
 30
0.0
 11
481.4999995189973
 21
-281.622625488767
 31
0.0
  0
LINE
  5
297A
330
2BEC
100
AcDbEntity
  8
0
 62
     0
100
AcDbLine
 10
-481.4999623857636
 20
-740.1937940918416
 30
0.0
 11
445.4274940225623
 21
-298.7999999999992
 31
0.0
  0
LINE
  5
297B
330
2BEC
100
AcDbEntity
  8
0
 62
     0
100
AcDbLine
 10
424.4275842855731
 20
-298.8000000000002
 30
0.0
 11
481.4999995189973
 21
-271.6226737446332
 31
0.0
  0
LINE
  5
297C
330
2BEC
100
AcDbEntity
  8
0
 62
     0
100
AcDbLine
 10
-481.499962385762
 20
-730.1938423477077
 30
0.0
 11
424.4275842855731
 21
-298.8000000000002
 31
0.0
  0
LINE
  5
297D
330
2BEC
100
AcDbEntity
  8
0
 62
     0
100
AcDbLine
 10
403.4276745485802
 20
-298.8000000000002
 30
0.0
 11
481.4999995189973
 21
-261.6227220004985
 31
0.0
  0
LINE
  5
297E
330
2BEC
100
AcDbEntity
  8
0
 62
     0
100
AcDbLine
 10
-481.499962385762
 20
-720.1938906035721
 30
0.0
 11
403.4276745485802
 21
-298.8000000000002
 31
0.0
  0
LINE
  5
297F
330
2BEC
100
AcDbEntity
  8
0
 62
     0
100
AcDbLine
 10
382.4277648115895
 20
-298.8000000000002
 30
0.0
 11
481.4999995189973
 21
-251.6227702563629
 31
0.0
  0
LINE
  5
2980
330
2BEC
100
AcDbEntity
  8
0
 62
     0
100
AcDbLine
 10
-481.499962385762
 20
-710.1939388594374
 30
0.0
 11
382.4277648115895
 21
-298.8000000000002
 31
0.0
  0
LINE
  5
2981
330
2BEC
100
AcDbEntity
  8
0
 62
     0
100
AcDbLine
 10
361.4278550745985
 20
-298.8000000000011
 30
0.0
 11
481.4999995189953
 21
-241.6228185122299
 31
0.0
  0
LINE
  5
2982
330
2BEC
100
AcDbEntity
  8
0
 62
     0
100
AcDbLine
 10
-481.4999623857636
 20
-700.1939871153036
 30
0.0
 11
361.4278550745985
 21
-298.8000000000011
 31
0.0
  0
LINE
  5
2983
330
2BEC
100
AcDbEntity
  8
0
 62
     0
100
AcDbLine
 10
340.4279453376076
 20
-298.8000000000011
 30
0.0
 11
481.4999995189991
 21
-231.6228667680944
 31
0.0
  0
LINE
  5
2984
330
2BEC
100
AcDbEntity
  8
0
 62
     0
100
AcDbLine
 10
-481.499962385762
 20
-690.1940353711689
 30
0.0
 11
340.4279453376076
 21
-298.8000000000011
 31
0.0
  0
LINE
  5
2985
330
2BEC
100
AcDbEntity
  8
0
 62
     0
100
AcDbLine
 10
319.4280356006202
 20
-298.8000000000002
 30
0.0
 11
481.4999995189991
 21
-221.6229150239605
 31
0.0
  0
LINE
  5
2986
330
2BEC
100
AcDbEntity
  8
0
 62
     0
100
AcDbLine
 10
-481.499962385762
 20
-680.1940836270341
 30
0.0
 11
319.4280356006202
 21
-298.8000000000002
 31
0.0
  0
LINE
  5
2987
330
2BEC
100
AcDbEntity
  8
0
 62
     0
100
AcDbLine
 10
298.4281258636274
 20
-298.8000000000002
 30
0.0
 11
481.4999995189991
 21
-211.6229632798258
 31
0.0
  0
LINE
  5
2988
330
2BEC
100
AcDbEntity
  8
0
 62
     0
100
AcDbLine
 10
-481.499962385762
 20
-670.1941318828994
 30
0.0
 11
298.4281258636274
 21
-298.8000000000002
 31
0.0
  0
LINE
  5
2989
330
2BEC
100
AcDbEntity
  8
0
 62
     0
100
AcDbLine
 10
277.4282161266383
 20
-298.7999999999992
 30
0.0
 11
481.4999995189991
 21
-201.6230115356911
 31
0.0
  0
LINE
  5
298A
330
2BEC
100
AcDbEntity
  8
0
 62
     0
100
AcDbLine
 10
-481.49996238576
 20
-660.1941801387647
 30
0.0
 11
277.4282161266383
 21
-298.7999999999992
 31
0.0
  0
LINE
  5
298B
330
2BEC
100
AcDbEntity
  8
0
 62
     0
100
AcDbLine
 10
265.6999995189999
 20
-294.3849103619415
 30
0.0
 11
481.4999995189991
 21
-191.6230597915573
 31
0.0
  0
LINE
  5
298C
330
2BEC
100
AcDbEntity
  8
0
 62
     0
100
AcDbLine
 10
-481.499962385762
 20
-650.1942283946309
 30
0.0
 11
265.6999995189999
 21
-294.3849103619415
 31
0.0
  0
LINE
  5
298D
330
2BEC
100
AcDbEntity
  8
0
 62
     0
100
AcDbLine
 10
265.6999995189981
 20
-284.3849586178076
 30
0.0
 11
481.4999995189973
 21
-181.6231080474224
 31
0.0
  0
LINE
  5
298E
330
2BEC
100
AcDbEntity
  8
0
 62
     0
100
AcDbLine
 10
-481.499962385762
 20
-640.1942766504962
 30
0.0
 11
265.6999995189981
 21
-284.3849586178076
 31
0.0
  0
LINE
  5
298F
330
2BEC
100
AcDbEntity
  8
0
 62
     0
100
AcDbLine
 10
265.6999995189981
 20
-274.3850068736729
 30
0.0
 11
481.4999995189991
 21
-171.623156303287
 31
0.0
  0
LINE
  5
2990
330
2BEC
100
AcDbEntity
  8
0
 62
     0
100
AcDbLine
 10
-481.4999623857636
 20
-630.1943249063616
 30
0.0
 11
265.6999995189981
 21
-274.3850068736729
 31
0.0
  0
LINE
  5
2991
330
2BEC
100
AcDbEntity
  8
0
 62
     0
100
AcDbLine
 10
265.6999995189999
 20
-264.3850551295383
 30
0.0
 11
481.4999995189991
 21
-161.6232045591541
 31
0.0
  0
LINE
  5
2992
330
2BEC
100
AcDbEntity
  8
0
 62
     0
100
AcDbLine
 10
-481.499962385762
 20
-620.1943731622277
 30
0.0
 11
265.6999995189999
 21
-264.3850551295383
 31
0.0
  0
LINE
  5
2993
330
2BEC
100
AcDbEntity
  8
0
 62
     0
100
AcDbLine
 10
265.6999995189981
 20
-254.3851033854044
 30
0.0
 11
481.4999995189991
 21
-151.6232528150185
 31
0.0
  0
LINE
  5
2994
330
2BEC
100
AcDbEntity
  8
0
 62
     0
100
AcDbLine
 10
-481.499962385762
 20
-610.194421418093
 30
0.0
 11
265.6999995189981
 21
-254.3851033854044
 31
0.0
  0
LINE
  5
2995
330
2BEC
100
AcDbEntity
  8
0
 62
     0
100
AcDbLine
 10
265.6999995189999
 20
-244.3851516412697
 30
0.0
 11
481.4999995189991
 21
-141.6233010708847
 31
0.0
  0
LINE
  5
2996
330
2BEC
100
AcDbEntity
  8
0
 62
     0
100
AcDbLine
 10
-481.4999623857636
 20
-600.1944696739592
 30
0.0
 11
265.6999995189999
 21
-244.3851516412697
 31
0.0
  0
LINE
  5
2997
330
2BEC
100
AcDbEntity
  8
0
 62
     0
100
AcDbLine
 10
265.6999995189999
 20
-234.3851998971349
 30
0.0
 11
481.4999995189991
 21
-131.62334932675
 31
0.0
  0
LINE
  5
2998
330
2BEC
100
AcDbEntity
  8
0
 62
     0
100
AcDbLine
 10
-481.49996238576
 20
-590.1945179298245
 30
0.0
 11
265.6999995189999
 21
-234.3851998971349
 31
0.0
  0
LINE
  5
2999
330
2BEC
100
AcDbEntity
  8
0
 62
     0
100
AcDbLine
 10
265.6999995189999
 20
-224.3852481530002
 30
0.0
 11
481.4999995189991
 21
-121.6233975826153
 31
0.0
  0
LINE
  5
299A
330
2BEC
100
AcDbEntity
  8
0
 62
     0
100
AcDbLine
 10
-481.499962385762
 20
-580.1945661856896
 30
0.0
 11
265.6999995189999
 21
-224.3852481530002
 31
0.0
  0
LINE
  5
299B
330
2BEC
100
AcDbEntity
  8
0
 62
     0
100
AcDbLine
 10
265.6999995189981
 20
-214.3852964088665
 30
0.0
 11
481.4999995189991
 21
-111.6234458384815
 31
0.0
  0
LINE
  5
299C
330
2BEC
100
AcDbEntity
  8
0
 62
     0
100
AcDbLine
 10
-481.499962385762
 20
-570.194614441556
 30
0.0
 11
265.6999995189981
 21
-214.3852964088665
 31
0.0
  0
LINE
  5
299D
330
2BEC
100
AcDbEntity
  8
0
 62
     0
100
AcDbLine
 10
265.6999995189981
 20
-204.3853446647318
 30
0.0
 11
474.4093333778619
 21
-105.0
 31
0.0
  0
LINE
  5
299E
330
2BEC
100
AcDbEntity
  8
0
 62
     0
100
AcDbLine
 10
-481.499962385762
 20
-560.1946626974211
 30
0.0
 11
265.6999995189981
 21
-204.3853446647318
 31
0.0
  0
LINE
  5
299F
330
2BEC
100
AcDbEntity
  8
0
 62
     0
100
AcDbLine
 10
265.6999995189999
 20
-194.385392920597
 30
0.0
 11
453.4094236408744
 21
-104.9999999999991
 31
0.0
  0
LINE
  5
29A0
330
2BEC
100
AcDbEntity
  8
0
 62
     0
100
AcDbLine
 10
-481.499962385762
 20
-550.1947109532866
 30
0.0
 11
265.6999995189999
 21
-194.385392920597
 31
0.0
  0
LINE
  5
29A1
330
2BEC
100
AcDbEntity
  8
0
 62
     0
100
AcDbLine
 10
265.6999995189981
 20
-184.3854411764632
 30
0.0
 11
432.4095139038816
 21
-104.9999999999991
 31
0.0
  0
LINE
  5
29A2
330
2BEC
100
AcDbEntity
  8
0
 62
     0
100
AcDbLine
 10
-481.499962385762
 20
-540.1947592091528
 30
0.0
 11
265.6999995189981
 21
-184.3854411764632
 31
0.0
  0
LINE
  5
29A3
330
2BEC
100
AcDbEntity
  8
0
 62
     0
100
AcDbLine
 10
265.6999995189999
 20
-174.3854894323274
 30
0.0
 11
411.4096041668908
 21
-104.9999999999991
 31
0.0
  0
LINE
  5
29A4
330
2BEC
100
AcDbEntity
  8
0
 62
     0
100
AcDbLine
 10
-481.4999623857636
 20
-530.1948074650181
 30
0.0
 11
265.6999995189999
 21
-174.3854894323274
 31
0.0
  0
LINE
  5
29A5
330
2BEC
100
AcDbEntity
  8
0
 62
     0
100
AcDbLine
 10
265.6999995189981
 20
-164.3855376881947
 30
0.0
 11
390.4096944298999
 21
-105.0
 31
0.0
  0
LINE
  5
29A6
330
2BEC
100
AcDbEntity
  8
0
 62
     0
100
AcDbLine
 10
-481.499962385762
 20
-520.1948557208843
 30
0.0
 11
265.6999995189981
 21
-164.3855376881947
 31
0.0
  0
LINE
  5
29A7
330
2BEC
100
AcDbEntity
  8
0
 62
     0
100
AcDbLine
 10
265.6999995189999
 20
-154.385585944059
 30
0.0
 11
369.409784692909
 21
-105.0
 31
0.0
  0
LINE
  5
29A8
330
2BEC
100
AcDbEntity
  8
0
 62
     0
100
AcDbLine
 10
-481.499962385762
 20
-510.1949039767496
 30
0.0
 11
265.6999995189999
 21
-154.385585944059
 31
0.0
  0
LINE
  5
29A9
330
2BEC
100
AcDbEntity
  8
0
 62
     0
100
AcDbLine
 10
265.6999995189999
 20
-144.3856341999244
 30
0.0
 11
348.409874955918
 21
-105.0
 31
0.0
  0
LINE
  5
29AA
330
2BEC
100
AcDbEntity
  8
0
 62
     0
100
AcDbLine
 10
-481.499962385762
 20
-500.1949522326139
 30
0.0
 11
265.6999995189999
 21
-144.3856341999244
 31
0.0
  0
LINE
  5
29AB
330
2BEC
100
AcDbEntity
  8
0
 62
     0
100
AcDbLine
 10
265.6999995189999
 20
-134.3856824557906
 30
0.0
 11
327.4099652189271
 21
-105.0000000000009
 31
0.0
  0
LINE
  5
29AC
330
2BEC
100
AcDbEntity
  8
0
 62
     0
100
AcDbLine
 10
-481.499962385762
 20
-490.1950004884811
 30
0.0
 11
265.6999995189999
 21
-134.3856824557906
 31
0.0
  0
LINE
  5
29AD
330
2BEC
100
AcDbEntity
  8
0
 62
     0
100
AcDbLine
 10
265.6999995189999
 20
-124.3857307116559
 30
0.0
 11
306.4100554819361
 21
-105.0000000000009
 31
0.0
  0
LINE
  5
29AE
330
2BEC
100
AcDbEntity
  8
0
 62
     0
100
AcDbLine
 10
-481.499962385762
 20
-480.1950487443455
 30
0.0
 11
265.6999995189999
 21
-124.3857307116559
 31
0.0
  0
LINE
  5
29AF
330
2BEC
100
AcDbEntity
  8
0
 62
     0
100
AcDbLine
 10
265.6999995189981
 20
-114.3857789675221
 30
0.0
 11
285.4101457449432
 21
-105.0000000000018
 31
0.0
  0
LINE
  5
29B0
330
2BEC
100
AcDbEntity
  8
0
 62
     0
100
AcDbLine
 10
-481.499962385762
 20
-470.1950970002116
 30
0.0
 11
265.6999995189981
 21
-114.3857789675221
 31
0.0
  0
LINE
  5
29B1
330
2BEC
100
AcDbEntity
  8
0
 62
     0
100
AcDbLine
 10
-481.4999623857636
 20
-460.1951452560768
 30
0.0
 11
264.4102360079523
 21
-105.0000000000018
 31
0.0
  0
LINE
  5
29B2
330
2BEC
100
AcDbEntity
  8
0
 62
     0
100
AcDbLine
 10
-481.499962385762
 20
-450.1951935119421
 30
0.0
 11
243.4103262709649
 21
-105.0
 31
0.0
  0
LINE
  5
29B3
330
2BEC
100
AcDbEntity
  8
0
 62
     0
100
AcDbLine
 10
-481.499962385762
 20
-440.1952417678085
 30
0.0
 11
222.4104165339741
 21
-105.0000000000009
 31
0.0
  0
LINE
  5
29B4
330
2BEC
100
AcDbEntity
  8
0
 62
     0
100
AcDbLine
 10
-481.499962385762
 20
-430.1952900236726
 30
0.0
 11
201.4105067969813
 21
-105.0
 31
0.0
  0
LINE
  5
29B5
330
2BEC
100
AcDbEntity
  8
0
 62
     0
100
AcDbLine
 10
-481.499962385762
 20
-420.1953382795391
 30
0.0
 11
180.4105970599921
 21
-105.0
 31
0.0
  0
LINE
  5
29B6
330
2BEC
100
AcDbEntity
  8
0
 62
     0
100
AcDbLine
 10
-481.499962385762
 20
-410.1953865354042
 30
0.0
 11
159.4106873230012
 21
-105.0000000000009
 31
0.0
  0
LINE
  5
29B7
330
2BEC
100
AcDbEntity
  8
0
 62
     0
100
AcDbLine
 10
-481.499962385762
 20
-400.1954347912697
 30
0.0
 11
138.4107775860084
 21
-105.0000000000009
 31
0.0
  0
LINE
  5
29B8
330
2BEC
100
AcDbEntity
  8
0
 62
     0
100
AcDbLine
 10
-481.499962385762
 20
-390.195483047136
 30
0.0
 11
117.4108678490174
 21
-105.0000000000009
 31
0.0
  0
LINE
  5
29B9
330
2BEC
100
AcDbEntity
  8
0
 62
     0
100
AcDbLine
 10
-481.499962385762
 20
-380.1955313030021
 30
0.0
 11
96.41095811203015
 21
-105.0
 31
0.0
  0
LINE
  5
29BA
330
2BEC
100
AcDbEntity
  8
0
 62
     0
100
AcDbLine
 10
-481.499962385762
 20
-370.1955795588673
 30
0.0
 11
75.41104837503917
 21
-105.0
 31
0.0
  0
LINE
  5
29BB
330
2BEC
100
AcDbEntity
  8
0
 62
     0
100
AcDbLine
 10
-481.4999623857636
 20
-360.1956278147337
 30
0.0
 11
54.41113863804639
 21
-105.0000000000009
 31
0.0
  0
LINE
  5
29BC
330
2BEC
100
AcDbEntity
  8
0
 62
     0
100
AcDbLine
 10
-481.499962385762
 20
-350.1956760705989
 30
0.0
 11
33.41122890105725
 21
-105.0000000000009
 31
0.0
  0
LINE
  5
29BD
330
2BEC
100
AcDbEntity
  8
0
 62
     0
100
AcDbLine
 10
-481.49996238576
 20
-340.1957243264632
 30
0.0
 11
12.4113191640663
 21
-105.0000000000009
 31
0.0
  0
LINE
  5
29BE
330
2BEC
100
AcDbEntity
  8
0
 62
     0
100
AcDbLine
 10
-481.499962385762
 20
-330.1957725823295
 30
0.0
 11
-8.588590572926474
 21
-105.0000000000018
 31
0.0
  0
LINE
  5
29BF
330
2BEC
100
AcDbEntity
  8
0
 62
     0
100
AcDbLine
 10
-481.49996238576
 20
-320.1958208381948
 30
0.0
 11
-29.58850030991562
 21
-105.0000000000009
 31
0.0
  0
LINE
  5
29C0
330
2BEC
100
AcDbEntity
  8
0
 62
     0
100
AcDbLine
 10
-481.499962385762
 20
-310.1958690940609
 30
0.0
 11
-50.58841004690474
 21
-105.0000000000009
 31
0.0
  0
LINE
  5
29C1
330
2BEC
100
AcDbEntity
  8
0
 62
     0
100
AcDbLine
 10
-481.499962385762
 20
-300.1959173499263
 30
0.0
 11
-71.5883197838957
 21
-105.0000000000009
 31
0.0
  0
LINE
  5
29C2
330
2BEC
100
AcDbEntity
  8
0
 62
     0
100
AcDbLine
 10
-481.499962385762
 20
-290.1959656057916
 30
0.0
 11
-92.58822952088847
 21
-105.0
 31
0.0
  0
LINE
  5
29C3
330
2BEC
100
AcDbEntity
  8
0
 62
     0
100
AcDbLine
 10
-481.499962385762
 20
-280.1960138616578
 30
0.0
 11
-113.5881392578776
 21
-105.0000000000009
 31
0.0
  0
LINE
  5
29C4
330
2BEC
100
AcDbEntity
  8
0
 62
     0
100
AcDbLine
 10
-481.499962385762
 20
-270.1960621175232
 30
0.0
 11
-134.5880489948704
 21
-105.0000000000009
 31
0.0
  0
LINE
  5
29C5
330
2BEC
100
AcDbEntity
  8
0
 62
     0
100
AcDbLine
 10
-481.4999623857636
 20
-260.1961103733893
 30
0.0
 11
-155.5879587318614
 21
-105.0000000000018
 31
0.0
  0
LINE
  5
29C6
330
2BEC
100
AcDbEntity
  8
0
 62
     0
100
AcDbLine
 10
-481.49996238576
 20
-250.1961586292537
 30
0.0
 11
-176.5878684688505
 21
-105.0000000000018
 31
0.0
  0
LINE
  5
29C7
330
2BEC
100
AcDbEntity
  8
0
 62
     0
100
AcDbLine
 10
-481.499962385762
 20
-240.1962068851199
 30
0.0
 11
-197.5877782058396
 21
-105.0
 31
0.0
  0
LINE
  5
29C8
330
2BEC
100
AcDbEntity
  8
0
 62
     0
100
AcDbLine
 10
-481.499962385762
 20
-230.1962551409843
 30
0.0
 11
-218.5876879428306
 21
-105.0
 31
0.0
  0
LINE
  5
29C9
330
2BEC
100
AcDbEntity
  8
0
 62
     0
100
AcDbLine
 10
-481.499962385762
 20
-220.1963033968505
 30
0.0
 11
-239.5875976798234
 21
-105.0000000000009
 31
0.0
  0
LINE
  5
29CA
330
2BEC
100
AcDbEntity
  8
0
 62
     0
100
AcDbLine
 10
-481.499962385762
 20
-210.1963516527157
 30
0.0
 11
-260.5875074168125
 21
-105.0000000000009
 31
0.0
  0
LINE
  5
29CB
330
2BEC
100
AcDbEntity
  8
0
 62
     0
100
AcDbLine
 10
-481.499962385762
 20
-200.1963999085819
 30
0.0
 11
-281.5874171538052
 21
-105.0000000000018
 31
0.0
  0
LINE
  5
29CC
330
2BEC
100
AcDbEntity
  8
0
 62
     0
100
AcDbLine
 10
-481.499962385762
 20
-190.1964481644471
 30
0.0
 11
-302.5873268907962
 21
-105.0000000000018
 31
0.0
  0
LINE
  5
29CD
330
2BEC
100
AcDbEntity
  8
0
 62
     0
100
AcDbLine
 10
-481.499962385762
 20
-180.1964964203124
 30
0.0
 11
-323.5872366277836
 21
-105.0
 31
0.0
  0
LINE
  5
29CE
330
2BEC
100
AcDbEntity
  8
0
 62
     0
100
AcDbLine
 10
-481.499962385762
 20
-170.1965446761787
 30
0.0
 11
-344.5871463647744
 21
-105.0000000000009
 31
0.0
  0
LINE
  5
29CF
330
2BEC
100
AcDbEntity
  8
0
 62
     0
100
AcDbLine
 10
-481.499962385762
 20
-160.196592932044
 30
0.0
 11
-365.5870561017674
 21
-105.0
 31
0.0
  0
LINE
  5
29D0
330
2BEC
100
AcDbEntity
  8
0
 62
     0
100
AcDbLine
 10
-481.4999623857636
 20
-150.1966411879111
 30
0.0
 11
-386.5869658387583
 21
-105.0000000000009
 31
0.0
  0
LINE
  5
29D1
330
2BEC
100
AcDbEntity
  8
0
 62
     0
100
AcDbLine
 10
-481.499962385762
 20
-140.1966894437755
 30
0.0
 11
-407.5868755757474
 21
-105.0000000000009
 31
0.0
  0
LINE
  5
29D2
330
2BEC
100
AcDbEntity
  8
0
 62
     0
100
AcDbLine
 10
-481.499962385762
 20
-130.1967376996407
 30
0.0
 11
-428.5867853127402
 21
-105.0000000000009
 31
0.0
  0
LINE
  5
29D3
330
2BEC
100
AcDbEntity
  8
0
 62
     0
100
AcDbLine
 10
-481.499962385762
 20
-120.196785955507
 30
0.0
 11
-449.5866950497311
 21
-105.0000000000018
 31
0.0
  0
LINE
  5
29D4
330
2BEC
100
AcDbEntity
  8
0
 62
     0
100
AcDbLine
 10
-481.499962385762
 20
-110.1968342113723
 30
0.0
 11
-470.5866047867184
 21
-105.0
 31
0.0
  0
ENDBLK
  5
29D5
330
2BEC
100
AcDbEntity
  8
0
100
AcDbBlockEnd
  0
ENDSEC
  0
SECTION
  2
ENTITIES
  0
TEXT
  5
953
330
2B14
100
AcDbEntity
  8
OUTLINE
  6
Continuous
 62
     3
100
AcDbText
 10
-418.231467
 20
13.715189
 30
0.0
 40
64.0
  1
 
 41
0.9
100
AcDbText
  0
TEXT
  5
954
330
2B14
100
AcDbEntity
  8
OUTLINE
  6
Continuous
 62
     3
100
AcDbText
 10
-418.231467
 20
13.715189
 30
0.0
 40
64.0
  1
 
 41
0.9
100
AcDbText
  0
TEXT
  5
955
330
2B14
100
AcDbEntity
  8
OUTLINE
  6
Continuous
 62
     3
100
AcDbText
 10
1341.41903
 20
-706.0588199999997
 30
0.0
 40
64.0
  1
 
 41
0.9
100
AcDbText
  0
TEXT
  5
956
330
2B14
100
AcDbEntity
  8
OUTLINE
  6
Continuous
 62
     3
100
AcDbText
 10
1341.41903
 20
-706.0588199999997
 30
0.0
 40
64.0
  1
 
 41
0.9
100
AcDbText
  0
TEXT
  5
957
330
2B14
100
AcDbEntity
  8
OUTLINE
  6
Continuous
 62
     3
100
AcDbText
 10
1341.41903
 20
-706.0588199999997
 30
0.0
 40
64.0
  1
 
 41
0.9
100
AcDbText
  0
TEXT
  5
958
330
2B14
100
AcDbEntity
  8
OUTLINE
  6
Continuous
 62
     3
100
AcDbText
 10
1341.41903
 20
-706.0588199999997
 30
0.0
 40
64.0
  1
 
 41
0.9
100
AcDbText
  0
TEXT
  5
2A24
330
2B14
100
AcDbEntity
  8
ETC
100
AcDbText
 10
694.369008528738
 20
286.5987089571336
 30
0.0
 40
64.0
  1
システム部材
 41
0.9
100
AcDbText
  0
TEXT
  5
2A25
330
2B14
100
AcDbEntity
  8
ETC
100
AcDbText
 10
700.5770065287379
 20
387.4820349571328
 30
0.0
 40
64.0
  1
W-95SA-A_6
 41
0.9
100
AcDbText
  0
TEXT
  5
2A26
330
2B14
100
AcDbEntity
  8
ETC
100
AcDbText
 10
700.5770065287379
 20
187.4820349571328
 30
0.0
 40
64.0
  1
W-95SA-A
 41
0.9
100
AcDbText
  0
CIRCLE
  5
2A27
330
2B14
100
AcDbEntity
  8
ARRANGE
100
AcDbCircle
 10
-0.0000004810008249
 20
0.0
 30
0.0
 40
40.0
  0
LINE
  5
2A28
330
2B14
100
AcDbEntity
  8
BASIS
100
AcDbLine
 10
-0.0000004810008249
 20
25.0
 30
0.0
 11
0.0000185666194739
 21
-965.0000000000003
 31
0.0
  0
LINE
  5
2A29
330
2B14
100
AcDbEntity
  8
DETAIL
100
AcDbLine
 39
50.0
 10
-516.4999623857625
 20
-940.0000000000003
 30
0.0
 11
516.499999518999
 21
-939.9999999999991
 31
0.0
  0
LINE
  5
2A2A
330
2B14
100
AcDbEntity
  8
DETAIL
100
AcDbLine
 39
50.0
 10
-516.4999623857625
 20
-1.5
 30
0.0
 11
-516.4999623857625
 21
-940.0000000000003
 31
0.0
  0
LINE
  5
2A2B
330
2B14
100
AcDbEntity
  8
DETAIL
100
AcDbLine
 39
50.0
 10
-555.0000004810011
 20
0.0
 30
0.0
 11
-555.0000004810011
 21
-1.5
 31
0.0
  0
LINE
  5
2A2C
330
2B14
100
AcDbEntity
  8
DETAIL
100
AcDbLine
 39
50.0
 10
516.499999518999
 20
-1.5
 30
0.0
 11
516.499999518999
 21
-940.0000000000003
 31
0.0
  0
LINE
  5
2A2D
330
2B14
100
AcDbEntity
  8
DETAIL
100
AcDbLine
 39
50.0
 10
554.999999518999
 20
-1.5
 30
0.0
 11
554.999999518999
 21
0.0
 31
0.0
  0
LINE
  5
2A2E
330
2B14
100
AcDbEntity
  8
DETAIL
100
AcDbLine
 39
50.0
 10
-481.499962385762
 20
-904.9999999999991
 30
0.0
 11
481.4999995189991
 21
-904.9999999999991
 31
0.0
  0
LINE
  5
2A2F
330
2B14
100
AcDbEntity
  8
DETAIL
100
AcDbLine
 39
50.0
 10
481.4999995189991
 20
-105.0
 30
0.0
 11
481.4999995189991
 21
-904.9999999999991
 31
0.0
  0
LINE
  5
2A30
330
2B14
100
AcDbEntity
  8
DETAIL
100
AcDbLine
 39
50.0
 10
-481.499962385762
 20
-105.0
 30
0.0
 11
-481.499962385762
 21
-904.9999999999991
 31
0.0
  0
LINE
  5
2A31
330
2B14
100
AcDbEntity
  8
DETAIL
100
AcDbLine
 10
554.999999518999
 20
0.0
 30
0.0
 11
-555.0000004810011
 21
0.0
 31
0.0
  0
LINE
  5
2A32
330
2B14
100
AcDbEntity
  8
DETAIL
100
AcDbLine
 10
554.999999518999
 20
-1.5
 30
0.0
 11
-555.0000004810011
 21
-1.5
 31
0.0
  0
LINE
  5
2A33
330
2B14
100
AcDbEntity
  8
DETAIL
100
AcDbLine
 10
516.499999518999
 20
-40.0
 30
0.0
 11
-516.4999623857625
 21
-40.0
 31
0.0
  0
LINE
  5
2A34
330
2B14
100
AcDbEntity
  8
DETAIL
100
AcDbLine
 10
481.4999995189991
 20
-105.0
 30
0.0
 11
-481.499962385762
 21
-105.0
 31
0.0
  0
LINE
  5
2A35
330
2B14
100
AcDbEntity
  8
NOTE
100
AcDbLine
 10
-530.0000004810011
 20
12.49998387920823
 30
0.0
 11
-530.0000004810011
 21
-12.49998387920914
 31
0.0
  0
LINE
  5
2A36
330
2B14
100
AcDbEntity
  8
DETAIL
100
AcDbLine
 10
516.499999518999
 20
-240.0
 30
0.0
 11
516.499999518999
 21
-1.5
 31
0.0
  0
LINE
  5
2A37
330
2B14
100
AcDbEntity
  8
NOTE
100
AcDbLine
 10
529.999999518999
 20
12.49998387920823
 30
0.0
 11
529.999999518999
 21
-12.49998387920914
 31
0.0
  0
POINT
  5
2A38
330
2B14
100
AcDbEntity
  8
ARRANGE
100
AcDbPoint
 10
-0.0000004810008249
 20
0.0
 30
0.0
 39
50.0
  0
LINE
  5
2A39
330
2B14
100
AcDbEntity
  8
DETAIL
100
AcDbLine
 10
516.499999518999
 20
-70.0
 30
0.0
 11
-516.4999623857625
 21
-70.0
 31
0.0
  0
INSERT
  5
2A3A
330
2B14
100
AcDbEntity
  8
0
100
AcDbBlockReference
  2
*U68
 10
-0.0000000000009095
 20
0.0
 30
0.0
1001
ACAD
1000
DSTYLE
1002
{
1070
    41
1040
12.0
1070
    42
1040
20.0
1070
    43
1040
200.0
1070
    44
1040
20.0
1070
    73
1070
     0
1070
    74
1070
     0
1070
    77
1070
     1
1070
    78
1070
     8
1070
   140
1040
64.0
1070
   147
1040
50.0
1070
   172
1070
     1
1070
   174
1070
     1
1070
   275
1070
     0
1070
   284
1070
     0
1070
   285
1070
     0
1070
   286
1070
     0
1070
   341
1005
0
1070
   342
1005
0
1002
}
  0
INSERT
  5
2A3B
330
2B14
100
AcDbEntity
  8
0
100
AcDbBlockReference
  2
*U69
 10
-0.0000000000009095
 20
0.0
 30
0.0
  0
LINE
  5
2A3C
330
2B14
100
AcDbEntity
  8
NOTE
100
AcDbLine
 39
50.0
 10
517.499999518999
 20
-0.0000000000009095
 30
0.0
 11
542.499999518999
 21
-0.0000000000009095
 31
0.0
  0
LINE
  5
2A3D
330
2B14
100
AcDbEntity
  8
NOTE
100
AcDbLine
 39
50.0
 10
-542.5000004810011
 20
-0.0000000000009095
 30
0.0
 11
-517.5000004810011
 21
-0.0000000000009095
 31
0.0
  0
LINE
  5
2A3E
330
2B14
100
AcDbEntity
  8
OUTLINE
100
AcDbLine
 39
50.0
 10
-555.0000004810011
 20
0.0
 30
0.0
 11
554.999999518999
 21
0.0
 31
0.0
  0
LINE
  5
2A3F
330
2B14
100
AcDbEntity
  8
OUTLINE
100
AcDbLine
 39
50.0
 10
-516.4999623857625
 20
-940.0000000000003
 30
0.0
 11
516.499999518999
 21
-939.9999999999991
 31
0.0
  0
LINE
  5
2A40
330
2B14
100
AcDbEntity
  8
OUTLINE
100
AcDbLine
 39
50.0
 10
-516.4999623857625
 20
-1.5
 30
0.0
 11
-516.4999623857625
 21
-940.0000000000003
 31
0.0
  0
LINE
  5
2A41
330
2B14
100
AcDbEntity
  8
OUTLINE
100
AcDbLine
 39
50.0
 10
-555.0000004810011
 20
0.0
 30
0.0
 11
-555.0000004810011
 21
-1.5
 31
0.0
  0
LINE
  5
2A42
330
2B14
100
AcDbEntity
  8
OUTLINE
100
AcDbLine
 39
50.0
 10
516.499999518999
 20
-1.5
 30
0.0
 11
516.499999518999
 21
-940.0000000000003
 31
0.0
  0
LINE
  5
2A43
330
2B14
100
AcDbEntity
  8
OUTLINE
100
AcDbLine
 39
50.0
 10
554.999999518999
 20
-1.5
 30
0.0
 11
554.999999518999
 21
0.0
 31
0.0
  0
LINE
  5
2A44
330
2B14
100
AcDbEntity
  8
OUTLINE
100
AcDbLine
 10
554.999999518999
 20
-1.5
 30
0.0
 11
-555.0000004810011
 21
-1.5
 31
0.0
  0
LINE
  5
2A45
330
2B14
100
AcDbEntity
  8
OUTLINE
100
AcDbLine
 10
516.499999518999
 20
-40.0
 30
0.0
 11
-516.4999623857625
 21
-40.0
 31
0.0
  0
LINE
  5
2A46
330
2B14
100
AcDbEntity
  8
OUTLINE
100
AcDbLine
 10
516.499999518999
 20
-240.0
 30
0.0
 11
516.499999518999
 21
-1.5
 31
0.0
  0
LINE
  5
2A47
330
2B14
100
AcDbEntity
  8
OUTLINE
100
AcDbLine
 10
516.499999518999
 20
-70.0
 30
0.0
 11
-516.4999623857625
 21
-70.0
 31
0.0
  0
INSERT
  5
2A48
330
2B14
100
AcDbEntity
  8
DETAIL
100
AcDbBlockReference
  2
*X70
 10
-0.0000000000009095
 20
0.0
 30
0.0
1001
ACADANNOTATIVE
1000
AnnotativeData
1002
{
1070
     1
1070
     0
1002
}
1001
ACAD
1000
HATCH
1002
{
1070
    19
1000
LINE
1040
72.22849999999998
1040
5.838766301980095
1000
R14_HATCH_DATA
1000
8A3C
1011
0.9999999999990903
1021
0.0
1031
0.0
1011
-0.0000000000009095
1021
1.0
1031
0.0
1011
-0.0000000000009095
1021
0.0
1031
1.0
1040
0.0
1010
0.0
1020
0.0
1030
1.0
1000
LINE
1070
     0
1070
     0
1071
        2
1071
        7
1070
     0
1070
     1
1071
        6
1040
481.4999995189996
1040
-298.8000000000002
1040
265.6999995190004
1040
-298.8000000000002
1040
265.6999995190004
1040
-105.0
1040
-481.4999623857614
1040
-105.0
1040
-481.4999623857634
1040
-904.9999999999991
1040
481.4999995189996
1040
-904.9999999999991
1071
        0
1071
        7
1070
     0
1070
     1
1071
        4
1040
481.4999995189976
1040
-298.8000000000011
1040
481.4999995189976
1040
-104.9999999999991
1040
265.6999995190004
1040
-105.0000000000018
1040
265.6999995190022
1040
-298.8000000000002
1071
        0
1070
     0
1070
     1
1040
5.838766301980095
1040
72.22849999999998
1070
     0
1070
     1
1040
5.838766301980095
1040
14411.58702595704
1040
5521.7526561303
1040
3.881680532789153
1040
8.151533417570705
1070
     0
1040
1.548602290151376
1071
        2
1040
30.17882102781596
1040
-352.0368482288804
1040
0.0
1040
379.8751659960967
1040
-221.7013186024042
1040
0.0
1002
}
  0
INSERT
  5
2A49
330
2B14
100
AcDbEntity
  8
DETAIL
100
AcDbBlockReference
  2
*X71
 10
-0.0000000000009095
 20
0.0
 30
0.0
1001
ACADANNOTATIVE
1000
AnnotativeData
1002
{
1070
     1
1070
     0
1002
}
1001
ACAD
1000
HATCH
1002
{
1070
    19
1000
LINE
1040
72.22849999999998
1040
0.4444190051994897
1000
R14_HATCH_DATA
1000
8A42
1011
0.9999999999990903
1021
0.0
1031
0.0
1011
-0.0000000000009095
1021
1.0
1031
0.0
1011
-0.0000000000009095
1021
0.0
1031
1.0
1040
0.0
1010
0.0
1020
0.0
1030
1.0
1000
LINE
1070
     0
1070
     0
1071
        2
1071
        7
1070
     0
1070
     1
1071
        6
1040
481.4999995189996
1040
-298.8000000000002
1040
265.6999995190004
1040
-298.8000000000002
1040
265.6999995190004
1040
-105.0
1040
-481.4999623857614
1040
-105.0
1040
-481.4999623857634
1040
-904.9999999999991
1040
481.4999995189996
1040
-904.9999999999991
1071
        0
1071
        7
1070
     0
1070
     1
1071
        4
1040
481.4999995189996
1040
-104.9999999999991
1040
265.6999995190004
1040
-105.0
1040
265.6999995190004
1040
-298.8000000000002
1040
481.4999995189976
1040
-298.8000000000002
1071
        0
1070
     0
1070
     1
1040
0.4444190051994897
1040
72.22849999999998
1070
     0
1070
     1
1040
0.4444190051994897
1040
14411.58702595704
1040
5521.7526561303
1040
-3.881680532789157
1040
8.151533417570702
1070
     0
1040
1.518757832987297
1071
        2
1040
-19.19899337968809
1040
-345.895132867151
1040
0.0
1040
404.8675568310704
1040
-221.3238295722176
1040
0.0
1002
}
  0
LINE
  5
2A4A
330
2B14
100
AcDbEntity
  8
DETAIL
100
AcDbLine
 39
50.0
 10
-481.499962385762
 20
-904.9999999999991
 30
0.0
 11
481.4999995189991
 21
-904.9999999999991
 31
0.0
  0
LINE
  5
2A4B
330
2B14
100
AcDbEntity
  8
DETAIL
100
AcDbLine
 39
50.0
 10
481.4999995189991
 20
-105.0
 30
0.0
 11
481.4999995189991
 21
-904.9999999999991
 31
0.0
  0
LINE
  5
2A4C
330
2B14
100
AcDbEntity
  8
DETAIL
100
AcDbLine
 39
50.0
 10
-481.499962385762
 20
-105.0
 30
0.0
 11
-481.499962385762
 21
-904.9999999999991
 31
0.0
  0
LINE
  5
2A4D
330
2B14
100
AcDbEntity
  8
DETAIL
100
AcDbLine
 10
481.4999995189991
 20
-105.0
 30
0.0
 11
-481.499962385762
 21
-105.0
 31
0.0
  0
LINE
  5
2A4E
330
2B14
100
AcDbEntity
  8
SIZE
100
AcDbLine
 10
554.999999518999
 20
20.0
 30
0.0
 11
554.999999518999
 21
298.8865929365175
 31
0.0
  0
LINE
  5
2A4F
330
2B14
100
AcDbEntity
  8
SIZE
100
AcDbLine
 10
-555.0000004810011
 20
20.0
 30
0.0
 11
-555.0000004810011
 21
298.8865929365175
 31
0.0
  0
LINE
  5
2A50
330
2B14
100
AcDbEntity
  8
SIZE
100
AcDbLine
 10
542.9999995189992
 20
278.8865929365174
 30
0.0
 11
-543.0000004810011
 21
278.8865929365174
 31
0.0
  0
INSERT
  5
2A51
330
2B14
100
AcDbEntity
  8
SIZE
100
AcDbBlockReference
  2
_DOTBLANK
 10
554.999999518999
 20
278.8865929365174
 30
0.0
 41
12.0
 42
12.0
 43
12.0
  0
INSERT
  5
2A52
330
2B14
100
AcDbEntity
  8
SIZE
100
AcDbBlockReference
  2
_DOTBLANK
 10
-555.0000004810011
 20
278.8865929365174
 30
0.0
 41
12.0
 42
12.0
 43
12.0
 50
180.0
  0
LINE
  5
2A53
330
2B14
100
AcDbEntity
  8
SIZE
100
AcDbLine
 10
529.999999518999
 20
32.49998387920823
 30
0.0
 11
529.999999518999
 21
180.3320910096172
 31
0.0
  0
LINE
  5
2A54
330
2B14
100
AcDbEntity
  8
SIZE
100
AcDbLine
 10
-530.0000004810011
 20
32.49998387920823
 30
0.0
 11
-530.0000004810011
 21
180.3320910096172
 31
0.0
  0
LINE
  5
2A55
330
2B14
100
AcDbEntity
  8
SIZE
100
AcDbLine
 10
517.9999995189992
 20
160.3320910096172
 30
0.0
 11
-518.0000004810011
 21
160.3320910096172
 31
0.0
  0
INSERT
  5
2A56
330
2B14
100
AcDbEntity
  8
SIZE
100
AcDbBlockReference
  2
_DOTBLANK
 10
529.999999518999
 20
160.3320910096172
 30
0.0
 41
12.0
 42
12.0
 43
12.0
  0
INSERT
  5
2A57
330
2B14
100
AcDbEntity
  8
SIZE
100
AcDbBlockReference
  2
_DOTBLANK
 10
-530.0000004810011
 20
160.3320910096172
 30
0.0
 41
12.0
 42
12.0
 43
12.0
 50
180.0
  0
LINE
  5
2A58
330
2B14
100
AcDbEntity
  8
SIZE
100
AcDbLine
 10
-536.4999623857625
 20
-940.0000000000003
 30
0.0
 11
-869.4351197713535
 21
-940.0000000000003
 31
0.0
  0
LINE
  5
2A59
330
2B14
100
AcDbEntity
  8
SIZE
100
AcDbLine
 10
-575.0000004810012
 20
0.0
 30
0.0
 11
-869.4351197713535
 21
0.0
 31
0.0
  0
LINE
  5
2A5A
330
2B14
100
AcDbEntity
  8
SIZE
100
AcDbLine
 10
-849.4351197713536
 20
-928.000000000001
 30
0.0
 11
-849.4351197713536
 21
-12.0
 31
0.0
  0
INSERT
  5
2A5B
330
2B14
100
AcDbEntity
  8
SIZE
100
AcDbBlockReference
  2
_DOTBLANK
 10
-849.4351197713536
 20
-940.0000000000003
 30
0.0
 41
12.0
 42
12.0
 43
12.0
 50
270.0
  0
INSERT
  5
2A5C
330
2B14
100
AcDbEntity
  8
SIZE
100
AcDbBlockReference
  2
_DOTBLANK
 10
-849.4351197713536
 20
0.0
 30
0.0
 41
12.0
 42
12.0
 43
12.0
 50
90.0
  0
LINE
  5
2A5D
330
2B14
100
AcDbEntity
  8
SIZE
100
AcDbLine
 10
516.499999518999
 20
-959.9999999999987
 30
0.0
 11
516.499999518999
 21
-1249.767528434067
 31
0.0
  0
LINE
  5
2A5E
330
2B14
100
AcDbEntity
  8
SIZE
100
AcDbLine
 10
-516.4999623857625
 20
-960.0000000000008
 30
0.0
 11
-516.4999623857625
 21
-1249.767528434067
 31
0.0
  0
LINE
  5
2A5F
330
2B14
100
AcDbEntity
  8
SIZE
100
AcDbLine
 10
504.4999995189982
 20
-1229.767528434067
 30
0.0
 11
-504.4999623857624
 21
-1229.767528434067
 31
0.0
  0
INSERT
  5
2A60
330
2B14
100
AcDbEntity
  8
SIZE
100
AcDbBlockReference
  2
_DOTBLANK
 10
516.499999518999
 20
-1229.767528434067
 30
0.0
 41
12.0
 42
12.0
 43
12.0
  0
INSERT
  5
2A61
330
2B14
100
AcDbEntity
  8
SIZE
100
AcDbBlockReference
  2
_DOTBLANK
 10
-516.4999623857625
 20
-1229.767528434067
 30
0.0
 41
12.0
 42
12.0
 43
12.0
 50
180.0
  0
TEXT
  5
2A62
330
2B14
100
AcDbEntity
  8
SIZE
100
AcDbText
 10
-84.12377190957068
 20
288.8865929365175
 30
0.0
 40
64.0
  1
1110
 41
0.9
100
AcDbText
  0
TEXT
  5
2A63
330
2B14
100
AcDbEntity
  8
SIZE
100
AcDbText
 10
-95.65107811499364
 20
170.3320910096172
 30
0.0
 40
64.0
  1
1060
 41
0.9
100
AcDbText
  0
TEXT
  5
2A64
330
2B14
100
AcDbEntity
  8
SIZE
100
AcDbText
 10
-95.99998143338051
 20
-1219.767528434066
 30
0.0
 40
64.0
  1
1033
 41
0.9
100
AcDbText
  0
TEXT
  5
2A65
330
2B14
100
AcDbEntity
  8
SIZE
100
AcDbText
 10
-859.4351197713534
 20
-544.0571428571428
 30
0.0
 40
64.0
  1
940
 50
90.0
 41
0.9
100
AcDbText
  0
ENDSEC
  0
SECTION
  2
OBJECTS
  0
DICTIONARY
  5
2AAC
330
0
100
AcDbDictionary
281
     1
  3
ACAD_2007HEADERVARS_RT
350
2D00
  3
ACAD_COLOR
350
2B0A
  3
ACAD_GROUP
350
2AAD
  3
ACAD_LAYOUT
350
2B09
  3
ACAD_MATERIAL
350
2AB0
  3
ACAD_MLEADERSTYLE
350
2B0D
  3
ACAD_MLINESTYLE
350
2B06
  3
ACAD_PLOTSETTINGS
350
2B08
  3
ACAD_PLOTSTYLENAME
350
2AAE
  3
ACAD_SCALELIST
350
2ADA
  3
ACAD_TABLESTYLE
350
2B0B
  3
ACAD_VISUALSTYLE
350
2AC9
  3
ACDB_RECOMPOSE_DATA
350
2CFE
  3
AcDbVariableDictionary
350
2CF5
  3
AcmDictionary
350
2CA1
  3
AMG
350
2BEE
  3
AMGSNAPSETTINGS
350
2CC9
  3
DWGPROPS
350
2CFF
  3
MAPISURF_MODULE
350
2C6E
  0
DICTIONARY
  5
2CD0
330
2AFC
100
AcDbDictionary
280
     1
281
     1
  3
ADSK_XREC_LAYER_RECONCILED
360
2CD1
  0
DICTIONARY
  5
2CD2
330
2B2B
100
AcDbDictionary
280
     1
281
     1
  3
ADSK_XREC_LAYER_RECONCILED
360
2CD3
  0
DICTIONARY
  5
2CD4
330
2B2C
100
AcDbDictionary
280
     1
281
     1
  3
ADSK_XREC_LAYER_RECONCILED
360
2CD5
  0
DICTIONARY
  5
2CD6
330
2B2D
100
AcDbDictionary
280
     1
281
     1
  3
ADSK_XREC_LAYER_RECONCILED
360
2CD7
  0
DICTIONARY
  5
2CD8
330
2B2E
100
AcDbDictionary
280
     1
281
     1
  3
ADSK_XREC_LAYER_RECONCILED
360
2CD9
  0
DICTIONARY
  5
2CDA
330
2B2F
100
AcDbDictionary
280
     1
281
     1
  3
ADSK_XREC_LAYER_RECONCILED
360
2CDB
  0
DICTIONARY
  5
2CDC
330
2B31
100
AcDbDictionary
280
     1
281
     1
  3
ADSK_XREC_LAYER_RECONCILED
360
2CDD
  0
DICTIONARY
  5
2CDE
330
2B32
100
AcDbDictionary
280
     1
281
     1
  3
ADSK_XREC_LAYER_RECONCILED
360
2CDF
  0
DICTIONARY
  5
2CE0
330
2B33
100
AcDbDictionary
280
     1
281
     1
  3
ADSK_XREC_LAYER_RECONCILED
360
2CE1
  0
DICTIONARY
  5
2CE2
330
2B34
100
AcDbDictionary
280
     1
281
     1
  3
ADSK_XREC_LAYER_RECONCILED
360
2CE3
  0
DICTIONARY
  5
2CE4
330
2B35
100
AcDbDictionary
280
     1
281
     1
  3
ADSK_XREC_LAYER_RECONCILED
360
2CE5
  0
DICTIONARY
  5
2CE6
330
2B14
100
AcDbDictionary
280
     1
281
     1
  3
ACAD_INDEX
360
2CE7
  0
DICTIONARY
  5
2D00
102
{ACAD_REACTORS
330
2AAC
102
}
330
2AAC
100
AcDbDictionary
281
     1
  3
DIMARCSYM
350
2D01
  3
DIMLTEX1
350
2D03
  3
DIMLTEX2
350
2D04
  3
DIMLTYPE
350
2D02
  0
DICTIONARY
  5
2B0A
102
{ACAD_REACTORS
330
2AAC
102
}
330
2AAC
100
AcDbDictionary
281
     1
  0
DICTIONARY
  5
2AAD
102
{ACAD_REACTORS
330
2AAC
102
}
330
2AAC
100
AcDbDictionary
281
     1
  0
DICTIONARY
  5
2B09
102
{ACAD_REACTORS
330
2AAC
102
}
330
2AAC
100
AcDbDictionary
281
     1
  3
Model
350
2B17
  3
レイアウト1
350
2B13
  0
DICTIONARY
  5
2AB0
102
{ACAD_REACTORS
330
2AAC
102
}
330
2AAC
100
AcDbDictionary
281
     1
  3
ByBlock
350
2AB9
  3
ByLayer
350
2AB1
  3
Global
350
2AC1
  0
DICTIONARY
  5
2B0D
102
{ACAD_REACTORS
330
2AAC
102
}
330
2AAC
100
AcDbDictionary
281
     1
  3
Standard
350
2B0E
  0
DICTIONARY
  5
2B06
102
{ACAD_REACTORS
330
2AAC
102
}
330
2AAC
100
AcDbDictionary
281
     1
  3
Standard
350
2B07
  0
DICTIONARY
  5
2B08
102
{ACAD_REACTORS
330
2AAC
102
}
330
2AAC
100
AcDbDictionary
281
     1
  0
ACDBDICTIONARYWDFLT
  5
2AAE
102
{ACAD_REACTORS
330
2AAC
102
}
330
2AAC
100
AcDbDictionary
281
     1
  3
Normal
350
2AAF
100
AcDbDictionaryWithDefault
340
2AAF
  0
DICTIONARY
  5
2ADA
102
{ACAD_REACTORS
330
2AAC
102
}
330
2AAC
100
AcDbDictionary
281
     1
  3
A0
350
2ADB
  3
A1
350
2ADC
  3
A2
350
2ADD
  3
A3
350
2ADE
  3
A4
350
2ADF
  3
A5
350
2AE0
  3
A6
350
2AE1
  3
A7
350
2AE2
  3
A8
350
2AE3
  3
A9
350
2AE4
  3
B0
350
2AE5
  3
B1
350
2AE6
  3
B2
350
2AE7
  3
B3
350
2AE8
  3
B4
350
2AE9
  3
B5
350
2AEA
  3
B6
350
2AEB
  3
B7
350
2AEC
  3
B8
350
2AED
  3
B9
350
2AEE
  3
C0
350
2AEF
  3
C1
350
2AF0
  3
C2
350
2AF1
  3
C3
350
2AF2
  3
C4
350
2AF3
  3
C5
350
2AF4
  3
C6
350
2AF5
  3
C7
350
2AF6
  3
C8
350
2AF7
  3
C9
350
2AF8
  3
D0
350
2AF9
  3
D1
350
2AFA
  3
D2
350
2AFB
  0
DICTIONARY
  5
2B0B
102
{ACAD_REACTORS
330
2AAC
102
}
330
2AAC
100
AcDbDictionary
281
     1
  3
Standard
350
2B0C
  0
DICTIONARY
  5
2AC9
102
{ACAD_REACTORS
330
2AAC
102
}
330
2AAC
100
AcDbDictionary
281
     1
  3
2dWireframe
350
2ACF
  3
3D Hidden
350
2AD1
  3
3dWireframe
350
2AD0
  3
Basic
350
2ACE
  3
Brighten
350
2AD5
  3
ColorChange
350
2AD9
  3
Conceptual
350
2AD2
  3
Dim
350
2AD4
  3
Facepattern
350
2AD8
  3
Flat
350
2ACA
  3
FlatWithEdges
350
2ACB
  3
Gouraud
350
2ACC
  3
GouraudWithEdges
350
2ACD
  3
Linepattern
350
2AD7
  3
Realistic
350
2AD3
  3
Thicken
350
2AD6
  0
XRECORD
  5
2CFE
102
{ACAD_REACTORS
330
2AAC
102
}
330
2AAC
100
AcDbXrecord
280
     1
 90
        1
330
2B0C
  0
DICTIONARY
  5
2CF5
102
{ACAD_REACTORS
330
2AAC
102
}
330
2AAC
100
AcDbDictionary
281
     1
  3
CANNOSCALE
350
2CF8
  3
CMLEADERSTYLE
350
2CF7
  3
CTABLESTYLE
350
2CF6
  3
DIMASSOC
350
2CFB
  3
INDEXCTL
350
2CFA
  3
SORTENTS
350
2CF9
  0
DICTIONARY
  5
2CA1
102
{ACAD_REACTORS
330
2AAC
102
}
330
2AAC
100
AcDbDictionary
281
     1
  3
AcmStdDictionary
350
2CAF
  0
DICTIONARY
  5
2BEE
102
{ACAD_REACTORS
330
2AAC
102
}
330
2AAC
100
AcDbDictionary
281
     1
  3
AcMgSettings
350
2BEF
  0
DICTIONARY
  5
2CC9
102
{ACAD_REACTORS
330
2AAC
102
}
330
2AAC
100
AcDbDictionary
281
     1
  3
DIMENSION
350
2CCE
  3
FEA
350
2CCD
  3
HATCH (1)
350
2CCA
  3
HATCH (2)
350
2CCB
  3
SIMPLE WELD
350
2CCF
  3
SYMBOLS
350
2CCC
  0
XRECORD
  5
2CFF
102
{ACAD_REACTORS
330
2AAC
102
}
330
2AAC
100
AcDbXrecord
280
     1
  1
DWGPROPS COOKIE
  2

  3

  4

  6

  7

  8
A090053
  9

300
AmdtFileType=84
301
=
302
=
303
=
304
=
305
=
306
=
307
=
308
=
309
=
 40
1.041644189814814
 41
2452321.396199653
 42
2456210.475831586
  1

 90
        1
  0
XRECORD
  5
2CD1
102
{ACAD_REACTORS
330
2CD0
102
}
330
2CD0
100
AcDbXrecord
280
     1
290
     1
  0
XRECORD
  5
2CD3
102
{ACAD_REACTORS
330
2CD2
102
}
330
2CD2
100
AcDbXrecord
280
     1
290
     1
  0
XRECORD
  5
2CD5
102
{ACAD_REACTORS
330
2CD4
102
}
330
2CD4
100
AcDbXrecord
280
     1
290
     1
  0
XRECORD
  5
2CD7
102
{ACAD_REACTORS
330
2CD6
102
}
330
2CD6
100
AcDbXrecord
280
     1
290
     1
  0
XRECORD
  5
2CD9
102
{ACAD_REACTORS
330
2CD8
102
}
330
2CD8
100
AcDbXrecord
280
     1
290
     1
  0
XRECORD
  5
2CDB
102
{ACAD_REACTORS
330
2CDA
102
}
330
2CDA
100
AcDbXrecord
280
     1
290
     1
  0
XRECORD
  5
2CDD
102
{ACAD_REACTORS
330
2CDC
102
}
330
2CDC
100
AcDbXrecord
280
     1
290
     1
  0
XRECORD
  5
2CDF
102
{ACAD_REACTORS
330
2CDE
102
}
330
2CDE
100
AcDbXrecord
280
     1
290
     1
  0
XRECORD
  5
2CE1
102
{ACAD_REACTORS
330
2CE0
102
}
330
2CE0
100
AcDbXrecord
280
     1
290
     1
  0
XRECORD
  5
2CE3
102
{ACAD_REACTORS
330
2CE2
102
}
330
2CE2
100
AcDbXrecord
280
     1
290
     1
  0
XRECORD
  5
2CE5
102
{ACAD_REACTORS
330
2CE4
102
}
330
2CE4
100
AcDbXrecord
280
     1
290
     1
  0
DICTIONARY
  5
2CE7
102
{ACAD_REACTORS
330
2CE6
102
}
330
2CE6
100
AcDbDictionary
281
     1
  3
*A1
350
2CE8
  0
XRECORD
  5
2D01
102
{ACAD_REACTORS
330
2D00
102
}
330
2D00
100
AcDbXrecord
280
     1
 70
     1
  0
XRECORD
  5
2D03
102
{ACAD_REACTORS
330
2D00
102
}
330
2D00
100
AcDbXrecord
280
     1
340
2B02
  0
XRECORD
  5
2D04
102
{ACAD_REACTORS
330
2D00
102
}
330
2D00
100
AcDbXrecord
280
     1
340
2B02
  0
XRECORD
  5
2D02
102
{ACAD_REACTORS
330
2D00
102
}
330
2D00
100
AcDbXrecord
280
     1
340
2B02
  0
LAYOUT
  5
2B17
102
{ACAD_XDICTIONARY
360
2D0B
102
}
102
{ACAD_REACTORS
330
2B09
102
}
330
2B09
100
AcDbPlotSettings
  1

  2
自動 EPSON LP-9600S (W2450527 上)
  4

  6

 40
0.0
 41
0.0
 42
0.0
 43
0.0
 44
0.0
 45
0.0
 46
0.0
 47
0.0
 48
0.0
 49
0.0
140
0.0
141
0.0
142
1.0
143
1.0
 70
  1712
 72
     0
 73
     0
 74
     0
  7

 75
     0
147
1.0
148
0.0
149
0.0
100
AcDbLayout
  1
Model
 70
     1
 71
     0
 10
0.0
 20
0.0
 11
12.0
 21
9.0
 12
0.0
 22
0.0
 32
0.0
 14
0.0
 24
0.0
 34
0.0
 15
0.0
 25
0.0
 35
0.0
146
0.0
 13
0.0
 23
0.0
 33
0.0
 16
1.0
 26
0.0
 36
0.0
 17
0.0
 27
1.0
 37
0.0
 76
     0
330
2B14
331
2B18
  0
LAYOUT
  5
2B13
102
{ACAD_XDICTIONARY
360
2D09
102
}
102
{ACAD_REACTORS
330
2B09
102
}
330
2B09
100
AcDbPlotSettings
  1

  2
自動 EPSON LP-9600S (W2450527 上)
  4

  6

 40
0.0
 41
0.0
 42
0.0
 43
0.0
 44
0.0
 45
0.0
 46
0.0
 47
0.0
 48
0.0
 49
0.0
140
0.0
141
0.0
142
1.0
143
1.0
 70
   688
 72
     0
 73
     0
 74
     5
  7

 75
    16
147
1.0
148
0.0
149
0.0
100
AcDbLayout
  1
レイアウト1
 70
     1
 71
     1
 10
0.0
 20
0.0
 11
12.0
 21
9.0
 12
0.0
 22
0.0
 32
0.0
 14
1.000000000000000E+20
 24
1.000000000000000E+20
 34
1.000000000000000E+20
 15
-1.000000000000000E+20
 25
-1.000000000000000E+20
 35
-1.000000000000000E+20
146
0.0
 13
0.0
 23
0.0
 33
0.0
 16
1.0
 26
0.0
 36
0.0
 17
0.0
 27
1.0
 37
0.0
 76
     0
330
2B10
  0
MATERIAL
  5
2AB9
102
{ACAD_XDICTIONARY
360
2ABA
102
}
102
{ACAD_REACTORS
330
2AB0
102
}
330
2AB0
100
AcDbMaterial
  1
ByBlock
 72
     0
 43
0.0208333333333333
 43
0.0
 43
0.0
 43
0.0
 43
0.0
 43
0.0208333333333333
 43
0.0
 43
0.0
 43
0.0
 43
0.0
 43
1.0
 43
0.0
 43
0.0
 43
0.0
 43
0.0
 43
1.0
 77
     0
 47
0.0208333333333333
 47
0.0
 47
0.0
 47
0.0
 47
0.0
 47
0.0208333333333333
 47
0.0
 47
0.0
 47
0.0
 47
0.0
 47
1.0
 47
0.0
 47
0.0
 47
0.0
 47
0.0
 47
1.0
171
     0
 49
0.0208333333333333
 49
0.0
 49
0.0
 49
0.0
 49
0.0
 49
0.0208333333333333
 49
0.0
 49
0.0
 49
0.0
 49
0.0
 49
1.0
 49
0.0
 49
0.0
 49
0.0
 49
0.0
 49
1.0
175
     0
142
0.0208333333333333
142
0.0
142
0.0
142
0.0
142
0.0
142
0.0208333333333333
142
0.0
142
0.0
142
0.0
142
0.0
142
1.0
142
0.0
142
0.0
142
0.0
142
0.0
142
1.0
179
     0
144
0.0208333333333333
144
0.0
144
0.0
144
0.0
144
0.0
144
0.0208333333333333
144
0.0
144
0.0
144
0.0
144
0.0
144
1.0
144
0.0
144
0.0
144
0.0
144
0.0
144
1.0
147
0.0208333333333333
147
0.0
147
0.0
147
0.0
147
0.0
147
0.0208333333333333
147
0.0
147
0.0
147
0.0
147
0.0
147
1.0
147
0.0
147
0.0
147
0.0
147
0.0
147
1.0
  0
MATERIAL
  5
2AB1
102
{ACAD_XDICTIONARY
360
2AB2
102
}
102
{ACAD_REACTORS
330
2AB0
102
}
330
2AB0
100
AcDbMaterial
  1
ByLayer
 72
     0
 43
0.0208333333333333
 43
0.0
 43
0.0
 43
0.0
 43
0.0
 43
0.0208333333333333
 43
0.0
 43
0.0
 43
0.0
 43
0.0
 43
1.0
 43
0.0
 43
0.0
 43
0.0
 43
0.0
 43
1.0
 77
     0
 47
0.0208333333333333
 47
0.0
 47
0.0
 47
0.0
 47
0.0
 47
0.0208333333333333
 47
0.0
 47
0.0
 47
0.0
 47
0.0
 47
1.0
 47
0.0
 47
0.0
 47
0.0
 47
0.0
 47
1.0
171
     0
 49
0.0208333333333333
 49
0.0
 49
0.0
 49
0.0
 49
0.0
 49
0.0208333333333333
 49
0.0
 49
0.0
 49
0.0
 49
0.0
 49
1.0
 49
0.0
 49
0.0
 49
0.0
 49
0.0
 49
1.0
175
     0
142
0.0208333333333333
142
0.0
142
0.0
142
0.0
142
0.0
142
0.0208333333333333
142
0.0
142
0.0
142
0.0
142
0.0
142
1.0
142
0.0
142
0.0
142
0.0
142
0.0
142
1.0
179
     0
144
0.0208333333333333
144
0.0
144
0.0
144
0.0
144
0.0
144
0.0208333333333333
144
0.0
144
0.0
144
0.0
144
0.0
144
1.0
144
0.0
144
0.0
144
0.0
144
0.0
144
1.0
147
0.0208333333333333
147
0.0
147
0.0
147
0.0
147
0.0
147
0.0208333333333333
147
0.0
147
0.0
147
0.0
147
0.0
147
1.0
147
0.0
147
0.0
147
0.0
147
0.0
147
1.0
  0
MATERIAL
  5
2AC1
102
{ACAD_XDICTIONARY
360
2AC2
102
}
102
{ACAD_REACTORS
330
2AB0
102
}
330
2AB0
100
AcDbMaterial
  1
Global
 72
     0
 43
0.0208333333333333
 43
0.0
 43
0.0
 43
0.0
 43
0.0
 43
0.0208333333333333
 43
0.0
 43
0.0
 43
0.0
 43
0.0
 43
1.0
 43
0.0
 43
0.0
 43
0.0
 43
0.0
 43
1.0
 77
     0
 47
0.0208333333333333
 47
0.0
 47
0.0
 47
0.0
 47
0.0
 47
0.0208333333333333
 47
0.0
 47
0.0
 47
0.0
 47
0.0
 47
1.0
 47
0.0
 47
0.0
 47
0.0
 47
0.0
 47
1.0
171
     0
 49
0.0208333333333333
 49
0.0
 49
0.0
 49
0.0
 49
0.0
 49
0.0208333333333333
 49
0.0
 49
0.0
 49
0.0
 49
0.0
 49
1.0
 49
0.0
 49
0.0
 49
0.0
 49
0.0
 49
1.0
175
     0
142
0.0208333333333333
142
0.0
142
0.0
142
0.0
142
0.0
142
0.0208333333333333
142
0.0
142
0.0
142
0.0
142
0.0
142
1.0
142
0.0
142
0.0
142
0.0
142
0.0
142
1.0
179
     0
144
0.0208333333333333
144
0.0
144
0.0
144
0.0
144
0.0
144
0.0208333333333333
144
0.0
144
0.0
144
0.0
144
0.0
144
1.0
144
0.0
144
0.0
144
0.0
144
0.0
144
1.0
147
0.0208333333333333
147
0.0
147
0.0
147
0.0
147
0.0
147
0.0208333333333333
147
0.0
147
0.0
147
0.0
147
0.0
147
1.0
147
0.0
147
0.0
147
0.0
147
0.0
147
1.0
  0
MLEADERSTYLE
  5
2B0E
102
{ACAD_REACTORS
330
2B0D
102
}
330
2B0D
100
AcDbMLeaderStyle
170
     2
171
     1
172
     0
 90
        2
 40
0.0
 41
0.0
173
     1
 91
-1056964608
340
2B02
 92
       -2
290
     1
 42
0.09
291
     1
 43
0.36
  3
Standard
 44
0.18
300

342
2AFD
174
     1
178
     6
175
     1
176
     0
 93
-1056964608
 45
0.18
292
     0
297
     0
 46
0.18
 94
-1056964608
 47
1.0
 49
1.0
140
1.0
293
     1
141
0.0
294
     1
177
     0
142
1.0
295
     0
296
     0
143
0.125
1001
ACAD_MLEADERVER
1070
     2
  0
MLINESTYLE
  5
2B07
102
{ACAD_REACTORS
330
2B06
102
}
330
2B06
100
AcDbMlineStyle
  2
STANDARD
 70
     0
  3

 62
   256
 51
90.0
 52
90.0
 71
     2
 49
0.5
 62
   256
  6
BYLAYER
 49
-0.5
 62
   256
  6
BYLAYER
  0
ACDBPLACEHOLDER
  5
2AAF
102
{ACAD_REACTORS
330
2AAE
102
}
330
2AAE
  0
SCALE
  5
2ADB
102
{ACAD_REACTORS
330
2ADA
102
}
330
2ADA
100
AcDbScale
 70
     0
300
1:1
140
1.0
141
1.0
290
     1
  0
SCALE
  5
2ADC
102
{ACAD_REACTORS
330
2ADA
102
}
330
2ADA
100
AcDbScale
 70
     0
300
1:2
140
1.0
141
2.0
290
     0
  0
SCALE
  5
2ADD
102
{ACAD_REACTORS
330
2ADA
102
}
330
2ADA
100
AcDbScale
 70
     0
300
1:4
140
1.0
141
4.0
290
     0
  0
SCALE
  5
2ADE
102
{ACAD_REACTORS
330
2ADA
102
}
330
2ADA
100
AcDbScale
 70
     0
300
1:5
140
1.0
141
5.0
290
     0
  0
SCALE
  5
2ADF
102
{ACAD_REACTORS
330
2ADA
102
}
330
2ADA
100
AcDbScale
 70
     0
300
1:8
140
1.0
141
8.0
290
     0
  0
SCALE
  5
2AE0
102
{ACAD_REACTORS
330
2ADA
102
}
330
2ADA
100
AcDbScale
 70
     0
300
1:10
140
1.0
141
10.0
290
     0
  0
SCALE
  5
2AE1
102
{ACAD_REACTORS
330
2ADA
102
}
330
2ADA
100
AcDbScale
 70
     0
300
1:16
140
1.0
141
16.0
290
     0
  0
SCALE
  5
2AE2
102
{ACAD_REACTORS
330
2ADA
102
}
330
2ADA
100
AcDbScale
 70
     0
300
1:20
140
1.0
141
20.0
290
     0
  0
SCALE
  5
2AE3
102
{ACAD_REACTORS
330
2ADA
102
}
330
2ADA
100
AcDbScale
 70
     0
300
1:30
140
1.0
141
30.0
290
     0
  0
SCALE
  5
2AE4
102
{ACAD_REACTORS
330
2ADA
102
}
330
2ADA
100
AcDbScale
 70
     0
300
1:40
140
1.0
141
40.0
290
     0
  0
SCALE
  5
2AE5
102
{ACAD_REACTORS
330
2ADA
102
}
330
2ADA
100
AcDbScale
 70
     0
300
1:50
140
1.0
141
50.0
290
     0
  0
SCALE
  5
2AE6
102
{ACAD_REACTORS
330
2ADA
102
}
330
2ADA
100
AcDbScale
 70
     0
300
1:100
140
1.0
141
100.0
290
     0
  0
SCALE
  5
2AE7
102
{ACAD_REACTORS
330
2ADA
102
}
330
2ADA
100
AcDbScale
 70
     0
300
2:1
140
2.0
141
1.0
290
     0
  0
SCALE
  5
2AE8
102
{ACAD_REACTORS
330
2ADA
102
}
330
2ADA
100
AcDbScale
 70
     0
300
4:1
140
4.0
141
1.0
290
     0
  0
SCALE
  5
2AE9
102
{ACAD_REACTORS
330
2ADA
102
}
330
2ADA
100
AcDbScale
 70
     0
300
8:1
140
8.0
141
1.0
290
     0
  0
SCALE
  5
2AEA
102
{ACAD_REACTORS
330
2ADA
102
}
330
2ADA
100
AcDbScale
 70
     0
300
10:1
140
10.0
141
1.0
290
     0
  0
SCALE
  5
2AEB
102
{ACAD_REACTORS
330
2ADA
102
}
330
2ADA
100
AcDbScale
 70
     0
300
100:1
140
100.0
141
1.0
290
     0
  0
SCALE
  5
2AEC
102
{ACAD_REACTORS
330
2ADA
102
}
330
2ADA
100
AcDbScale
 70
     0
300
1/128" = 1'-0"
140
0.0078125
141
12.0
290
     0
  0
SCALE
  5
2AED
102
{ACAD_REACTORS
330
2ADA
102
}
330
2ADA
100
AcDbScale
 70
     0
300
1/64" = 1'-0"
140
0.015625
141
12.0
290
     0
  0
SCALE
  5
2AEE
102
{ACAD_REACTORS
330
2ADA
102
}
330
2ADA
100
AcDbScale
 70
     0
300
1/32" = 1'-0"
140
0.03125
141
12.0
290
     0
  0
SCALE
  5
2AEF
102
{ACAD_REACTORS
330
2ADA
102
}
330
2ADA
100
AcDbScale
 70
     0
300
1/16" = 1'-0"
140
0.0625
141
12.0
290
     0
  0
SCALE
  5
2AF0
102
{ACAD_REACTORS
330
2ADA
102
}
330
2ADA
100
AcDbScale
 70
     0
300
3/32" = 1'-0"
140
0.09375
141
12.0
290
     0
  0
SCALE
  5
2AF1
102
{ACAD_REACTORS
330
2ADA
102
}
330
2ADA
100
AcDbScale
 70
     0
300
1/8" = 1'-0"
140
0.125
141
12.0
290
     0
  0
SCALE
  5
2AF2
102
{ACAD_REACTORS
330
2ADA
102
}
330
2ADA
100
AcDbScale
 70
     0
300
3/16" = 1'-0"
140
0.1875
141
12.0
290
     0
  0
SCALE
  5
2AF3
102
{ACAD_REACTORS
330
2ADA
102
}
330
2ADA
100
AcDbScale
 70
     0
300
1/4" = 1'-0"
140
0.25
141
12.0
290
     0
  0
SCALE
  5
2AF4
102
{ACAD_REACTORS
330
2ADA
102
}
330
2ADA
100
AcDbScale
 70
     0
300
3/8" = 1'-0"
140
0.375
141
12.0
290
     0
  0
SCALE
  5
2AF5
102
{ACAD_REACTORS
330
2ADA
102
}
330
2ADA
100
AcDbScale
 70
     0
300
1/2" = 1'-0"
140
0.5
141
12.0
290
     0
  0
SCALE
  5
2AF6
102
{ACAD_REACTORS
330
2ADA
102
}
330
2ADA
100
AcDbScale
 70
     0
300
3/4" = 1'-0"
140
0.75
141
12.0
290
     0
  0
SCALE
  5
2AF7
102
{ACAD_REACTORS
330
2ADA
102
}
330
2ADA
100
AcDbScale
 70
     0
300
1" = 1'-0"
140
1.0
141
12.0
290
     0
  0
SCALE
  5
2AF8
102
{ACAD_REACTORS
330
2ADA
102
}
330
2ADA
100
AcDbScale
 70
     0
300
1-1/2" = 1'-0"
140
1.5
141
12.0
290
     0
  0
SCALE
  5
2AF9
102
{ACAD_REACTORS
330
2ADA
102
}
330
2ADA
100
AcDbScale
 70
     0
300
3" = 1'-0"
140
3.0
141
12.0
290
     0
  0
SCALE
  5
2AFA
102
{ACAD_REACTORS
330
2ADA
102
}
330
2ADA
100
AcDbScale
 70
     0
300
6" = 1'-0"
140
6.0
141
12.0
290
     0
  0
SCALE
  5
2AFB
102
{ACAD_REACTORS
330
2ADA
102
}
330
2ADA
100
AcDbScale
 70
     0
300
1'-0" = 1'-0"
140
12.0
141
12.0
290
     0
  0
TABLESTYLE
  5
2B0C
102
{ACAD_XDICTIONARY
360
2CFC
102
}
102
{ACAD_REACTORS
330
2B0B
102
}
330
2B0B
100
AcDbTableStyle
  3
Standard
 70
     0
 71
     0
 40
0.06
 41
0.06
280
     0
281
     0
  7
STANDARD
140
0.18
170
     2
 62
     0
 63
     7
283
     0
274
    -2
284
     1
 64
     0
275
    -2
285
     1
 65
     0
276
    -2
286
     1
 66
     0
277
    -2
287
     1
 67
     0
278
    -2
288
     1
 68
     0
279
    -2
289
     1
 69
     0
  7
STANDARD
140
0.25
170
     5
 62
     0
 63
     7
283
     0
274
    -2
284
     1
 64
     0
275
    -2
285
     1
 65
     0
276
    -2
286
     1
 66
     0
277
    -2
287
     1
 67
     0
278
    -2
288
     1
 68
     0
279
    -2
289
     1
 69
     0
  7
STANDARD
140
0.18
170
     5
 62
     0
 63
     7
283
     0
274
    -2
284
     1
 64
     0
275
    -2
285
     1
 65
     0
276
    -2
286
     1
 66
     0
277
    -2
287
     1
 67
     0
278
    -2
288
     1
 68
     0
279
    -2
289
     1
 69
     0
  0
VISUALSTYLE
  5
2ACF
102
{ACAD_REACTORS
330
2AC9
102
}
330
2AC9
100
AcDbVisualStyle
  2
2dWireframe
 70
     4
 71
     0
 72
     2
 73
     0
 90
        0
 40
-0.6
 41
-30.0
 62
     5
 63
     7
 74
     1
 91
        4
 64
     7
 65
   257
 75
     1
175
     1
 42
1.0
 92
        0
 66
   257
 43
1.0
 76
     1
 77
     6
 78
     2
 67
     7
 79
     5
170
     0
171
     0
290
     0
174
     0
 93
        1
 44
0.0
173
     0
291
     0
 45
0.0
1001
ACAD
1000
AcDbSavedByObjectVersion
1070
     0
  0
VISUALSTYLE
  5
2AD1
102
{ACAD_REACTORS
330
2AC9
102
}
330
2AC9
100
AcDbVisualStyle
  2
3D Hidden
 70
     6
 71
     1
 72
     2
 73
     2
 90
        0
 40
-0.6
 41
-30.0
 62
     5
 63
     7
 74
     2
 91
        2
 64
     7
 65
   257
 75
     2
175
     1
 42
40.0
 92
        0
 66
   257
 43
1.0
 76
     1
 77
     6
 78
     2
 67
     7
 79
     3
170
     0
171
     0
290
     0
174
     0
 93
        1
 44
0.0
173
     0
291
     0
 45
0.0
1001
ACAD
1000
AcDbSavedByObjectVersion
1070
     0
  0
VISUALSTYLE
  5
2AD0
102
{ACAD_REACTORS
330
2AC9
102
}
330
2AC9
100
AcDbVisualStyle
  2
3dWireframe
 70
     5
 71
     0
 72
     2
 73
     0
 90
        0
 40
-0.6
 41
-30.0
 62
     5
 63
     7
 74
     1
 91
        4
 64
     7
 65
   257
 75
     1
175
     1
 42
1.0
 92
        0
 66
   257
 43
1.0
 76
     1
 77
     6
 78
     2
 67
     7
 79
     5
170
     0
171
     0
290
     0
174
     0
 93
        1
 44
0.0
173
     0
291
     0
 45
0.0
1001
ACAD
1000
AcDbSavedByObjectVersion
1070
     0
  0
VISUALSTYLE
  5
2ACE
102
{ACAD_REACTORS
330
2AC9
102
}
330
2AC9
100
AcDbVisualStyle
  2
Basic
 70
     7
 71
     1
 72
     0
 73
     1
 90
        0
 40
-0.6
 41
-30.0
 62
     5
 63
     7
 74
     0
 91
        4
 64
     7
 65
   257
 75
     1
175
     1
 42
1.0
 92
        8
 66
     7
 43
1.0
 76
     1
 77
     6
 78
     2
 67
     7
 79
     5
170
     0
171
     0
290
     0
174
     0
 93
        1
 44
0.0
173
     0
291
     1
 45
0.0
1001
ACAD
1000
AcDbSavedByObjectVersion
1070
     0
  0
VISUALSTYLE
  5
2AD5
102
{ACAD_REACTORS
330
2AC9
102
}
330
2AC9
100
AcDbVisualStyle
  2
Brighten
 70
    12
 71
     2
 72
     2
 73
     0
 90
        0
 40
-0.6
 41
-30.0
 62
     5
 63
     7
 74
     1
 91
        4
 64
     7
 65
   257
 75
     1
175
     1
 42
1.0
 92
        8
 66
     7
 43
1.0
 76
     1
 77
     6
 78
     2
 67
     7
 79
     5
170
     0
171
     0
290
     0
174
     0
 93
        1
 44
50.0
173
     0
291
     1
 45
0.0
1001
ACAD
1000
AcDbSavedByObjectVersion
1070
     0
  0
VISUALSTYLE
  5
2AD9
102
{ACAD_REACTORS
330
2AC9
102
}
330
2AC9
100
AcDbVisualStyle
  2
ColorChange
 70
    16
 71
     2
 72
     2
 73
     3
 90
        0
 40
-0.6
 41
-30.0
 62
     5
 63
     8
 74
     1
 91
        4
 64
     7
 65
   257
 75
     1
175
     1
 42
1.0
 92
        8
 66
     8
 43
1.0
 76
     1
 77
     6
 78
     2
 67
     7
 79
     5
170
     0
171
     0
290
     0
174
     0
 93
        1
 44
0.0
173
     0
291
     1
 45
0.0
1001
ACAD
1000
AcDbSavedByObjectVersion
1070
     0
  0
VISUALSTYLE
  5
2AD2
102
{ACAD_REACTORS
330
2AC9
102
}
330
2AC9
100
AcDbVisualStyle
  2
Conceptual
 70
     9
 71
     3
 72
     2
 73
     0
 90
        0
 40
-0.6
 41
-30.0
 62
     5
 63
     7
 74
     2
 91
        2
 64
     7
 65
   257
 75
     1
175
     1
 42
40.0
 92
        8
 66
     7
 43
1.0
 76
     1
 77
     6
 78
     2
 67
     7
 79
     3
170
     0
171
     0
290
     0
174
     0
 93
        1
 44
0.0
173
     0
291
     0
 45
0.0
1001
ACAD
1000
AcDbSavedByObjectVersion
1070
     0
  0
VISUALSTYLE
  5
2AD4
102
{ACAD_REACTORS
330
2AC9
102
}
330
2AC9
100
AcDbVisualStyle
  2
Dim
 70
    11
 71
     2
 72
     2
 73
     0
 90
        0
 40
-0.6
 41
-30.0
 62
     5
 63
     7
 74
     1
 91
        4
 64
     7
 65
   257
 75
     1
175
     1
 42
1.0
 92
        8
 66
     7
 43
1.0
 76
     1
 77
     6
 78
     2
 67
     7
 79
     5
170
     0
171
     0
290
     0
174
     0
 93
        1
 44
-50.0
173
     0
291
     1
 45
0.0
1001
ACAD
1000
AcDbSavedByObjectVersion
1070
     0
  0
VISUALSTYLE
  5
2AD8
102
{ACAD_REACTORS
330
2AC9
102
}
330
2AC9
100
AcDbVisualStyle
  2
Facepattern
 70
    15
 71
     2
 72
     2
 73
     0
 90
        0
 40
-0.6
 41
-30.0
 62
     5
 63
     7
 74
     1
 91
        4
 64
     7
 65
   257
 75
     1
175
     1
 42
1.0
 92
        8
 66
     7
 43
1.0
 76
     1
 77
     6
 78
     2
 67
     7
 79
     5
170
     0
171
     0
290
     0
174
     0
 93
        1
 44
0.0
173
     0
291
     1
 45
0.0
1001
ACAD
1000
AcDbSavedByObjectVersion
1070
     0
  0
VISUALSTYLE
  5
2ACA
102
{ACAD_REACTORS
330
2AC9
102
}
330
2AC9
100
AcDbVisualStyle
  2
Flat
 70
     0
 71
     2
 72
     1
 73
     1
 90
        2
 40
-0.6
 41
30.0
 62
     5
 63
     7
 74
     0
 91
        4
 64
     7
 65
   257
 75
     1
175
     1
 42
1.0
 92
        8
 66
     7
 43
1.0
 76
     1
 77
     6
 78
     2
 67
     7
 79
     5
170
     0
171
     0
290
     0
174
     0
 93
       13
 44
0.0
173
     0
291
     1
 45
0.0
1001
ACAD
1000
AcDbSavedByObjectVersion
1070
     0
  0
VISUALSTYLE
  5
2ACB
102
{ACAD_REACTORS
330
2AC9
102
}
330
2AC9
100
AcDbVisualStyle
  2
FlatWithEdges
 70
     1
 71
     2
 72
     1
 73
     1
 90
        2
 40
-0.6
 41
30.0
 62
     5
 63
     7
 74
     1
 91
        4
 64
     7
 65
   257
 75
     1
175
     1
 42
1.0
 92
        0
 66
   257
 43
1.0
 76
     1
 77
     6
 78
     2
 67
     7
 79
     5
170
     0
171
     0
290
     0
174
     0
 93
       13
 44
0.0
173
     0
291
     1
 45
0.0
1001
ACAD
1000
AcDbSavedByObjectVersion
1070
     0
  0
VISUALSTYLE
  5
2ACC
102
{ACAD_REACTORS
330
2AC9
102
}
330
2AC9
100
AcDbVisualStyle
  2
Gouraud
 70
     2
 71
     2
 72
     2
 73
     1
 90
        2
 40
-0.6
 41
30.0
 62
     5
 63
     7
 74
     0
 91
        4
 64
     7
 65
   257
 75
     1
175
     1
 42
1.0
 92
        0
 66
     7
 43
1.0
 76
     1
 77
     6
 78
     2
 67
     7
 79
     5
170
     0
171
     0
290
     0
174
     0
 93
       13
 44
0.0
173
     0
291
     1
 45
0.0
1001
ACAD
1000
AcDbSavedByObjectVersion
1070
     0
  0
VISUALSTYLE
  5
2ACD
102
{ACAD_REACTORS
330
2AC9
102
}
330
2AC9
100
AcDbVisualStyle
  2
GouraudWithEdges
 70
     3
 71
     2
 72
     2
 73
     1
 90
        2
 40
-0.6
 41
30.0
 62
     5
 63
     7
 74
     1
 91
        4
 64
     7
 65
   257
 75
     1
175
     1
 42
1.0
 92
        0
 66
   257
 43
1.0
 76
     1
 77
     6
 78
     2
 67
     7
 79
     5
170
     0
171
     0
290
     0
174
     0
 93
       13
 44
0.0
173
     0
291
     1
 45
0.0
1001
ACAD
1000
AcDbSavedByObjectVersion
1070
     0
  0
VISUALSTYLE
  5
2AD7
102
{ACAD_REACTORS
330
2AC9
102
}
330
2AC9
100
AcDbVisualStyle
  2
Linepattern
 70
    14
 71
     2
 72
     2
 73
     0
 90
        0
 40
-0.6
 41
-30.0
 62
     5
 63
     7
 74
     1
 91
        4
 64
     7
 65
   257
 75
     7
175
     7
 42
1.0
 92
        8
 66
     7
 43
1.0
 76
     1
 77
     6
 78
     2
 67
     7
 79
     5
170
     0
171
     0
290
     0
174
     0
 93
        1
 44
0.0
173
     0
291
     1
 45
0.0
1001
ACAD
1000
AcDbSavedByObjectVersion
1070
     0
  0
VISUALSTYLE
  5
2AD3
102
{ACAD_REACTORS
330
2AC9
102
}
330
2AC9
100
AcDbVisualStyle
  2
Realistic
 70
     8
 71
     2
 72
     2
 73
     0
 90
        0
 40
-0.6
 41
-30.0
 62
     5
 63
     7
 74
     1
 91
        0
 64
     7
 65
   257
 75
     1
175
     1
 42
1.0
 92
        8
 66
     8
 43
1.0
 76
     1
 77
     6
 78
     2
 67
     7
 79
     5
170
     0
171
     0
290
     0
174
     0
 93
       13
 44
0.0
173
     0
291
     0
 45
0.0
1001
ACAD
1000
AcDbSavedByObjectVersion
1070
     0
  0
VISUALSTYLE
  5
2AD6
102
{ACAD_REACTORS
330
2AC9
102
}
330
2AC9
100
AcDbVisualStyle
  2
Thicken
 70
    13
 71
     2
 72
     2
 73
     0
 90
        0
 40
-0.6
 41
-30.0
 62
     5
 63
     7
 74
     1
 91
        4
 64
     7
 65
   257
 75
     1
175
     1
 42
1.0
 92
       12
 66
     7
 43
1.0
 76
     1
 77
     6
 78
     2
 67
     7
 79
     5
170
     0
171
     0
290
     0
174
     0
 93
        1
 44
0.0
173
     0
291
     1
 45
0.0
1001
ACAD
1000
AcDbSavedByObjectVersion
1070
     0
  0
DICTIONARYVAR
  5
2CF8
102
{ACAD_REACTORS
330
2CF5
102
}
330
2CF5
100
DictionaryVariables
280
     0
  1
1:1
  0
DICTIONARYVAR
  5
2CF7
102
{ACAD_REACTORS
330
2CF5
102
}
330
2CF5
100
DictionaryVariables
280
     0
  1
STANDARD
  0
DICTIONARYVAR
  5
2CF6
102
{ACAD_REACTORS
330
2CF5
102
}
330
2CF5
100
DictionaryVariables
280
     0
  1
STANDARD
  0
DICTIONARYVAR
  5
2CFB
102
{ACAD_REACTORS
330
2CF5
102
}
330
2CF5
100
DictionaryVariables
280
     0
  1
1
  0
DICTIONARYVAR
  5
2CFA
102
{ACAD_REACTORS
330
2CF5
102
}
330
2CF5
100
DictionaryVariables
280
     0
  1
1
  0
DICTIONARYVAR
  5
2CF9
102
{ACAD_REACTORS
330
2CF5
102
}
330
2CF5
100
DictionaryVariables
280
     0
  1
127
  0
DICTIONARY
  5
2CAF
102
{ACAD_REACTORS
330
2CA1
102
}
330
2CA1
100
AcDbDictionary
281
     1
  0
DICTIONARY
  5
2BEF
102
{ACAD_REACTORS
330
2BEE
102
}
330
2BEE
100
AcDbDictionary
281
     1
  3
DWGSETTINGS
350
2BF0
  3
TRANSSETTINGS
350
2BF1
  0
ACAMGFILTERDAT
  5
2CCE
102
{ACAD_REACTORS
330
2CC9
102
}
330
2CC9
100
AcAmgFilterDat
 70
    15
  1
DIMENSION,AMDT_*_DIM
  2
*
  3
*
  4
*
  5
*
290
     1
  0
ACAMGFILTERDAT
  5
2CCD
102
{ACAD_REACTORS
330
2CC9
102
}
330
2CC9
100
AcAmgFilterDat
 70
    15
  1
*
  2
AM_FEA-AM_*
  3
*
  4
*
  5
*
290
     1
  0
ACAMGFILTERDAT
  5
2CCA
102
{ACAD_REACTORS
330
2CC9
102
}
330
2CC9
100
AcAmgFilterDat
 70
    15
  1
HATCH
  2
*
  3
*
  4
*
  5
*
290
     1
  0
ACAMGFILTERDAT
  5
2CCB
102
{ACAD_REACTORS
330
2CC9
102
}
330
2CC9
100
AcAmgFilterDat
 70
    15
  1
LINE
  2
8,8N,*-8,*-8N,AM_8,AM_8N,*-AM_8,*-AM_8N
  3
*
  4
*
  5
INSERT,STDPART2D
290
     1
  0
ACAMGFILTERDAT
  5
2CCF
102
{ACAD_REACTORS
330
2CC9
102
}
330
2CC9
100
AcAmgFilterDat
 70
    15
  1
ARC
  2
AM_5
  3
*
  4
2
  5
INSERT
290
     0
  0
ACAMGFILTERDAT
  5
2CCC
102
{ACAD_REACTORS
330
2CC9
102
}
330
2CC9
100
AcAmgFilterDat
 70
    15
  1
ACMFCFRAME,ACMDATUMTARGET,ACMDATUMID,ACMWELDSYM,ACMSURFSYM,ACMFEATID,ACMPARTREF,ACMBALLOON,AMDTEDGESYM,AMGSCREWCALCTABLE,ACMMARKSTAMP
  2
*
  3
*
  4
*
  5
*
290
     1
  0
LAYER_INDEX
  5
2CE8
102
{ACAD_REACTORS
330
2CE7
102
}
330
2CE7
100
AcDbIndex
 40
2456210.475831586
100
AcDbLayerIndex
  8
0
360
2CE9
 90
        2
  8
OUTLINE
360
2CEA
 90
       16
  8
SIZE
360
2CEB
 90
       24
  8
BASIS
360
2CEC
 90
        1
  8
DETAIL
360
2CED
 90
       20
  8
ARRANGE
360
2CEE
 90
        2
  8
DEFPOINTS
360
2CEF
 90
        0
  8
ETC
360
2CF0
 90
        3
  8
FIX
360
2CF1
 90
        0
  8
NOTE
360
2CF2
 90
        4
  8
SERVICESPACE
360
2CF3
 90
        0
  8
SYMBOLLINE
360
2CF4
 90
        0
  0
DICTIONARY
  5
2D0B
330
2B17
100
AcDbDictionary
280
     1
281
     1
  3
ACAD_XREC_ROUNDTRIP
360
2D0C
  0
DICTIONARY
  5
2D09
330
2B13
100
AcDbDictionary
280
     1
281
     1
  3
ACAD_XREC_ROUNDTRIP
360
2D0A
  0
DICTIONARY
  5
2ABA
330
2AB9
100
AcDbDictionary
280
     1
281
     1
  3
ACAD_XREC_ROUNDTRIP
360
2D06
  3
BUMPTILE
360
2ABC
  3
DIFFUSETILE
360
2ABB
  3
OPACITYTILE
360
2ABF
  3
REFLECTIONTILE
360
2ABE
  3
REFRACTIONTILE
360
2AC0
  3
SPECULARTILE
360
2ABD
  0
DICTIONARY
  5
2AB2
330
2AB1
100
AcDbDictionary
280
     1
281
     1
  3
ACAD_XREC_ROUNDTRIP
360
2D05
  3
BUMPTILE
360
2AB4
  3
DIFFUSETILE
360
2AB3
  3
OPACITYTILE
360
2AB7
  3
REFLECTIONTILE
360
2AB6
  3
REFRACTIONTILE
360
2AB8
  3
SPECULARTILE
360
2AB5
  0
DICTIONARY
  5
2AC2
330
2AC1
100
AcDbDictionary
280
     1
281
     1
  3
ACAD_XREC_ROUNDTRIP
360
2D07
  3
BUMPTILE
360
2AC4
  3
DIFFUSETILE
360
2AC3
  3
OPACITYTILE
360
2AC7
  3
REFLECTIONTILE
360
2AC6
  3
REFRACTIONTILE
360
2AC8
  3
SPECULARTILE
360
2AC5
  0
DICTIONARY
  5
2CFC
330
2B0C
100
AcDbDictionary
280
     1
281
     1
  3
ACAD_ROUNDTRIP_2008_TABLESTYLE_CELLSTYLEMAP
360
2CFD
  3
ACAD_XREC_ROUNDTRIP
360
2D08
  0
IDBUFFER
  5
2CE9
330
0
100
AcDbIdBuffer
330
2A3A
330
2A3B
  0
IDBUFFER
  5
2CEA
330
0
100
AcDbIdBuffer
330
953
330
954
330
955
330
956
330
957
330
958
330
2A3E
330
2A3F
330
2A40
330
2A41
330
2A42
330
2A43
330
2A44
330
2A45
330
2A46
330
2A47
  0
IDBUFFER
  5
2CEB
330
0
100
AcDbIdBuffer
330
2A5E
330
2A5F
330
2A60
330
2A61
330
2A62
330
2A63
330
2A64
330
2A65
330
2A4E
330
2A4F
330
2A50
330
2A51
330
2A52
330
2A53
330
2A54
330
2A55
330
2A56
330
2A57
330
2A58
330
2A59
330
2A5A
330
2A5B
330
2A5C
330
2A5D
  0
IDBUFFER
  5
2CEC
330
0
100
AcDbIdBuffer
330
2A28
  0
IDBUFFER
  5
2CED
330
0
100
AcDbIdBuffer
330
2A4A
330
2A4B
330
2A4C
330
2A4D
330
2A29
330
2A2A
330
2A2B
330
2A2C
330
2A2D
330
2A2E
330
2A2F
330
2A30
330
2A31
330
2A32
330
2A33
330
2A34
330
2A36
330
2A39
330
2A48
330
2A49
  0
IDBUFFER
  5
2CEE
330
0
100
AcDbIdBuffer
330
2A27
330
2A38
  0
IDBUFFER
  5
2CEF
330
0
100
AcDbIdBuffer
  0
IDBUFFER
  5
2CF0
330
0
100
AcDbIdBuffer
330
2A24
330
2A25
330
2A26
  0
IDBUFFER
  5
2CF1
330
0
100
AcDbIdBuffer
  0
IDBUFFER
  5
2CF2
330
0
100
AcDbIdBuffer
330
2A35
330
2A37
330
2A3C
330
2A3D
  0
IDBUFFER
  5
2CF3
330
0
100
AcDbIdBuffer
  0
IDBUFFER
  5
2CF4
330
0
100
AcDbIdBuffer
  0
XRECORD
  5
2D0C
102
{ACAD_REACTORS
330
2D0B
102
}
330
2D0B
100
AcDbXrecord
280
     1
102
SHADEPLOT
 70
     0
102
SHADEPLOTRESLEVEL
 70
     2
102
SHADEPLOTCUSTOMDPI
 70
   300
  0
XRECORD
  5
2D0A
102
{ACAD_REACTORS
330
2D09
102
}
330
2D09
100
AcDbXrecord
280
     1
102
SHADEPLOT
 70
     0
102
SHADEPLOTRESLEVEL
 70
     2
102
SHADEPLOTCUSTOMDPI
 70
   300
  0
XRECORD
  5
2D06
102
{ACAD_REACTORS
330
2ABA
102
}
330
2ABA
100
AcDbXrecord
280
     1
102
MATERIAL
148
0.0
149
0.0
149
0.0
 93
        0
 94
      127
282
     0
 72
     0
 77
     0
171
     0
175
     0
179
     0
273
     0
  0
XRECORD
  5
2ABC
102
{ACAD_REACTORS
330
2ABA
102
}
330
2ABA
100
AcDbXrecord
280
     1
270
     1
271
     1
  0
XRECORD
  5
2ABB
102
{ACAD_REACTORS
330
2ABA
102
}
330
2ABA
100
AcDbXrecord
280
     1
270
     1
271
     1
  0
XRECORD
  5
2ABF
102
{ACAD_REACTORS
330
2ABA
102
}
330
2ABA
100
AcDbXrecord
280
     1
270
     1
271
     1
  0
XRECORD
  5
2ABE
102
{ACAD_REACTORS
330
2ABA
102
}
330
2ABA
100
AcDbXrecord
280
     1
270
     1
271
     1
  0
XRECORD
  5
2AC0
102
{ACAD_REACTORS
330
2ABA
102
}
330
2ABA
100
AcDbXrecord
280
     1
270
     1
271
     1
  0
XRECORD
  5
2ABD
102
{ACAD_REACTORS
330
2ABA
102
}
330
2ABA
100
AcDbXrecord
280
     1
270
     1
271
     1
  0
XRECORD
  5
2D05
102
{ACAD_REACTORS
330
2AB2
102
}
330
2AB2
100
AcDbXrecord
280
     1
102
MATERIAL
148
0.0
149
0.0
149
0.0
 93
        0
 94
      127
282
     0
 72
     0
 77
     0
171
     0
175
     0
179
     0
273
     0
  0
XRECORD
  5
2AB4
102
{ACAD_REACTORS
330
2AB2
102
}
330
2AB2
100
AcDbXrecord
280
     1
270
     1
271
     1
  0
XRECORD
  5
2AB3
102
{ACAD_REACTORS
330
2AB2
102
}
330
2AB2
100
AcDbXrecord
280
     1
270
     1
271
     1
  0
XRECORD
  5
2AB7
102
{ACAD_REACTORS
330
2AB2
102
}
330
2AB2
100
AcDbXrecord
280
     1
270
     1
271
     1
  0
XRECORD
  5
2AB6
102
{ACAD_REACTORS
330
2AB2
102
}
330
2AB2
100
AcDbXrecord
280
     1
270
     1
271
     1
  0
XRECORD
  5
2AB8
102
{ACAD_REACTORS
330
2AB2
102
}
330
2AB2
100
AcDbXrecord
280
     1
270
     1
271
     1
  0
XRECORD
  5
2AB5
102
{ACAD_REACTORS
330
2AB2
102
}
330
2AB2
100
AcDbXrecord
280
     1
270
     1
271
     1
  0
XRECORD
  5
2D07
102
{ACAD_REACTORS
330
2AC2
102
}
330
2AC2
100
AcDbXrecord
280
     1
102
MATERIAL
148
0.0
149
0.0
149
0.0
 93
        0
 94
      127
282
     0
 72
     0
 77
     0
171
     0
175
     0
179
     0
273
     0
  0
XRECORD
  5
2AC4
102
{ACAD_REACTORS
330
2AC2
102
}
330
2AC2
100
AcDbXrecord
280
     1
270
     1
271
     1
  0
XRECORD
  5
2AC3
102
{ACAD_REACTORS
330
2AC2
102
}
330
2AC2
100
AcDbXrecord
280
     1
270
     1
271
     1
  0
XRECORD
  5
2AC7
102
{ACAD_REACTORS
330
2AC2
102
}
330
2AC2
100
AcDbXrecord
280
     1
270
     1
271
     1
  0
XRECORD
  5
2AC6
102
{ACAD_REACTORS
330
2AC2
102
}
330
2AC2
100
AcDbXrecord
280
     1
270
     1
271
     1
  0
XRECORD
  5
2AC8
102
{ACAD_REACTORS
330
2AC2
102
}
330
2AC2
100
AcDbXrecord
280
     1
270
     1
271
     1
  0
XRECORD
  5
2AC5
102
{ACAD_REACTORS
330
2AC2
102
}
330
2AC2
100
AcDbXrecord
280
     1
270
     1
271
     1
  0
CELLSTYLEMAP
  5
2CFD
102
{ACAD_REACTORS
330
2CFC
102
}
330
2CFC
100
AcDbCellStyleMap
 90
        3
300
CELLSTYLE
  1
TABLEFORMAT_BEGIN
 90
        5
170
     1
 91
        0
 92
    32768
 62
   257
 93
        1
300
CONTENTFORMAT
  1
CONTENTFORMAT_BEGIN
 90
        0
 91
        0
 92
      512
 93
        0
300

 40
0.0
140
1.0
 94
        5
 62
     0
340
2AFD
144
0.25
309
CONTENTFORMAT_END
171
     0
 94
        0
309
TABLEFORMAT_END
  1
CELLSTYLE_BEGIN
 90
        1
 91
        1
300
_TITLE
309
CELLSTYLE_END
300
CELLSTYLE
  1
TABLEFORMAT_BEGIN
 90
        5
170
     1
 91
        0
 92
        0
 62
   257
 93
        1
300
CONTENTFORMAT
  1
CONTENTFORMAT_BEGIN
 90
        0
 91
        0
 92
      512
 93
        0
300

 40
0.0
140
1.0
 94
        5
 62
     0
340
2AFD
144
0.18
309
CONTENTFORMAT_END
171
     0
 94
        0
309
TABLEFORMAT_END
  1
CELLSTYLE_BEGIN
 90
        2
 91
        1
300
_HEADER
309
CELLSTYLE_END
300
CELLSTYLE
  1
TABLEFORMAT_BEGIN
 90
        5
170
     1
 91
        0
 92
        0
 62
   257
 93
        1
300
CONTENTFORMAT
  1
CONTENTFORMAT_BEGIN
 90
        0
 91
        0
 92
      512
 93
        0
300

 40
0.0
140
1.0
 94
        2
 62
     0
340
2AFD
144
0.18
309
CONTENTFORMAT_END
171
     0
 94
        0
309
TABLEFORMAT_END
  1
CELLSTYLE_BEGIN
 90
        3
 91
        2
300
_DATA
309
CELLSTYLE_END
  0
XRECORD
  5
2D08
102
{ACAD_REACTORS
330
2CFC
102
}
330
2CFC
100
AcDbXrecord
280
     1
102
ACAD_ROUNDTRIP_PRE2007_TABLESTYLE
 90
      512
 91
        0
  1

 92
      512
 93
        0
  2

 94
      512
 95
        0
  3

  0
ENDSEC
  0
EOF
