  0
SECTION
  2
HEADER
  9
$ACADVER
  1
AC1015
  9
$ACADMAINTVER
 70
    20
  9
$DWGCODEPAGE
  3
ANSI_932
  9
$INSBASE
 10
0.0
 20
0.0
 30
0.0
  9
$EXTMIN
 10
-1077.595114277968
 20
-951.1579934542924
 30
0.0
  9
$EXTMAX
 10
1186.689609698796
 20
730.7597012417777
 30
50.0
  9
$LIMMIN
 10
-2970.0
 20
-2100.0
  9
$LIMMAX
 10
2970.0
 20
2100.0
  9
$ORTHOMODE
 70
     1
  9
$REGENMODE
 70
     0
  9
$FILLMODE
 70
     1
  9
$QTEXTMODE
 70
     0
  9
$MIRRTEXT
 70
     0
  9
$LTSCALE
 40
20.0
  9
$ATTMODE
 70
     1
  9
$TEXTSIZE
 40
64.0
  9
$TRACEWID
 40
0.05
  9
$TEXTSTYLE
  7
STANDARD
  9
$CLAYER
  8
0
  9
$CELTYPE
  6
ByLayer
  9
$CECOLOR
 62
   256
  9
$CELTSCALE
 40
1.0
  9
$DISPSILH
 70
     0
  9
$DIMSCALE
 40
1.0
  9
$DIMASZ
 40
0.12
  9
$DIMEXO
 40
0.05
  9
$DIMDLI
 40
0.5
  9
$DIMRND
 40
0.0
  9
$DIMDLE
 40
0.0
  9
$DIMEXE
 40
0.1
  9
$DIMTP
 40
0.1
  9
$DIMTM
 40
0.1
  9
$DIMTXT
 40
0.12
  9
$DIMCEN
 40
0.0
  9
$DIMTSZ
 40
0.0
  9
$DIMTOL
 70
     0
  9
$DIMLIM
 70
     0
  9
$DIMTIH
 70
     1
  9
$DIMTOH
 70
     1
  9
$DIMSE1
 70
     0
  9
$DIMSE2
 70
     0
  9
$DIMTAD
 70
     0
  9
$DIMZIN
 70
     7
  9
$DIMBLK
  1

  9
$DIMASO
 70
     1
  9
$DIMSHO
 70
     0
  9
$DIMPOST
  1

  9
$DIMAPOST
  1
mm
  9
$DIMALT
 70
     0
  9
$DIMALTD
 70
     2
  9
$DIMALTF
 40
25.4
  9
$DIMLFAC
 40
1.0
  9
$DIMTOFL
 70
     0
  9
$DIMTVP
 40
0.0
  9
$DIMTIX
 70
     0
  9
$DIMSOXD
 70
     0
  9
$DIMSAH
 70
     0
  9
$DIMBLK1
  1

  9
$DIMBLK2
  1

  9
$DIMSTYLE
  2
AM_ANSI
  9
$DIMCLRD
 70
   256
  9
$DIMCLRE
 70
   256
  9
$DIMCLRT
 70
     2
  9
$DIMTFAC
 40
0.71
  9
$DIMGAP
 40
0.06
  9
$DIMJUST
 70
     0
  9
$DIMSD1
 70
     0
  9
$DIMSD2
 70
     0
  9
$DIMTOLJ
 70
     1
  9
$DIMTZIN
 70
     7
  9
$DIMALTZ
 70
     0
  9
$DIMALTTZ
 70
     0
  9
$DIMUPT
 70
     0
  9
$DIMDEC
 70
     4
  9
$DIMTDEC
 70
     4
  9
$DIMALTU
 70
     2
  9
$DIMALTTD
 70
     4
  9
$DIMTXSTY
  7
STANDARD
  9
$DIMAUNIT
 70
     0
  9
$DIMADEC
 70
     0
  9
$DIMALTRND
 40
0.0
  9
$DIMAZIN
 70
     2
  9
$DIMDSEP
 70
    46
  9
$DIMATFIT
 70
     3
  9
$DIMFRAC
 70
     0
  9
$DIMLDRBLK
  1

  9
$DIMLUNIT
 70
     2
  9
$DIMLWD
 70
    -1
  9
$DIMLWE
 70
    -1
  9
$DIMTMOVE
 70
     0
  9
$LUNITS
 70
     2
  9
$LUPREC
 70
     4
  9
$SKETCHINC
 40
0.1
  9
$FILLETRAD
 40
4.0
  9
$AUNITS
 70
     1
  9
$AUPREC
 70
     3
  9
$MENU
  1
ACAD
  9
$ELEVATION
 40
0.0
  9
$PELEVATION
 40
0.0
  9
$THICKNESS
 40
50.0
  9
$LIMCHECK
 70
     0
  9
$CHAMFERA
 40
0.0
  9
$CHAMFERB
 40
0.0
  9
$CHAMFERC
 40
0.0
  9
$CHAMFERD
 40
0.0
  9
$SKPOLY
 70
     0
  9
$TDCREATE
 40
2452321.396199653
  9
$TDUCREATE
 40
2452321.021199653
  9
$TDUPDATE
 40
2456210.758607778
  9
$TDUUPDATE
 40
2456210.383607778
  9
$TDINDWG
 40
1.0412474884
  9
$TDUSRTIMER
 40
1.0412417361
  9
$USRTIMER
 70
     1
  9
$ANGBASE
 50
0.0
  9
$ANGDIR
 70
     0
  9
$PDMODE
 70
     3
  9
$PDSIZE
 40
-2.0
  9
$PLINEWID
 40
0.0
  9
$SPLFRAME
 70
     0
  9
$SPLINETYPE
 70
     6
  9
$SPLINESEGS
 70
     8
  9
$HANDSEED
  5
2CD4
  9
$SURFTAB1
 70
     6
  9
$SURFTAB2
 70
     6
  9
$SURFTYPE
 70
     6
  9
$SURFU
 70
     6
  9
$SURFV
 70
     6
  9
$UCSBASE
  2

  9
$UCSNAME
  2

  9
$UCSORG
 10
0.0
 20
0.0
 30
0.0
  9
$UCSXDIR
 10
1.0
 20
0.0
 30
0.0
  9
$UCSYDIR
 10
0.0
 20
1.0
 30
0.0
  9
$UCSORTHOREF
  2

  9
$UCSORTHOVIEW
 70
     0
  9
$UCSORGTOP
 10
0.0
 20
0.0
 30
0.0
  9
$UCSORGBOTTOM
 10
0.0
 20
0.0
 30
0.0
  9
$UCSORGLEFT
 10
0.0
 20
0.0
 30
0.0
  9
$UCSORGRIGHT
 10
0.0
 20
0.0
 30
0.0
  9
$UCSORGFRONT
 10
0.0
 20
0.0
 30
0.0
  9
$UCSORGBACK
 10
0.0
 20
0.0
 30
0.0
  9
$PUCSBASE
  2

  9
$PUCSNAME
  2

  9
$PUCSORG
 10
0.0
 20
0.0
 30
0.0
  9
$PUCSXDIR
 10
1.0
 20
0.0
 30
0.0
  9
$PUCSYDIR
 10
0.0
 20
1.0
 30
0.0
  9
$PUCSORTHOREF
  2

  9
$PUCSORTHOVIEW
 70
     0
  9
$PUCSORGTOP
 10
0.0
 20
0.0
 30
0.0
  9
$PUCSORGBOTTOM
 10
0.0
 20
0.0
 30
0.0
  9
$PUCSORGLEFT
 10
0.0
 20
0.0
 30
0.0
  9
$PUCSORGRIGHT
 10
0.0
 20
0.0
 30
0.0
  9
$PUCSORGFRONT
 10
0.0
 20
0.0
 30
0.0
  9
$PUCSORGBACK
 10
0.0
 20
0.0
 30
0.0
  9
$USERI1
 70
     0
  9
$USERI2
 70
     0
  9
$USERI3
 70
     0
  9
$USERI4
 70
     0
  9
$USERI5
 70
     0
  9
$USERR1
 40
20.0
  9
$USERR2
 40
0.0
  9
$USERR3
 40
0.0
  9
$USERR4
 40
0.0
  9
$USERR5
 40
0.0
  9
$WORLDVIEW
 70
     1
  9
$SHADEDGE
 70
     3
  9
$SHADEDIF
 70
    70
  9
$TILEMODE
 70
     1
  9
$MAXACTVP
 70
    64
  9
$PINSBASE
 10
0.0
 20
0.0
 30
0.0
  9
$PLIMCHECK
 70
     0
  9
$PEXTMIN
 10
1.000000000000000E+20
 20
1.000000000000000E+20
 30
1.000000000000000E+20
  9
$PEXTMAX
 10
-1.000000000000000E+20
 20
-1.000000000000000E+20
 30
-1.000000000000000E+20
  9
$PLIMMIN
 10
0.0
 20
0.0
  9
$PLIMMAX
 10
12.0
 20
9.0
  9
$UNITMODE
 70
     0
  9
$VISRETAIN
 70
     1
  9
$PLINEGEN
 70
     0
  9
$PSLTSCALE
 70
     1
  9
$TREEDEPTH
 70
  3020
  9
$CMLSTYLE
  2
Standard
  9
$CMLJUST
 70
     0
  9
$CMLSCALE
 40
1.0
  9
$PROXYGRAPHICS
 70
     1
  9
$MEASUREMENT
 70
     0
  9
$CELWEIGHT
370
    -1
  9
$ENDCAPS
280
     0
  9
$JOINSTYLE
280
     0
  9
$LWDISPLAY
290
     0
  9
$INSUNITS
 70
     0
  9
$HYPERLINKBASE
  1

  9
$STYLESHEET
  1

  9
$XEDIT
290
     1
  9
$CEPSNTYPE
380
     0
  9
$PSTYLEMODE
290
     1
  9
$FINGERPRINTGUID
  2
{CC409C6D-8B7F-40A7-8170-22BB6F70CCE6}
  9
$VERSIONGUID
  2
{A718553B-4334-4635-96AD-A3C86740C8C8}
  9
$EXTNAMES
290
     1
  9
$PSVPSCALE
 40
0.0
  9
$OLESTARTUP
290
     0
  0
ENDSEC
  0
SECTION
  2
CLASSES
  0
CLASS
  1
ACDBDICTIONARYWDFLT
  2
AcDbDictionaryWithDefault
  3
ObjectDBX Classes
 90
        0
280
     0
281
     0
  0
CLASS
  1
MATERIAL
  2
AcDbMaterial
  3
ObjectDBX Classes
 90
     1153
280
     0
281
     0
  0
CLASS
  1
VISUALSTYLE
  2
AcDbVisualStyle
  3
ObjectDBX Classes
 90
     4095
280
     0
281
     0
  0
CLASS
  1
SCALE
  2
AcDbScale
  3
ObjectDBX Classes
 90
     1153
280
     0
281
     0
  0
CLASS
  1
TABLESTYLE
  2
AcDbTableStyle
  3
ObjectDBX Classes
 90
     4095
280
     0
281
     0
  0
CLASS
  1
MLEADERSTYLE
  2
AcDbMLeaderStyle
  3
ACDB_MLEADERSTYLE_CLASS
 90
     4095
280
     0
281
     0
  0
CLASS
  1
AMGSETTINGSOBJ
  2
AmgSettingsObj
  3
"AcadM|Product Description: AutoCAD Mechanical|Company: Autodesk, Inc."
 90
     1024
280
     0
281
     0
  0
CLASS
  1
ACME_DOCUMENT
  2
AcMeDbDoc
  3
AcMeServices
 90
     1024
280
     0
281
     0
  0
CLASS
  1
ACMESCOPE
  2
AcMeScope
  3
AcMeServices
 90
     1024
280
     0
281
     0
  0
CLASS
  1
ACMECOMMANDHISTORY
  2
AcMeCommandHistory
  3
AcMeServices
 90
     1024
280
     0
281
     0
  0
CLASS
  1
ACIMSYSVARMAN
  2
AcImSysVarManager
  3
AcMeServices
 90
     1024
280
     0
281
     0
  0
CLASS
  1
ACIMREALSYSVAR
  2
AcImRealSysVar
  3
AcMeServices
 90
     1024
280
     0
281
     0
  0
CLASS
  1
ACIMINTSYSVAR
  2
AcImIntSysVar
  3
AcMeServices
 90
     1024
280
     0
281
     0
  0
CLASS
  1
ACMEDRAWINGMAN
  2
AcMeDrawingMan
  3
AcMeServices
 90
     1024
280
     0
281
     0
  0
CLASS
  1
ACMEVIEW
  2
AcMeView
  3
AcMeServices
 90
     1024
280
     0
281
     0
  0
CLASS
  1
ACDBENTITYCACHE
  2
AcMeEntityCache
  3
AcMeServices
 90
     1024
280
     0
281
     0
  0
CLASS
  1
GSMANAGER
  2
AcMeGSManager
  3
AcMeServices
 90
     1024
280
     0
281
     0
  0
CLASS
  1
AMDTINTERNALREACTOR
  2
AmdtInternalReactor
  3
AcMeServices
 90
     1024
280
     0
281
     0
  0
CLASS
  1
ACMESTATEMGR
  2
AcMeStateMgr
  3
AcMeServices
 90
     1024
280
     0
281
     0
  0
CLASS
  1
ACGREFMASTER
  2
AcGrefMaster
  3
AcAttribServices
 90
     1024
280
     0
281
     0
  0
CLASS
  1
AM_DRAWING_MGR
  2
AcDmDwgMgr
  3
AcMechDwgViewMgmt
 90
     1024
280
     0
281
     0
  0
CLASS
  1
AM_DWG_DOCUMENT
  2
AcDmDwgDocument
  3
AcMechDwgViewMgmt
 90
     1024
280
     0
281
     0
  0
CLASS
  1
AM_DWG_SHEET
  2
AcDmSheet
  3
AcMechDwgViewMgmt
 90
     1024
280
     0
281
     0
  0
CLASS
  1
AM_VIEWDIMPARMAP
  2
AcDmViewDimParMap
  3
AcMechDwgViewMgmt
 90
     1024
280
     0
281
     0
  0
CLASS
  1
AM_DWGMGR_NAME
  2
AcDmDwgMgrName
  3
AcMechDwgViewMgmt
 90
     1024
280
     0
281
     0
  0
CLASS
  1
ACME_DATABASE
  2
AcMeDbDatabase
  3
AcMeServices
 90
     1024
280
     0
281
     0
  0
CLASS
  1
ACRFINSADJUSTERMGR
  2
AcRfInsAdjusterMgr
  3
AcMeServices
 90
     1024
280
     0
281
     0
  0
CLASS
  1
ACGREFACADMASTER
  2
AcGrefacadMaster
  3
AcGrefServices
 90
     1024
280
     0
281
     0
  0
CLASS
  1
AMDTMENUSTATEMGR
  2
AmdtMenuStateMgr
  3
McadcomServices
 90
     1024
280
     0
281
     0
  0
CLASS
  1
AMDTMCOMMENUSTATE
  2
AmdtMcomMenuState
  3
McadcomServices
 90
     1024
280
     0
281
     0
  0
CLASS
  1
AMIMASTER
  2
AmiMaster
  3
AmiServices
 90
     1024
280
     0
281
     0
  0
CLASS
  1
ASAPP
  2
AcAsAppObject
  3
AutoSurfServices
 90
     1024
280
     0
281
     0
  0
CLASS
  1
IM_STATIC_MAN
  2
AcImStaticVarManager
  3
AcMeServices
 90
     1024
280
     0
281
     0
  0
CLASS
  1
ACIMSTRSYSVAR
  2
AcImStrSysVar
  3
AcMeServices
 90
     1024
280
     0
281
     0
  0
CLASS
  1
ACIMDBLSTATICVAR
  2
AcImDblStaticVar
  3
AcMeServices
 90
     1024
280
     0
281
     0
  0
CLASS
  1
ACIMSTRSTATICVAR
  2
AcImStrStaticVar
  3
AcMeServices
 90
     1024
280
     0
281
     0
  0
CLASS
  1
ACIMINTSTATICVAR
  2
AcImIntStaticVar
  3
AcMeServices
 90
     1024
280
     0
281
     0
  0
CLASS
  1
ACASGREFMASTER
  2
AcAsGrefMaster
  3
AutoSurfResolverServices
 90
     1024
280
     0
281
     0
  0
CLASS
  1
ACADGREFMODULE
  2
AcAdGrefModule
  3
AdGrefServices
 90
     1024
280
     0
281
     0
  0
CLASS
  1
AMDTMAPISURFMOUDULE
  2
AmdtMApiSurfModule
  3
MApiSurfServices
 90
     1024
280
     0
281
     0
  0
CLASS
  1
MAPIAMMOUDLE
  2
MApiAmModule
  3
MApiAmServices
 90
     1024
280
     0
281
     0
  0
CLASS
  1
AMDTADMENUSTATE
  2
AmdtAdMenuState
  3
DesignerServices
 90
     1024
280
     0
281
     0
  0
CLASS
  1
ADAPPL
  2
AcAdAppl
  3
DesignerServices
 90
     1024
280
     0
281
     0
  0
CLASS
  1
DEPMGR
  2
AcAdDepMgr
  3
DesignerServices
 90
     1024
280
     0
281
     0
  0
CLASS
  1
PARAMMGR
  2
AcAdParamMgr
  3
DesignerServices
 90
     1024
280
     0
281
     0
  0
CLASS
  1
PARAMSCOPE
  2
AcAdParamScope
  3
DesignerServices
 90
     1024
280
     0
281
     0
  0
CLASS
  1
NAMEDAPPL
  2
AcAdNamedAppl
  3
DesignerServices
 90
     1024
280
     0
281
     0
  0
CLASS
  1
AMDTDMMENUSTATE
  2
AmdtDmMenuState
  3
AcMechDwgViewMgmt
 90
     1024
280
     0
281
     0
  0
CLASS
  1
MAPIADMODULE
  2
MApiAdModule
  3
MApiAdServices
 90
     1024
280
     0
281
     0
  0
CLASS
  1
AMDTAMMENUSTATE
  2
AmdtAmMenuState
  3
DesignerAssemblies
 90
     1024
280
     0
281
     0
  0
CLASS
  1
ACAMPROJECT
  2
AcAmProject
  3
DesignerAssemblies
 90
     1024
280
     0
281
     0
  0
CLASS
  1
ACAMGRCOMPDEF
  2
AcAmGrCompDef
  3
DesignerAssemblies
 90
     1024
280
     0
281
     0
  0
CLASS
  1
ACCMCONTEXT
  2
AcCmContext
  3
DesignerAssemblies
 90
     1024
280
     0
281
     0
  0
CLASS
  1
ACAMCOMPDEF
  2
AcAmCompDef
  3
DesignerAssemblies
 90
     1024
280
     0
281
     0
  0
CLASS
  1
ACAMCOMPDEFMGR
  2
AcAmCompDefMgr
  3
DesignerAssemblies
 90
     1024
280
     0
281
     0
  0
CLASS
  1
AMCONTEXTMGR
  2
AcAmContextMgr
  3
DesignerAssemblies
 90
     1024
280
     0
281
     0
  0
CLASS
  1
ACAMCONTEXTMODELER
  2
AcAmContextModeler
  3
DesignerAssemblies
 90
     1024
280
     0
281
     0
  0
CLASS
  1
ACMDATADICTIONARY
  2
AcmDataDictionary
  3
"AcmSymBB|Product Description: AutoCAD Mechanical|Company: Autodesk, Inc."
 90
     1024
280
     0
281
     0
  0
CLASS
  1
ACMDATAENTRYBLOCK
  2
AcmDataEntryBlock
  3
AcmSymBB|Product Description: AutoCAD Mechanical|Company: Autodesk, Inc.
 90
     1024
280
     0
281
     0
  0
CLASS
  1
ACRFATTGENMGR
  2
AcRfAttGeneralMgr
  3
AcAttribServices
 90
     1024
280
     0
281
     0
  0
CLASS
  1
ACRFOBJATTMGR
  2
AcRfObjAttGroupMgr
  3
AcAttribServices
 90
     1024
280
     0
281
     0
  0
CLASS
  1
ACRFMCADAPIATTHOLDER
  2
AcRfMCADAPIAttHolder
  3
AcAttribServices
 90
     1024
280
     0
281
     0
  0
CLASS
  1
AMDTSYSATTR
  2
AmdtSystemAttribute
  3
AcAttribServices
 90
     1024
280
     0
281
     0
  0
CLASS
  1
CATALOGSTATE
  2
AcAmCatalogState
  3
DesignerAssemblies
 90
     1024
280
     0
281
     0
  0
CLASS
  1
ACAMGRCOMPDEFSET
  2
AcAmGrCompDefSet
  3
DesignerAssemblies
 90
     1024
280
     0
281
     0
  0
CLASS
  1
AMDTBROWSERDBTAB
  2
AmdtBrowserDbTab
  3
McadcomServices
 90
     1024
280
     0
281
     0
  0
CLASS
  1
CBROWSERAPPOBJECT
  2
CBrowserAppObject
  3
McadcomServices
 90
     1024
280
     0
281
     0
  0
CLASS
  1
DM_PLACEHOLDER
  2
AcDmSelsetPlaceholder
  3
AcMechDwgViewMgmt
 90
     1024
280
     0
281
     0
  0
CLASS
  1
ACMSTANDARDANSI
  2
AcmStandardANSI
  3
"Amdt_StdImp|Product Description: AutoCAD Mechanical|Company: Autodesk, Inc."
 90
     1024
280
     0
281
     0
  0
CLASS
  1
ACMSURFSTANDARDANSI
  2
AcmSurfTextStdANSI
  3
"Amdt_StdImp|Product Description: AutoCAD Mechanical|Company: Autodesk, Inc."
 90
     1024
280
     0
281
     0
  0
CLASS
  1
ACMFCFSTANDARDANSI
  2
AcmFCFStdANSI
  3
"Amdt_StdImp|Product Description: AutoCAD Mechanical|Company: Autodesk, Inc."
 90
     1024
280
     0
281
     0
  0
CLASS
  1
ACMWELDSTANDARDANSI
  2
AcmWeldingStdANSI
  3
"Amdt_StdImp|Product Description: AutoCAD Mechanical|Company: Autodesk, Inc."
 90
     1024
280
     0
281
     0
  0
CLASS
  1
ACMIDSTANDARDANSI
  2
AcmIdStdANSI
  3
"Amdt_StdImp|Product Description: AutoCAD Mechanical|Company: Autodesk, Inc."
 90
     1024
280
     0
281
     0
  0
CLASS
  1
ACMDATUMSTANDARDANSI
  2
AcmDatumStdANSI
  3
"Amdt_StdImp|Product Description: AutoCAD Mechanical|Company: Autodesk, Inc."
 90
     1024
280
     0
281
     0
  0
CLASS
  1
ACMBOMSTANDARDANSI
  2
AcmBOMStdANSI
  3
"Amdt_StdImp|Product Description: AutoCAD Mechanical|Company: Autodesk, Inc."
 90
     1024
280
     0
281
     0
  0
CLASS
  1
ACMDETAILSTANDARDANSI
  2
AmdtDetailSymStdANSI
  3
"Amdt_StdImp|Product Description: AutoCAD Mechanical|Company: Autodesk, Inc."
 90
     1024
280
     0
281
     0
  0
CLASS
  1
ACMSECTIONSTANDARDANSI
  2
AmdtSectionSymStdANSI
  3
"Amdt_StdImp|Product Description: AutoCAD Mechanical|Company: Autodesk, Inc."
 90
     1024
280
     0
281
     0
  0
CLASS
  1
ACMCENTERLINESTANDARDANSI
  2
AmdtCenterLineStdANSI
  3
"Amdt_StdImp|Product Description: AutoCAD Mechanical|Company: Autodesk, Inc."
 90
     1024
280
     0
281
     0
  0
CLASS
  1
ACMTHREADLINESTANDARDANSI
  2
AmdtThreadLineStdANSI
  3
"Amdt_StdImp|Product Description: AutoCAD Mechanical|Company: Autodesk, Inc."
 90
     1024
280
     0
281
     0
  0
CLASS
  1
ACMNOTESTANDARDANSI
  2
AmdtNoteStdANSI
  3
"Amdt_StdImp|Product Description: AutoCAD Mechanical|Company: Autodesk, Inc."
 90
     1024
280
     0
281
     0
  0
CLASS
  1
ACMTAPERSTANDARDANSI
  2
AcmTaperStdANSI
  3
"Amdt_StdImp|Product Description: AutoCAD Mechanical|Company: Autodesk, Inc."
 90
     1024
280
     0
281
     0
  0
CLASS
  1
ACMANOOTATIONVIEWSTANDARDANSI
  2
AmdtAnViewStdANSI
  3
"Amdt_StdImp|Product Description: AutoCAD Mechanical|Company: Autodesk, Inc."
 90
     1024
280
     0
281
     0
  0
CLASS
  1
ACAMGLAYSTD
  2
AcAmgLayStd
  3
"AmgLay|Product Description: AutoCAD Mechanical|Company: Autodesk, Inc."
 90
     1024
280
     0
281
     0
  0
CLASS
  1
ACAMGDIMSTD
  2
AcAmgDimStd
  3
"AmgDim|Product Description: AutoCAD Mechanical|Company: Autodesk, Inc."
 90
     1024
280
     0
281
     0
  0
CLASS
  1
ACAMGHOLECHARTSTDANSI
  2
AcAmgHoleChartStdANSI
  3
AmgDim|Product Description: AutoCAD Mechanical|Company: Autodesk, Inc.
 90
     1024
280
     0
281
     0
  0
CLASS
  1
AMGOBJPROPCFG
  2
AmgObjPropCfg
  3
"AmgLay|Product Description: AutoCAD Mechanical|Company: Autodesk, Inc."
 90
     1025
280
     0
281
     0
  0
CLASS
  1
ACAMGTITLESTD
  2
AcAmgTitleStd
  3
"AmgTitle|Product Description: AutoCAD Mechanical|Company: Autodesk, Inc."
 90
     4095
280
     0
281
     0
  0
CLASS
  1
AMDTNOTETEMPLATEDB
  2
AmdtNoteTemplateDB
  3
AcmSymBB|Product Description: AutoCAD Mechanical|Company: Autodesk, Inc.
 90
     1024
280
     0
281
     0
  0
CLASS
  1
LAYER_INDEX
  2
AcDbLayerIndex
  3
ObjectDBX Classes
 90
        0
280
     0
281
     0
  0
CLASS
  1
IDBUFFER
  2
AcDbIdBuffer
  3
ObjectDBX Classes
 90
        0
280
     0
281
     0
  0
CLASS
  1
DICTIONARYVAR
  2
AcDbDictionaryVar
  3
ObjectDBX Classes
 90
        0
280
     0
281
     0
  0
CLASS
  1
CELLSTYLEMAP
  2
AcDbCellStyleMap
  3
ObjectDBX Classes
 90
     1152
280
     0
281
     0
  0
CLASS
  1
ACDBPLACEHOLDER
  2
AcDbPlaceHolder
  3
ObjectDBX Classes
 90
        0
280
     0
281
     0
  0
CLASS
  1
LAYOUT
  2
AcDbLayout
  3
ObjectDBX Classes
 90
        0
280
     0
281
     0
  0
ENDSEC
  0
SECTION
  2
TABLES
  0
TABLE
  2
VPORT
  5
2A72
330
0
100
AcDbSymbolTable
 70
     1
  0
VPORT
  5
2AE2
330
2A72
100
AcDbSymbolTableRecord
100
AcDbViewportTableRecord
  2
*ACTIVE
 70
     0
 10
0.0
 20
0.0
 11
1.0
 21
1.0
 12
0.0
 22
0.0
 13
0.0
 23
0.0
 14
1.0
 24
1.0
 15
0.0
 25
0.0
 16
0.0
 26
0.0
 36
1.0
 17
54.6089311300413
 27
-110.2294825369371
 37
0.0
 40
1693.385659468424
 41
1.712555066079295
 42
50.0
 43
0.0
 44
0.0
 50
0.0
 51
0.0
 71
     0
 72
   100
 73
     1
 74
     0
 75
     0
 76
     0
 77
     0
 78
     0
281
     0
 65
     0
110
0.0
120
0.0
130
0.0
111
1.0
121
0.0
131
0.0
112
0.0
122
1.0
132
0.0
 79
     0
146
0.0
  0
ENDTAB
  0
TABLE
  2
LTYPE
  5
2A6F
330
0
100
AcDbSymbolTable
 70
    19
  0
LTYPE
  5
2ACC
330
2A6F
100
AcDbSymbolTableRecord
100
AcDbLinetypeTableRecord
  2
ByBlock
 70
     0
  3

 72
    65
 73
     0
 40
0.0
  0
LTYPE
  5
2ACD
330
2A6F
100
AcDbSymbolTableRecord
100
AcDbLinetypeTableRecord
  2
ByLayer
 70
     0
  3

 72
    65
 73
     0
 40
0.0
  0
LTYPE
  5
2ACE
330
2A6F
100
AcDbSymbolTableRecord
100
AcDbLinetypeTableRecord
  2
CONTINUOUS
 70
     0
  3
実線
 72
    65
 73
     0
 40
0.0
  0
LTYPE
  5
2AE3
330
2A6F
100
AcDbSymbolTableRecord
100
AcDbLinetypeTableRecord
  2
DASHDOT
 70
     0
  3
____ _ ____ _ ____ _ ____ _ ____ _ ____ _ ____
 72
    65
 73
     4
 40
5.5
 49
4.0
 74
     0
 49
-0.6
 74
     0
 49
0.3
 74
     0
 49
-0.6
 74
     0
  0
LTYPE
  5
2AE4
330
2A6F
100
AcDbSymbolTableRecord
100
AcDbLinetypeTableRecord
  2
HIDDEN
 70
     0
  3
Hidden __ __ __ __ __ __ __ __ __ __ __ __ __ _
 72
    65
 73
     2
 40
0.375
 49
0.25
 74
     0
 49
-0.125
 74
     0
  0
LTYPE
  5
2AE5
330
2A6F
100
AcDbSymbolTableRecord
100
AcDbLinetypeTableRecord
  2
PHANTOM2
 70
     0
  3
Phantom (.5x) ___ _ _ ___ _ _ ___ _ _ ___ _ _
 72
    65
 73
     6
 40
1.25
 49
0.625
 74
     0
 49
-0.125
 74
     0
 49
0.125
 74
     0
 49
-0.125
 74
     0
 49
0.125
 74
     0
 49
-0.125
 74
     0
  0
LTYPE
  5
2AE6
330
2A6F
100
AcDbSymbolTableRecord
100
AcDbLinetypeTableRecord
  2
CENTER
 70
     0
  3
Center ____ _ ____ _ ____ _ ____ _ ____ _ ____
 72
    65
 73
     4
 40
2.0
 49
1.25
 74
     0
 49
-0.25
 74
     0
 49
0.25
 74
     0
 49
-0.25
 74
     0
  0
LTYPE
  5
2AE7
330
2A6F
100
AcDbSymbolTableRecord
100
AcDbLinetypeTableRecord
  2
ASULTYPE
 70
     0
  3
実線
 72
    65
 73
     2
 40
3.0
 49
2.5
 74
     0
 49
0.5
 74
     0
  0
LTYPE
  5
2AE8
330
2A6F
100
AcDbSymbolTableRecord
100
AcDbLinetypeTableRecord
  2
ASVLTYPE
 70
     0
  3
__ __ __ __ __ __ __ __ __ __ __ __ __ __ __ __ __ __ __ __ __
 72
    65
 73
     2
 40
0.75
 49
0.5
 74
     0
 49
-0.25
 74
     0
  0
LTYPE
  5
2AE9
330
2A6F
100
AcDbSymbolTableRecord
100
AcDbLinetypeTableRecord
  2
AM_ISO02W050
 70
     0
  3
__ __ __ __ __ __ __ __ __ __ __ __ __ __ __
 72
    65
 73
     2
 40
7.5
 49
6.0
 74
     0
 49
-1.5
 74
     0
  0
LTYPE
  5
2AEA
330
2A6F
100
AcDbSymbolTableRecord
100
AcDbLinetypeTableRecord
  2
AM_ISO08W050
 70
     0
  3
____ . ____ . ____ . ____ . ____ . ____ . ____
 72
    65
 73
     4
 40
18.0
 49
12.0
 74
     0
 49
-1.5
 74
     0
 49
3.0
 74
     0
 49
-1.5
 74
     0
  0
LTYPE
  5
2AEB
330
2A6F
100
AcDbSymbolTableRecord
100
AcDbLinetypeTableRecord
  2
AM_ISO09W050
 70
     0
  3
_____ . . _____ . . _____ . . ____ .. ____
 72
    65
 73
     6
 40
22.5
 49
12.0
 74
     0
 49
-1.5
 74
     0
 49
3.0
 74
     0
 49
-1.5
 74
     0
 49
3.0
 74
     0
 49
-1.5
 74
     0
  0
LTYPE
  5
2AEC
330
2A6F
100
AcDbSymbolTableRecord
100
AcDbLinetypeTableRecord
  2
AMCONSTR
 70
     0
  3
_______________________
 72
    65
 73
     2
 40
9999.0
 49
9999.0
 74
     0
 49
0.0
 74
     0
  0
LTYPE
  5
2AED
330
2A6F
100
AcDbSymbolTableRecord
100
AcDbLinetypeTableRecord
  2
AM_ISO08W050X2
 70
     0
  3
__ . __ . __ . __ . __ . __
 72
    65
 73
     4
 40
9.0
 49
6.0
 74
     0
 49
-0.75
 74
     0
 49
1.5
 74
     0
 49
-0.75
 74
     0
  0
LTYPE
  5
2AEE
330
2A6F
100
AcDbSymbolTableRecord
100
AcDbLinetypeTableRecord
  2
AM_ISO02W050X2
 70
     0
  3
 _ _ _ _ _ _ _ _ _ _ _ _
 72
    65
 73
     2
 40
3.75
 49
3.0
 74
     0
 49
-0.75
 74
     0
  0
LTYPE
  5
2AEF
330
2A6F
100
AcDbSymbolTableRecord
100
AcDbLinetypeTableRecord
  2
AMZIGZAG
 70
     0
  3
/\/-/\/-/\/-/\/-/\/-/\/
 72
    65
 73
     2
 40
11.0001
 49
0.0001
 74
     0
 49
-11.0
 74
     0
  0
LTYPE
  5
2AF0
330
2A6F
100
AcDbSymbolTableRecord
100
AcDbLinetypeTableRecord
  2
CENTER2
 70
     0
  3
Center (.5x) ___ _ ___ _ ___ _ ___ _ ___ _ ___
 72
    65
 73
     4
 40
1.125
 49
0.75
 74
     0
 49
-0.125
 74
     0
 49
0.125
 74
     0
 49
-0.125
 74
     0
  0
LTYPE
  5
2AF1
330
2A6F
100
AcDbSymbolTableRecord
100
AcDbLinetypeTableRecord
  2
HIDDEN2
 70
     0
  3
Hidden (.5x) _ _ _ _ _ _ _ _ _ _ _ _ _ _ _ _ _
 72
    65
 73
     2
 40
0.1875
 49
0.125
 74
     0
 49
-0.0625
 74
     0
  0
LTYPE
  5
2AF2
330
2A6F
100
AcDbSymbolTableRecord
100
AcDbLinetypeTableRecord
  2
AMZIGZAG2
 70
     0
  3
/\/-/\/-/\/-/\/-/\/-/\/
 72
    65
 73
     2
 40
0.4401
 49
0.0001
 74
     0
 49
-0.4400000000000003
 74
     0
  0
LTYPE
  5
2AF3
330
2A6F
100
AcDbSymbolTableRecord
100
AcDbLinetypeTableRecord
  2
ACANSTGB
 70
     0
  3
__ . . __ . .
 72
    65
 73
     6
 40
0.35433070866
 49
0.15748031496
 74
     0
 49
-0.03937007874
 74
     0
 49
0.03937007874
 74
     0
 49
-0.03937007874
 74
     0
 49
0.03937007874
 74
     0
 49
-0.03937007874
 74
     0
  0
LTYPE
  5
2AF4
330
2A6F
100
AcDbSymbolTableRecord
100
AcDbLinetypeTableRecord
  2
ACANSTGL
 70
     0
  3
_ _ _ _ _
 72
    65
 73
     2
 40
0.11811023622
 49
0.07874015748
 74
     0
 49
-0.03937007874
 74
     0
  0
ENDTAB
  0
TABLE
  2
LAYER
  5
2A6C
330
0
100
AcDbSymbolTable
 70
    12
  0
LAYER
  5
2AC6
102
{ACAD_XDICTIONARY
360
2C93
102
}
330
2A6C
100
AcDbSymbolTableRecord
100
AcDbLayerTableRecord
  2
0
 70
     0
 62
     7
  6
CONTINUOUS
370
    -3
390
2A79
  0
LAYER
  5
2AF5
102
{ACAD_XDICTIONARY
360
2C95
102
}
330
2A6C
100
AcDbSymbolTableRecord
100
AcDbLayerTableRecord
  2
OUTLINE
 70
     0
 62
     3
  6
CONTINUOUS
370
    -3
390
2A79
  0
LAYER
  5
2AF6
102
{ACAD_XDICTIONARY
360
2C97
102
}
330
2A6C
100
AcDbSymbolTableRecord
100
AcDbLayerTableRecord
  2
SIZE
 70
     0
 62
    30
  6
CONTINUOUS
370
    -3
390
2A79
  0
LAYER
  5
2AF7
102
{ACAD_XDICTIONARY
360
2C99
102
}
330
2A6C
100
AcDbSymbolTableRecord
100
AcDbLayerTableRecord
  2
BASIS
 70
     0
 62
     6
  6
DASHDOT
370
    -3
390
2A79
  0
LAYER
  5
2AF8
102
{ACAD_XDICTIONARY
360
2C9B
102
}
330
2A6C
100
AcDbSymbolTableRecord
100
AcDbLayerTableRecord
  2
DETAIL
 70
     0
 62
     5
  6
CONTINUOUS
370
    -3
390
2A79
  0
LAYER
  5
2AF9
102
{ACAD_XDICTIONARY
360
2C9D
102
}
330
2A6C
100
AcDbSymbolTableRecord
100
AcDbLayerTableRecord
  2
ARRANGE
 70
     0
 62
     1
  6
CONTINUOUS
370
    -3
390
2A79
  0
LAYER
  5
2AFA
330
2A6C
100
AcDbSymbolTableRecord
100
AcDbLayerTableRecord
  2
DEFPOINTS
 70
     0
 62
     7
  6
CONTINUOUS
290
     0
370
    -3
390
2A79
  0
LAYER
  5
2AFB
102
{ACAD_XDICTIONARY
360
2C9F
102
}
330
2A6C
100
AcDbSymbolTableRecord
100
AcDbLayerTableRecord
  2
ETC
 70
     0
 62
    61
  6
CONTINUOUS
370
    -3
390
2A79
  0
LAYER
  5
2AFC
102
{ACAD_XDICTIONARY
360
2CA1
102
}
330
2A6C
100
AcDbSymbolTableRecord
100
AcDbLayerTableRecord
  2
FIX
 70
     0
 62
    11
  6
CONTINUOUS
370
    -3
390
2A79
  0
LAYER
  5
2AFD
102
{ACAD_XDICTIONARY
360
2CA3
102
}
330
2A6C
100
AcDbSymbolTableRecord
100
AcDbLayerTableRecord
  2
NOTE
 70
     0
 62
     4
  6
CONTINUOUS
370
    -3
390
2A79
  0
LAYER
  5
2AFE
102
{ACAD_XDICTIONARY
360
2CA5
102
}
330
2A6C
100
AcDbSymbolTableRecord
100
AcDbLayerTableRecord
  2
SERVICESPACE
 70
     0
 62
     2
  6
DASHDOT
370
    -3
390
2A79
  0
LAYER
  5
2AFF
102
{ACAD_XDICTIONARY
360
2CA7
102
}
330
2A6C
100
AcDbSymbolTableRecord
100
AcDbLayerTableRecord
  2
SYMBOLLINE
 70
     0
 62
    15
  6
CONTINUOUS
370
    -3
390
2A79
  0
ENDTAB
  0
TABLE
  2
STYLE
  5
2A6D
330
0
100
AcDbSymbolTable
 70
     5
  0
STYLE
  5
2AC7
330
2A6D
100
AcDbSymbolTableRecord
100
AcDbTextStyleTableRecord
  2
STANDARD
 70
     0
 40
64.0
 41
0.9
 50
0.0
 71
     0
 42
64.0
  3
SIMPLEX.shx
  4
BIGFONT.shx
  0
STYLE
  5
2ACB
330
2A6D
100
AcDbSymbolTableRecord
100
AcDbTextStyleTableRecord
  2
ANNOTATIVE
 70
     0
 40
0.0
 41
1.0
 50
0.0
 71
     0
 42
0.2
  3
txt
  4

1001
ACADANNOTATIVE
1000
AnnotativeData
1002
{
1070
     1
1070
     1
1002
}
  0
STYLE
  5
2B00
330
2A6D
100
AcDbSymbolTableRecord
100
AcDbTextStyleTableRecord
  2

 70
     1
 40
0.0
 41
1.0
 50
0.0
 71
     0
 42
64.0
  3
genltshp.shx
  4

  0
STYLE
  5
2B01
330
2A6D
100
AcDbSymbolTableRecord
100
AcDbTextStyleTableRecord
  2
ACANSTS
 70
     0
 40
1.0
 41
1.0
 50
0.0
 71
     0
 42
64.0
  3
romans.shx
  4
extfont.shx
  0
STYLE
  5
2B02
330
2A6D
100
AcDbSymbolTableRecord
100
AcDbTextStyleTableRecord
  2
ACANSGDT
 70
     0
 40
0.0
 41
1.0
 50
0.0
 71
     0
 42
64.0
  3
amgdt.shx
  4

  0
ENDTAB
  0
TABLE
  2
VIEW
  5
2A70
330
0
100
AcDbSymbolTable
 70
     1
  0
VIEW
  5
2B03
330
2A70
100
AcDbSymbolTableRecord
100
AcDbViewTableRecord
  2
ALL
 70
     0
 40
4282.619807999997
 10
0.0
 20
41.30990399999999
 41
5940.0
 11
0.0
 21
0.0
 31
1.0
 12
0.0
 22
0.0
 32
0.0
 42
50.0
 43
0.0
 44
0.0
 50
0.0
 71
     0
281
     0
 72
     1
110
0.0
120
0.0
130
0.0
111
1.0
121
0.0
131
0.0
112
0.0
122
1.0
132
0.0
 79
     0
146
0.0
  0
ENDTAB
  0
TABLE
  2
UCS
  5
2A71
330
0
100
AcDbSymbolTable
 70
     0
  0
ENDTAB
  0
TABLE
  2
APPID
  5
2A73
330
0
100
AcDbSymbolTable
 70
    29
  0
APPID
  5
2AC8
330
2A73
100
AcDbSymbolTableRecord
100
AcDbRegAppTableRecord
  2
ACAD
 70
     0
  0
APPID
  5
2ACF
330
2A73
100
AcDbSymbolTableRecord
100
AcDbRegAppTableRecord
  2
ACADANNOTATIVE
 70
     0
  0
APPID
  5
2AD9
330
2A73
100
AcDbSymbolTableRecord
100
AcDbRegAppTableRecord
  2
ACAD_MLEADERVER
 70
     0
  0
APPID
  5
2B04
330
2A73
100
AcDbSymbolTableRecord
100
AcDbRegAppTableRecord
  2
GENIUS_GENDIM_13
 70
     0
  0
APPID
  5
2B05
330
2A73
100
AcDbSymbolTableRecord
100
AcDbRegAppTableRecord
  2
GENIUS_GENDTOL_13
 70
     0
  0
APPID
  5
2B06
330
2A73
100
AcDbSymbolTableRecord
100
AcDbRegAppTableRecord
  2
GENIUS_GE3DTOL_13
 70
     0
  0
APPID
  5
2B07
330
2A73
100
AcDbSymbolTableRecord
100
AcDbRegAppTableRecord
  2
MCAD_NO_VIS
 70
     0
  0
APPID
  5
2B08
330
2A73
100
AcDbSymbolTableRecord
100
AcDbRegAppTableRecord
  2
ACAD_TEMP_GRAPHIC
 70
     0
  0
APPID
  5
2B09
330
2A73
100
AcDbSymbolTableRecord
100
AcDbRegAppTableRecord
  2
AD_DRAW
 70
     0
  0
APPID
  5
2B0A
330
2A73
100
AcDbSymbolTableRecord
100
AcDbRegAppTableRecord
  2
ACATTRIBSERVICES
 70
     0
  0
APPID
  5
2B0B
330
2A73
100
AcDbSymbolTableRecord
100
AcDbRegAppTableRecord
  2
ASURF_PCURVE_APPNAME
 70
     0
  0
APPID
  5
2B0C
330
2A73
100
AcDbSymbolTableRecord
100
AcDbRegAppTableRecord
  2
AMG_3D2D_5_0
 70
     0
  0
APPID
  5
2B0D
330
2A73
100
AcDbSymbolTableRecord
100
AcDbRegAppTableRecord
  2
DESIGNERASSEMBLIES
 70
     0
  0
APPID
  5
2B0E
330
2A73
100
AcDbSymbolTableRecord
100
AcDbRegAppTableRecord
  2
ACADM_DIM_EDIT
 70
     0
  0
APPID
  5
2B0F
330
2A73
100
AcDbSymbolTableRecord
100
AcDbRegAppTableRecord
  2
AMDT_DM_ADJ
 70
     0
  0
APPID
  5
2B10
330
2A73
100
AcDbSymbolTableRecord
100
AcDbRegAppTableRecord
  2
ACAD_DSTYLE_DIMARC_LENGTH_
 70
     0
  0
APPID
  5
2B11
330
2A73
100
AcDbSymbolTableRecord
100
AcDbRegAppTableRecord
  2
ACAD_DSTYLE_DIMJOGGED_JOGA
 70
     0
  0
APPID
  5
2B12
330
2A73
100
AcDbSymbolTableRecord
100
AcDbRegAppTableRecord
  2
ACAD_PSEXT
 70
     0
  0
APPID
  5
2B13
330
2A73
100
AcDbSymbolTableRecord
100
AcDbRegAppTableRecord
  2
ACAD_EXEMPT_FROM_CAD_STANDARDS
 70
     0
  0
APPID
  5
2B14
330
2A73
100
AcDbSymbolTableRecord
100
AcDbRegAppTableRecord
  2
ACAD_DSTYLE_DIMJAG
 70
     0
  0
APPID
  5
2B15
330
2A73
100
AcDbSymbolTableRecord
100
AcDbRegAppTableRecord
  2
ACAD_DSTYLE_DIMTALN
 70
     0
  0
APPID
  5
2B16
330
2A73
100
AcDbSymbolTableRecord
100
AcDbRegAppTableRecord
  2
AMG_3D2D_5_00
 70
     0
  0
APPID
  5
2B17
330
2A73
100
AcDbSymbolTableRecord
100
AcDbRegAppTableRecord
  2
AMG_3D2D_5_01
 70
     0
  0
APPID
  5
2B18
330
2A73
100
AcDbSymbolTableRecord
100
AcDbRegAppTableRecord
  2
AMG_3D2D_5_02
 70
     0
  0
APPID
  5
2C3A
330
2A73
100
AcDbSymbolTableRecord
100
AcDbRegAppTableRecord
  2
AMG_3D2D_5.0
 70
     0
  0
APPID
  5
2CD0
330
2A73
100
AcDbSymbolTableRecord
100
AcDbRegAppTableRecord
  2
ACAD_DSTYLE_DIMARC_LENGTH_SYMBOL
 70
     0
  0
APPID
  5
2CD1
330
2A73
100
AcDbSymbolTableRecord
100
AcDbRegAppTableRecord
  2
ACAD_DSTYLE_DIM_LINETYPE
 70
     0
  0
APPID
  5
2CD2
330
2A73
100
AcDbSymbolTableRecord
100
AcDbRegAppTableRecord
  2
ACAD_DSTYLE_DIM_EXT1_LINETYPE
 70
     0
  0
APPID
  5
2CD3
330
2A73
100
AcDbSymbolTableRecord
100
AcDbRegAppTableRecord
  2
ACAD_DSTYLE_DIM_EXT2_LINETYPE
 70
     0
  0
ENDTAB
  0
TABLE
  2
DIMSTYLE
  5
2A74
330
0
100
AcDbSymbolTable
 70
    10
100
AcDbDimStyleTable
 71
     1
340
2B19
  0
DIMSTYLE
105
2AC9
330
2A74
100
AcDbSymbolTableRecord
100
AcDbDimStyleTableRecord
  2
STANDARD
 70
     0
 41
12.0
 42
20.0
 44
20.0
 77
     1
 78
     8
140
64.0
141
0.0
147
10.0
275
     1
279
     2
284
     7
285
     7
286
     7
340
2AC7
  0
DIMSTYLE
105
2ACA
330
2A74
100
AcDbSymbolTableRecord
100
AcDbDimStyleTableRecord
  2
ANNOTATIVE
 70
     0
275
     1
279
     2
284
     7
285
     7
286
     7
340
2AC7
1001
ACADANNOTATIVE
1000
AnnotativeData
1002
{
1070
     1
1070
     1
1002
}
  0
DIMSTYLE
105
2B19
330
2A74
100
AcDbSymbolTableRecord
100
AcDbDimStyleTableRecord
  2
AM_ANSI
 70
     0
  4
mm
 41
0.12
 42
0.05
 43
0.5
 44
0.1
 47
0.1
 48
0.1
 78
     7
 79
     2
140
0.12
141
0.0
146
0.71
147
0.06
176
   256
177
   256
178
     2
274
     4
284
     7
340
2AC7
371
    -1
372
    -1
1001
ACAD_DSTYLE_DIMARC_LENGTH_SYMBOL
1070
   379
1070
     1
1001
ACAD_DSTYLE_DIM_LINETYPE
1070
   380
1005
2ACC
1001
ACAD_DSTYLE_DIM_EXT1_LINETYPE
1070
   381
1005
2ACC
1001
ACAD_DSTYLE_DIM_EXT2_LINETYPE
1070
   382
1005
2ACC
  0
DIMSTYLE
105
2B1A
330
2A74
100
AcDbSymbolTableRecord
100
AcDbDimStyleTableRecord
  2
AM_ANSI$3
 70
     0
  4
mm
 41
0.12
 42
0.05
 43
0.5
 44
0.1
 47
0.1
 48
0.1
 78
     7
 79
     2
140
0.12
141
0.0
146
0.71
147
0.06
176
   256
177
   256
178
     2
274
     4
284
     7
288
     1
289
     0
340
2AC7
371
    -1
372
    -1
1001
ACAD_DSTYLE_DIMARC_LENGTH_SYMBOL
1070
   379
1070
     1
1001
ACAD_DSTYLE_DIM_LINETYPE
1070
   380
1005
2ACC
1001
ACAD_DSTYLE_DIM_EXT1_LINETYPE
1070
   381
1005
2ACC
1001
ACAD_DSTYLE_DIM_EXT2_LINETYPE
1070
   382
1005
2ACC
  0
DIMSTYLE
105
2B1B
330
2A74
100
AcDbSymbolTableRecord
100
AcDbDimStyleTableRecord
  2
AM_ANSI$4
 70
     0
  4
mm
 41
0.12
 42
0.05
 43
0.5
 44
0.1
 47
0.1
 48
0.1
 78
     7
 79
     2
140
0.12
141
0.0
146
0.71
147
0.06
176
   256
177
   256
178
     2
274
     4
284
     7
340
2AC7
371
    -1
372
    -1
1001
ACAD_DSTYLE_DIMARC_LENGTH_SYMBOL
1070
   379
1070
     1
1001
ACAD_DSTYLE_DIM_LINETYPE
1070
   380
1005
2ACC
1001
ACAD_DSTYLE_DIM_EXT1_LINETYPE
1070
   381
1005
2ACC
1001
ACAD_DSTYLE_DIM_EXT2_LINETYPE
1070
   382
1005
2ACC
  0
DIMSTYLE
105
2B1C
330
2A74
100
AcDbSymbolTableRecord
100
AcDbDimStyleTableRecord
  2
AM_ANSI$7
 70
     0
  4
mm
 41
0.12
 42
0.05
 43
0.5
 44
0.1
 47
0.1
 48
0.1
 78
     7
 79
     2
140
0.12
141
0.0
146
0.71
147
0.06
176
   256
177
   256
178
     2
274
     4
284
     7
340
2AC7
371
    -1
372
    -1
1001
ACAD_DSTYLE_DIMARC_LENGTH_SYMBOL
1070
   379
1070
     1
1001
ACAD_DSTYLE_DIM_LINETYPE
1070
   380
1005
2ACC
1001
ACAD_DSTYLE_DIM_EXT1_LINETYPE
1070
   381
1005
2ACC
1001
ACAD_DSTYLE_DIM_EXT2_LINETYPE
1070
   382
1005
2ACC
  0
DIMSTYLE
105
2B1D
330
2A74
100
AcDbSymbolTableRecord
100
AcDbDimStyleTableRecord
  2
AM_ANSI$SF
 70
     0
  4
mm
 41
0.12
 42
0.05
 43
0.5
 44
0.1
 47
0.1
 48
0.1
 75
     1
 76
     1
 78
     7
 79
     2
140
0.12
141
0.0
146
0.71
147
0.06
176
   256
177
   256
178
     2
274
     4
284
     7
340
2AC7
371
    -1
372
    -1
1001
ACAD_DSTYLE_DIMARC_LENGTH_SYMBOL
1070
   379
1070
     1
1001
ACAD_DSTYLE_DIM_LINETYPE
1070
   380
1005
2ACC
1001
ACAD_DSTYLE_DIM_EXT1_LINETYPE
1070
   381
1005
2ACC
1001
ACAD_DSTYLE_DIM_EXT2_LINETYPE
1070
   382
1005
2ACC
  0
DIMSTYLE
105
2B1E
330
2A74
100
AcDbSymbolTableRecord
100
AcDbDimStyleTableRecord
  2
AM_ANSI$SH
 70
     0
  4
mm
 41
0.12
 42
0.05
 43
0.5
 44
0.1
 47
0.1
 48
0.1
 75
     1
 76
     1
 78
     7
 79
     2
140
0.12
141
0.0
146
0.71
147
0.06
173
     1
176
   256
177
   256
178
     2
274
     4
284
     7
340
2AC7
343
2B3E
371
    -1
372
    -1
1001
ACAD_DSTYLE_DIMARC_LENGTH_SYMBOL
1070
   379
1070
     1
1001
ACAD_DSTYLE_DIM_LINETYPE
1070
   380
1005
2ACC
1001
ACAD_DSTYLE_DIM_EXT1_LINETYPE
1070
   381
1005
2ACC
1001
ACAD_DSTYLE_DIM_EXT2_LINETYPE
1070
   382
1005
2ACC
  0
DIMSTYLE
105
2B1F
330
2A74
100
AcDbSymbolTableRecord
100
AcDbDimStyleTableRecord
  2
STANDARD1
 70
     0
 40
6.0
 41
2.5
 42
0.625
 43
6.0
 44
1.25
 47
1.0
 48
0.5
 77
     1
 78
     8
140
2.5
141
0.0
146
0.6
147
1.0
173
     1
275
     1
279
     2
284
     7
285
     7
286
     7
340
2AC7
  0
DIMSTYLE
105
2B20
330
2A74
100
AcDbSymbolTableRecord
100
AcDbDimStyleTableRecord
  2
STANDARD$0
 70
     0
 41
12.0
 42
20.0
 44
20.0
 73
     0
 74
     0
 77
     1
 78
     8
140
64.0
141
0.0
147
10.0
275
     1
279
     2
284
     7
285
     7
286
     7
340
2AC7
  0
ENDTAB
  0
TABLE
  2
BLOCK_RECORD
  5
2A6B
330
0
100
AcDbSymbolTable
 70
    73
  0
BLOCK_RECORD
  5
2ADE
102
{ACAD_XDICTIONARY
360
2CA9
102
}
330
2A6B
100
AcDbSymbolTableRecord
100
AcDbBlockTableRecord
  2
*Model_Space
340
2AE1
  0
BLOCK_RECORD
  5
2ADA
330
2A6B
100
AcDbSymbolTableRecord
100
AcDbBlockTableRecord
  2
*Paper_Space
340
2ADD
  0
BLOCK_RECORD
  5
2B28
330
2A6B
100
AcDbSymbolTableRecord
100
AcDbBlockTableRecord
  2
$MODEL_SPACE
340
0
  0
BLOCK_RECORD
  5
2B2A
330
2A6B
100
AcDbSymbolTableRecord
100
AcDbBlockTableRecord
  2
$PAPER_SPACE
340
0
  0
BLOCK_RECORD
  5
2B2C
330
2A6B
100
AcDbSymbolTableRecord
100
AcDbBlockTableRecord
  2
_ORIGIN
340
0
  0
BLOCK_RECORD
  5
2B2E
330
2A6B
100
AcDbSymbolTableRecord
100
AcDbBlockTableRecord
  2
_DOTBLANK
340
0
102
{BLKREFS
331
1299
331
129A
331
11AA
331
11AB
331
E80
331
E81
331
1123
331
1124
331
11C2
331
11C3
331
11EC
331
11ED
331
11F9
331
11FA
331
1287
331
1288
331
1417
331
1418
331
1423
331
1424
331
142F
331
1430
331
143B
331
143C
331
166E
331
166F
331
1677
331
1678
331
1680
331
1681
331
1689
331
168A
331
1696
331
1697
331
16A3
331
16A4
331
16AF
331
16B0
331
16BB
331
16BC
331
16C7
331
16C8
331
16D3
331
16D4
331
1D86
331
1D87
331
1D8F
331
1D90
331
1D98
331
1D99
331
1DA1
331
1DA2
331
1DAB
331
1DAC
331
1DB5
331
1DB6
331
2A1B
331
2A1C
331
2A20
331
2A21
331
2A25
331
2A26
331
2A2A
331
2A2B
102
}
  0
BLOCK_RECORD
  5
2B30
330
2A6B
100
AcDbSymbolTableRecord
100
AcDbBlockTableRecord
  2
_OPEN30
340
0
102
{BLKREFS
331
2088
331
25A0
331
2890
102
}
  0
BLOCK_RECORD
  5
2B32
330
2A6B
100
AcDbSymbolTableRecord
100
AcDbBlockTableRecord
  2
*D5
340
0
  0
BLOCK_RECORD
  5
2B34
330
2A6B
100
AcDbSymbolTableRecord
100
AcDbBlockTableRecord
  2
*U6
340
0
102
{BLKREFS
331
129B
102
}
  0
BLOCK_RECORD
  5
2B36
330
2A6B
100
AcDbSymbolTableRecord
100
AcDbBlockTableRecord
  2
*D7
340
0
  0
BLOCK_RECORD
  5
2B38
330
2A6B
100
AcDbSymbolTableRecord
100
AcDbBlockTableRecord
  2
*U8
340
0
102
{BLKREFS
331
11AC
102
}
  0
BLOCK_RECORD
  5
2B3A
330
2A6B
100
AcDbSymbolTableRecord
100
AcDbBlockTableRecord
  2
*D9
340
0
  0
BLOCK_RECORD
  5
2B3C
330
2A6B
100
AcDbSymbolTableRecord
100
AcDbBlockTableRecord
  2
*U10
340
0
102
{BLKREFS
331
E82
102
}
  0
BLOCK_RECORD
  5
2B3E
330
2A6B
100
AcDbSymbolTableRecord
100
AcDbBlockTableRecord
  2
GENAXEH
340
0
  0
BLOCK_RECORD
  5
2B40
330
2A6B
100
AcDbSymbolTableRecord
100
AcDbBlockTableRecord
  2
*D12
340
0
  0
BLOCK_RECORD
  5
2B42
330
2A6B
100
AcDbSymbolTableRecord
100
AcDbBlockTableRecord
  2
*U13
340
0
102
{BLKREFS
331
1125
102
}
  0
BLOCK_RECORD
  5
2B44
330
2A6B
100
AcDbSymbolTableRecord
100
AcDbBlockTableRecord
  2
*D14
340
0
  0
BLOCK_RECORD
  5
2B46
330
2A6B
100
AcDbSymbolTableRecord
100
AcDbBlockTableRecord
  2
*U15
340
0
102
{BLKREFS
331
11C4
102
}
  0
BLOCK_RECORD
  5
2B48
330
2A6B
100
AcDbSymbolTableRecord
100
AcDbBlockTableRecord
  2
*D16
340
0
  0
BLOCK_RECORD
  5
2B4A
330
2A6B
100
AcDbSymbolTableRecord
100
AcDbBlockTableRecord
  2
*U17
340
0
102
{BLKREFS
331
11EE
102
}
  0
BLOCK_RECORD
  5
2B4C
330
2A6B
100
AcDbSymbolTableRecord
100
AcDbBlockTableRecord
  2
*D18
340
0
  0
BLOCK_RECORD
  5
2B4E
330
2A6B
100
AcDbSymbolTableRecord
100
AcDbBlockTableRecord
  2
*U19
340
0
102
{BLKREFS
331
11FB
102
}
  0
BLOCK_RECORD
  5
2B50
330
2A6B
100
AcDbSymbolTableRecord
100
AcDbBlockTableRecord
  2
*D20
340
0
  0
BLOCK_RECORD
  5
2B52
330
2A6B
100
AcDbSymbolTableRecord
100
AcDbBlockTableRecord
  2
*U21
340
0
102
{BLKREFS
331
1289
102
}
  0
BLOCK_RECORD
  5
2B54
330
2A6B
100
AcDbSymbolTableRecord
100
AcDbBlockTableRecord
  2
*D22
340
0
  0
BLOCK_RECORD
  5
2B56
330
2A6B
100
AcDbSymbolTableRecord
100
AcDbBlockTableRecord
  2
*U23
340
0
102
{BLKREFS
331
1419
102
}
  0
BLOCK_RECORD
  5
2B58
330
2A6B
100
AcDbSymbolTableRecord
100
AcDbBlockTableRecord
  2
*D24
340
0
  0
BLOCK_RECORD
  5
2B5A
330
2A6B
100
AcDbSymbolTableRecord
100
AcDbBlockTableRecord
  2
*U25
340
0
102
{BLKREFS
331
1425
102
}
  0
BLOCK_RECORD
  5
2B5C
330
2A6B
100
AcDbSymbolTableRecord
100
AcDbBlockTableRecord
  2
*D26
340
0
  0
BLOCK_RECORD
  5
2B5E
330
2A6B
100
AcDbSymbolTableRecord
100
AcDbBlockTableRecord
  2
*U27
340
0
102
{BLKREFS
331
1431
102
}
  0
BLOCK_RECORD
  5
2B60
330
2A6B
100
AcDbSymbolTableRecord
100
AcDbBlockTableRecord
  2
*D28
340
0
  0
BLOCK_RECORD
  5
2B62
330
2A6B
100
AcDbSymbolTableRecord
100
AcDbBlockTableRecord
  2
*U29
340
0
102
{BLKREFS
331
143D
102
}
  0
BLOCK_RECORD
  5
2B64
330
2A6B
100
AcDbSymbolTableRecord
100
AcDbBlockTableRecord
  2
*D30
340
0
  0
BLOCK_RECORD
  5
2B66
330
2A6B
100
AcDbSymbolTableRecord
100
AcDbBlockTableRecord
  2
*U31
340
0
102
{BLKREFS
331
1670
102
}
  0
BLOCK_RECORD
  5
2B68
330
2A6B
100
AcDbSymbolTableRecord
100
AcDbBlockTableRecord
  2
*D32
340
0
  0
BLOCK_RECORD
  5
2B6A
330
2A6B
100
AcDbSymbolTableRecord
100
AcDbBlockTableRecord
  2
*U33
340
0
102
{BLKREFS
331
1679
102
}
  0
BLOCK_RECORD
  5
2B6C
330
2A6B
100
AcDbSymbolTableRecord
100
AcDbBlockTableRecord
  2
*D34
340
0
  0
BLOCK_RECORD
  5
2B6E
330
2A6B
100
AcDbSymbolTableRecord
100
AcDbBlockTableRecord
  2
*U35
340
0
102
{BLKREFS
331
1682
102
}
  0
BLOCK_RECORD
  5
2B70
330
2A6B
100
AcDbSymbolTableRecord
100
AcDbBlockTableRecord
  2
*D36
340
0
  0
BLOCK_RECORD
  5
2B72
330
2A6B
100
AcDbSymbolTableRecord
100
AcDbBlockTableRecord
  2
*U37
340
0
102
{BLKREFS
331
168B
102
}
  0
BLOCK_RECORD
  5
2B74
330
2A6B
100
AcDbSymbolTableRecord
100
AcDbBlockTableRecord
  2
*U38
340
0
  0
BLOCK_RECORD
  5
2B76
330
2A6B
100
AcDbSymbolTableRecord
100
AcDbBlockTableRecord
  2
*D39
340
0
  0
BLOCK_RECORD
  5
2B78
330
2A6B
100
AcDbSymbolTableRecord
100
AcDbBlockTableRecord
  2
*U40
340
0
102
{BLKREFS
331
1698
102
}
  0
BLOCK_RECORD
  5
2B7A
330
2A6B
100
AcDbSymbolTableRecord
100
AcDbBlockTableRecord
  2
*D41
340
0
  0
BLOCK_RECORD
  5
2B7C
330
2A6B
100
AcDbSymbolTableRecord
100
AcDbBlockTableRecord
  2
*U42
340
0
102
{BLKREFS
331
16A5
102
}
  0
BLOCK_RECORD
  5
2B7E
330
2A6B
100
AcDbSymbolTableRecord
100
AcDbBlockTableRecord
  2
*D43
340
0
  0
BLOCK_RECORD
  5
2B80
330
2A6B
100
AcDbSymbolTableRecord
100
AcDbBlockTableRecord
  2
*U44
340
0
102
{BLKREFS
331
16B1
102
}
  0
BLOCK_RECORD
  5
2B82
330
2A6B
100
AcDbSymbolTableRecord
100
AcDbBlockTableRecord
  2
*D45
340
0
  0
BLOCK_RECORD
  5
2B84
330
2A6B
100
AcDbSymbolTableRecord
100
AcDbBlockTableRecord
  2
*U46
340
0
102
{BLKREFS
331
16BD
102
}
  0
BLOCK_RECORD
  5
2B86
330
2A6B
100
AcDbSymbolTableRecord
100
AcDbBlockTableRecord
  2
*D47
340
0
  0
BLOCK_RECORD
  5
2B88
330
2A6B
100
AcDbSymbolTableRecord
100
AcDbBlockTableRecord
  2
*U48
340
0
102
{BLKREFS
331
16C9
102
}
  0
BLOCK_RECORD
  5
2B8A
330
2A6B
100
AcDbSymbolTableRecord
100
AcDbBlockTableRecord
  2
*D49
340
0
  0
BLOCK_RECORD
  5
2B8C
330
2A6B
100
AcDbSymbolTableRecord
100
AcDbBlockTableRecord
  2
*U50
340
0
102
{BLKREFS
331
16D5
102
}
  0
BLOCK_RECORD
  5
2B8E
330
2A6B
100
AcDbSymbolTableRecord
100
AcDbBlockTableRecord
  2
*D51
340
0
  0
BLOCK_RECORD
  5
2B90
330
2A6B
100
AcDbSymbolTableRecord
100
AcDbBlockTableRecord
  2
*U52
340
0
102
{BLKREFS
331
1D88
102
}
  0
BLOCK_RECORD
  5
2B92
330
2A6B
100
AcDbSymbolTableRecord
100
AcDbBlockTableRecord
  2
*D53
340
0
  0
BLOCK_RECORD
  5
2B94
330
2A6B
100
AcDbSymbolTableRecord
100
AcDbBlockTableRecord
  2
*U54
340
0
102
{BLKREFS
331
1D91
102
}
  0
BLOCK_RECORD
  5
2B96
330
2A6B
100
AcDbSymbolTableRecord
100
AcDbBlockTableRecord
  2
*D55
340
0
  0
BLOCK_RECORD
  5
2B98
330
2A6B
100
AcDbSymbolTableRecord
100
AcDbBlockTableRecord
  2
*U56
340
0
102
{BLKREFS
331
1D9A
102
}
  0
BLOCK_RECORD
  5
2B9A
330
2A6B
100
AcDbSymbolTableRecord
100
AcDbBlockTableRecord
  2
*D57
340
0
  0
BLOCK_RECORD
  5
2B9C
330
2A6B
100
AcDbSymbolTableRecord
100
AcDbBlockTableRecord
  2
*U58
340
0
102
{BLKREFS
331
1DA3
102
}
  0
BLOCK_RECORD
  5
2B9E
330
2A6B
100
AcDbSymbolTableRecord
100
AcDbBlockTableRecord
  2
*D59
340
0
  0
BLOCK_RECORD
  5
2BA0
330
2A6B
100
AcDbSymbolTableRecord
100
AcDbBlockTableRecord
  2
*U60
340
0
102
{BLKREFS
331
1DAD
102
}
  0
BLOCK_RECORD
  5
2BA2
330
2A6B
100
AcDbSymbolTableRecord
100
AcDbBlockTableRecord
  2
*D61
340
0
  0
BLOCK_RECORD
  5
2BA4
330
2A6B
100
AcDbSymbolTableRecord
100
AcDbBlockTableRecord
  2
*U62
340
0
102
{BLKREFS
331
1DB7
102
}
  0
BLOCK_RECORD
  5
2BA6
330
2A6B
100
AcDbSymbolTableRecord
100
AcDbBlockTableRecord
  2
*U63
340
0
  0
BLOCK_RECORD
  5
2BA8
330
2A6B
100
AcDbSymbolTableRecord
100
AcDbBlockTableRecord
  2
*U64
340
0
  0
BLOCK_RECORD
  5
2BAA
330
2A6B
100
AcDbSymbolTableRecord
100
AcDbBlockTableRecord
  2
*U65
340
0
  0
BLOCK_RECORD
  5
2BAC
330
2A6B
100
AcDbSymbolTableRecord
100
AcDbBlockTableRecord
  2
*U66
340
0
  0
BLOCK_RECORD
  5
2BAE
330
2A6B
100
AcDbSymbolTableRecord
100
AcDbBlockTableRecord
  2
*U67
340
0
  0
BLOCK_RECORD
  5
2BB0
330
2A6B
100
AcDbSymbolTableRecord
100
AcDbBlockTableRecord
  2
*U68
340
0
102
{BLKREFS
331
2A00
102
}
  0
BLOCK_RECORD
  5
2BB2
330
2A6B
100
AcDbSymbolTableRecord
100
AcDbBlockTableRecord
  2
*U69
340
0
102
{BLKREFS
331
2A01
102
}
  0
BLOCK_RECORD
  5
2BB4
330
2A6B
100
AcDbSymbolTableRecord
100
AcDbBlockTableRecord
  2
*X70
340
0
102
{BLKREFS
331
2A12
102
}
  0
BLOCK_RECORD
  5
2BB6
330
2A6B
100
AcDbSymbolTableRecord
100
AcDbBlockTableRecord
  2
*X71
340
0
102
{BLKREFS
331
2A13
102
}
  0
ENDTAB
  0
ENDSEC
  0
SECTION
  2
BLOCKS
  0
BLOCK
  5
2ADF
330
2ADE
100
AcDbEntity
  8
0
100
AcDbBlockBegin
  2
*Model_Space
 70
     0
 10
0.0
 20
0.0
 30
0.0
  3
*Model_Space
  1

  0
ENDBLK
  5
2AE0
330
2ADE
100
AcDbEntity
  8
0
100
AcDbBlockEnd
  0
BLOCK
  5
2ADB
330
2ADA
100
AcDbEntity
 67
     1
  8
0
100
AcDbBlockBegin
  2
*Paper_Space
 70
     0
 10
0.0
 20
0.0
 30
0.0
  3
*Paper_Space
  1

  0
ENDBLK
  5
2ADC
330
2ADA
100
AcDbEntity
 67
     1
  8
0
100
AcDbBlockEnd
  0
BLOCK
  5
2B29
330
2B28
100
AcDbEntity
  8
0
100
AcDbBlockBegin
  2
$MODEL_SPACE
 70
     0
 10
0.0
 20
0.0
 30
0.0
  3
$MODEL_SPACE
  1

  0
ENDBLK
  5
26E3
330
2B28
100
AcDbEntity
  8
0
100
AcDbBlockEnd
  0
BLOCK
  5
2B2B
330
2B2A
100
AcDbEntity
  8
0
100
AcDbBlockBegin
  2
$PAPER_SPACE
 70
     0
 10
0.0
 20
0.0
 30
0.0
  3
$PAPER_SPACE
  1

  0
ENDBLK
  5
26DF
330
2B2A
100
AcDbEntity
  8
0
100
AcDbBlockEnd
  0
BLOCK
  5
2B2D
330
2B2C
100
AcDbEntity
  8
0
100
AcDbBlockBegin
  2
_ORIGIN
 70
     0
 10
0.0
 20
0.0
 30
0.0
  3
_ORIGIN
  1

  0
CIRCLE
  5
880
330
2B2C
100
AcDbEntity
  8
0
  6
Continuous
 62
     7
100
AcDbCircle
 10
0.0
 20
0.0
 30
0.0
 40
0.5
  0
LINE
  5
881
330
2B2C
100
AcDbEntity
  8
0
  6
Continuous
 62
     7
100
AcDbLine
 10
0.0
 20
0.0
 30
0.0
 11
-1.0
 21
0.0
 31
0.0
  0
ENDBLK
  5
882
330
2B2C
100
AcDbEntity
  8
0
100
AcDbBlockEnd
  0
BLOCK
  5
2B2F
330
2B2E
100
AcDbEntity
  8
0
 62
     1
100
AcDbBlockBegin
  2
_DOTBLANK
 70
     0
 10
0.0
 20
0.0
 30
0.0
  3
_DOTBLANK
  1

  0
CIRCLE
  5
AB3
330
2B2E
100
AcDbEntity
  8
0
  6
ByBlock
 62
     0
100
AcDbCircle
 10
0.0
 20
0.0
 30
0.0
 40
0.5
  0
LINE
  5
AB4
330
2B2E
100
AcDbEntity
  8
0
  6
ByBlock
 62
     0
100
AcDbLine
 10
-0.5
 20
0.0
 30
0.0
 11
-1.0
 21
0.0
 31
0.0
  0
ENDBLK
  5
AB6
330
2B2E
100
AcDbEntity
  8
0
 62
     1
100
AcDbBlockEnd
  0
BLOCK
  5
2B31
330
2B30
100
AcDbEntity
  8
0
 62
     1
100
AcDbBlockBegin
  2
_OPEN30
 70
     0
 10
0.0
 20
0.0
 30
0.0
  3
_OPEN30
  1

  0
LINE
  5
AB8
330
2B30
100
AcDbEntity
  8
0
  6
ByBlock
 62
     0
100
AcDbLine
 10
-1.0
 20
0.26794919
 30
0.0
 11
0.0
 21
0.0
 31
0.0
  0
LINE
  5
AB9
330
2B30
100
AcDbEntity
  8
0
  6
ByBlock
 62
     0
100
AcDbLine
 10
0.0
 20
0.0
 30
0.0
 11
-1.0
 21
-0.26794919
 31
0.0
  0
LINE
  5
ABA
330
2B30
100
AcDbEntity
  8
0
  6
ByBlock
 62
     0
100
AcDbLine
 10
0.0
 20
0.0
 30
0.0
 11
-1.0
 21
0.0
 31
0.0
  0
ENDBLK
  5
ABC
330
2B30
100
AcDbEntity
  8
0
 62
     1
100
AcDbBlockEnd
  0
BLOCK
  5
2B33
330
2B32
100
AcDbEntity
  8
0
100
AcDbBlockBegin
  2
*D5
 70
     1
 10
0.0
 20
0.0
 30
0.0
  3
*D5
  1

  0
LINE
  5
1296
330
2B32
100
AcDbEntity
  8
SIZE
 62
     0
100
AcDbLine
 10
-134.5
 20
-320.0
 30
0.0
 11
-134.5
 21
-468.0173952306001
 31
0.0
  0
LINE
  5
1297
330
2B32
100
AcDbEntity
  8
SIZE
 62
     0
100
AcDbLine
 10
134.5
 20
-320.0
 30
0.0
 11
134.5
 21
-468.0173952306001
 31
0.0
  0
LINE
  5
1298
330
2B32
100
AcDbEntity
  8
SIZE
 62
     0
100
AcDbLine
 10
-122.5
 20
-448.0173952306
 30
0.0
 11
122.5
 21
-448.0173952306
 31
0.0
  0
INSERT
  5
1299
330
2B32
100
AcDbEntity
  8
SIZE
 62
     0
100
AcDbBlockReference
  2
_DOTBLANK
 10
-134.5
 20
-448.0173952306
 30
0.0
 41
12.0
 42
12.0
 43
12.0
 50
180.0
  0
INSERT
  5
129A
330
2B32
100
AcDbEntity
  8
SIZE
 62
     0
100
AcDbBlockReference
  2
_DOTBLANK
 10
134.5
 20
-448.0173952306
 30
0.0
 41
12.0
 42
12.0
 43
12.0
  0
INSERT
  5
129B
330
2B32
100
AcDbEntity
  8
0
100
AcDbBlockReference
  2
*U6
 10
0.0
 20
0.0
 30
0.0
  0
POINT
  5
129C
330
2B32
100
AcDbEntity
  8
DEFPOINTS
 62
     0
100
AcDbPoint
 10
-134.5
 20
-300.0
 30
0.0
  0
POINT
  5
129D
330
2B32
100
AcDbEntity
  8
DEFPOINTS
 62
     0
100
AcDbPoint
 10
134.5
 20
-300.0
 30
0.0
  0
POINT
  5
129E
330
2B32
100
AcDbEntity
  8
DEFPOINTS
 62
     0
100
AcDbPoint
 10
134.5
 20
-448.0173952306
 30
0.0
  0
ENDBLK
  5
D72
330
2B32
100
AcDbEntity
  8
0
100
AcDbBlockEnd
  0
BLOCK
  5
2B35
330
2B34
100
AcDbEntity
  8
0
100
AcDbBlockBegin
  2
*U6
 70
     1
 10
0.0
 20
0.0
 30
0.0
  3
*U6
  1

  0
TEXT
  5
1EF5
330
2B34
100
AcDbEntity
  8
SIZE
 62
     0
100
AcDbText
 10
-72.68571428571426
 20
-438.0173952305999
 30
0.0
 40
64.0
  1
269
 41
0.9
100
AcDbText
  0
ENDBLK
  5
1EF7
330
2B34
100
AcDbEntity
  8
0
100
AcDbBlockEnd
  0
BLOCK
  5
2B37
330
2B36
100
AcDbEntity
  8
0
100
AcDbBlockBegin
  2
*D7
 70
     1
 10
0.0
 20
0.0
 30
0.0
  3
*D7
  1

  0
LINE
  5
11A7
330
2B36
100
AcDbEntity
  8
SIZE
  6
Continuous
 62
     0
100
AcDbLine
 10
143.5
 20
-300.0
 30
0.0
 11
304.6432844803791
 21
-300.0
 31
0.0
  0
LINE
  5
11A8
330
2B36
100
AcDbEntity
  8
SIZE
  6
Continuous
 62
     0
100
AcDbLine
 10
177.5
 20
-0.0000000000000057
 30
0.0
 11
304.6432844803792
 21
-0.0000000000000417
 31
0.0
  0
LINE
  5
11A9
330
2B36
100
AcDbEntity
  8
SIZE
  6
Continuous
 62
     0
100
AcDbLine
 10
284.6432844803791
 20
-288.0000000000001
 30
0.0
 11
284.6432844803792
 21
-12.00000000000003
 31
0.0
  0
INSERT
  5
11AA
330
2B36
100
AcDbEntity
  8
SIZE
  6
Continuous
 62
     0
100
AcDbBlockReference
  2
_DOTBLANK
 10
284.6432844803791
 20
-300.0
 30
0.0
 41
12.0
 42
12.0
 43
12.0
 50
270.0
  0
INSERT
  5
11AB
330
2B36
100
AcDbEntity
  8
SIZE
  6
Continuous
 62
     0
100
AcDbBlockReference
  2
_DOTBLANK
 10
284.6432844803792
 20
-0.000000000000036
 30
0.0
 41
12.0
 42
12.0
 43
12.0
 50
90.0
  0
INSERT
  5
11AC
330
2B36
100
AcDbEntity
  8
0
100
AcDbBlockReference
  2
*U8
 10
0.0
 20
0.0
 30
0.0
  0
POINT
  5
11AD
330
2B36
100
AcDbEntity
  8
DEFPOINTS
  6
Continuous
 62
     0
100
AcDbPoint
 10
123.5
 20
-300.0
 30
0.0
  0
POINT
  5
11AE
330
2B36
100
AcDbEntity
  8
DEFPOINTS
  6
Continuous
 62
     0
100
AcDbPoint
 10
157.5
 20
0.0
 30
0.0
  0
POINT
  5
11AF
330
2B36
100
AcDbEntity
  8
DEFPOINTS
  6
Continuous
 62
     0
100
AcDbPoint
 10
284.6432844803792
 20
-0.000000000000036
 30
0.0
  0
ENDBLK
  5
E11
330
2B36
100
AcDbEntity
  8
0
100
AcDbBlockEnd
  0
BLOCK
  5
2B39
330
2B38
100
AcDbEntity
  8
0
100
AcDbBlockBegin
  2
*U8
 70
     1
 10
0.0
 20
0.0
 30
0.0
  3
*U8
  1

  0
TEXT
  5
1EE1
330
2B38
100
AcDbEntity
  8
SIZE
 62
     0
100
AcDbText
 10
274.6432844803792
 20
-224.0571428571429
 30
0.0
 40
64.0
  1
300
 50
90.0
 41
0.9
100
AcDbText
  0
ENDBLK
  5
1EE3
330
2B38
100
AcDbEntity
  8
0
100
AcDbBlockEnd
  0
BLOCK
  5
2B3B
330
2B3A
100
AcDbEntity
  8
0
100
AcDbBlockBegin
  2
*D9
 70
     1
 10
0.0
 20
0.0
 30
0.0
  3
*D9
  1

  0
LINE
  5
E7D
330
2B3A
100
AcDbEntity
  8
SIZE
 62
     0
100
AcDbLine
 10
-139.9999999999998
 20
32.46448280219375
 30
0.0
 11
-139.9999999999998
 21
136.4516878685508
 31
0.0
  0
LINE
  5
E7E
330
2B3A
100
AcDbEntity
  8
SIZE
 62
     0
100
AcDbLine
 10
140.0
 20
32.46448280219375
 30
0.0
 11
140.0
 21
136.4516878685508
 31
0.0
  0
LINE
  5
E7F
330
2B3A
100
AcDbEntity
  8
SIZE
 62
     0
100
AcDbLine
 10
-128.0
 20
116.4516878685508
 30
0.0
 11
128.0
 21
116.4516878685508
 31
0.0
  0
INSERT
  5
E80
330
2B3A
100
AcDbEntity
  8
SIZE
 62
     0
100
AcDbBlockReference
  2
_DOTBLANK
 10
-139.9999999999998
 20
116.4516878685508
 30
0.0
 41
12.0
 42
12.0
 43
12.0
 50
180.0
  0
INSERT
  5
E81
330
2B3A
100
AcDbEntity
  8
SIZE
 62
     0
100
AcDbBlockReference
  2
_DOTBLANK
 10
140.0
 20
116.4516878685508
 30
0.0
 41
12.0
 42
12.0
 43
12.0
  0
INSERT
  5
E82
330
2B3A
100
AcDbEntity
  8
0
100
AcDbBlockReference
  2
*U10
 10
0.0
 20
0.0
 30
0.0
  0
POINT
  5
E83
330
2B3A
100
AcDbEntity
  8
DEFPOINTS
 62
     0
100
AcDbPoint
 10
-139.9999999999998
 20
12.46448280219374
 30
0.0
  0
POINT
  5
E84
330
2B3A
100
AcDbEntity
  8
DEFPOINTS
 62
     0
100
AcDbPoint
 10
140.0
 20
12.46448280219374
 30
0.0
  0
POINT
  5
E85
330
2B3A
100
AcDbEntity
  8
DEFPOINTS
 62
     0
100
AcDbPoint
 10
140.0
 20
116.4516878685508
 30
0.0
  0
ENDBLK
  5
E7C
330
2B3A
100
AcDbEntity
  8
0
100
AcDbBlockEnd
  0
BLOCK
  5
2B3D
330
2B3C
100
AcDbEntity
  8
0
100
AcDbBlockBegin
  2
*U10
 70
     1
 10
0.0
 20
0.0
 30
0.0
  3
*U10
  1

  0
TEXT
  5
1ED8
330
2B3C
100
AcDbEntity
  8
SIZE
 62
     0
100
AcDbText
 10
-74.05714285714281
 20
126.4516878685508
 30
0.0
 40
64.0
  1
280
 41
0.9
100
AcDbText
  0
ENDBLK
  5
1EDA
330
2B3C
100
AcDbEntity
  8
0
100
AcDbBlockEnd
  0
BLOCK
  5
2B3F
330
2B3E
100
AcDbEntity
  8
0
100
AcDbBlockBegin
  2
GENAXEH
 70
     0
 10
0.0
 20
0.0
 30
0.0
  3
GENAXEH
  1

  0
LINE
  5
FDB
330
2B3E
100
AcDbEntity
  8
0
100
AcDbLine
 10
-1.0
 20
0.0
 30
0.0
 11
1.0
 21
0.0
 31
0.0
  0
ENDBLK
  5
FDD
330
2B3E
100
AcDbEntity
  8
0
100
AcDbBlockEnd
  0
BLOCK
  5
2B41
330
2B40
100
AcDbEntity
  8
0
100
AcDbBlockBegin
  2
*D12
 70
     1
 10
0.0
 20
0.0
 30
0.0
  3
*D12
  1

  0
LINE
  5
1120
330
2B40
100
AcDbEntity
  8
SIZE
 62
     0
100
AcDbLine
 10
-157.5
 20
20.0
 30
0.0
 11
-157.5
 21
245.5794621189598
 31
0.0
  0
LINE
  5
1121
330
2B40
100
AcDbEntity
  8
SIZE
 62
     0
100
AcDbLine
 10
157.5
 20
20.0
 30
0.0
 11
157.5
 21
245.5794621189598
 31
0.0
  0
LINE
  5
1122
330
2B40
100
AcDbEntity
  8
SIZE
 62
     0
100
AcDbLine
 10
-145.5
 20
225.5794621189598
 30
0.0
 11
145.5
 21
225.5794621189598
 31
0.0
  0
INSERT
  5
1123
330
2B40
100
AcDbEntity
  8
SIZE
 62
     0
100
AcDbBlockReference
  2
_DOTBLANK
 10
-157.5
 20
225.5794621189598
 30
0.0
 41
12.0
 42
12.0
 43
12.0
 50
180.0
  0
INSERT
  5
1124
330
2B40
100
AcDbEntity
  8
SIZE
 62
     0
100
AcDbBlockReference
  2
_DOTBLANK
 10
157.5
 20
225.5794621189598
 30
0.0
 41
12.0
 42
12.0
 43
12.0
  0
INSERT
  5
1125
330
2B40
100
AcDbEntity
  8
0
100
AcDbBlockReference
  2
*U13
 10
0.0
 20
0.0
 30
0.0
  0
POINT
  5
1126
330
2B40
100
AcDbEntity
  8
DEFPOINTS
 62
     0
100
AcDbPoint
 10
-157.5
 20
0.0
 30
0.0
  0
POINT
  5
1127
330
2B40
100
AcDbEntity
  8
DEFPOINTS
 62
     0
100
AcDbPoint
 10
157.5
 20
0.0
 30
0.0
  0
POINT
  5
1128
330
2B40
100
AcDbEntity
  8
DEFPOINTS
 62
     0
100
AcDbPoint
 10
157.5
 20
225.5794621189598
 30
0.0
  0
ENDBLK
  5
111F
330
2B40
100
AcDbEntity
  8
0
100
AcDbBlockEnd
  0
BLOCK
  5
2B43
330
2B42
100
AcDbEntity
  8
0
100
AcDbBlockBegin
  2
*U13
 70
     1
 10
0.0
 20
0.0
 30
0.0
  3
*U13
  1

  0
TEXT
  5
1EDD
330
2B42
100
AcDbEntity
  8
SIZE
 62
     0
100
AcDbText
 10
-68.57142857142857
 20
235.5794621189599
 30
0.0
 40
64.0
  1
315
 41
0.9
100
AcDbText
  0
ENDBLK
  5
1EDF
330
2B42
100
AcDbEntity
  8
0
100
AcDbBlockEnd
  0
BLOCK
  5
2B45
330
2B44
100
AcDbEntity
  8
0
100
AcDbBlockBegin
  2
*D14
 70
     1
 10
0.0
 20
0.0
 30
0.0
  3
*D14
  1

  0
LINE
  5
11BD
330
2B44
100
AcDbEntity
  8
NOTE
 62
     0
100
AcDbLine
 10
-123.4999999999999
 20
-320.0
 30
0.0
 11
-123.4999999999999
 21
-354.9529861856111
 31
0.0
  0
LINE
  5
11BE
330
2B44
100
AcDbEntity
  8
NOTE
 62
     0
100
AcDbLine
 10
-133.4999999999998
 20
-331.2126909923287
 30
0.0
 11
-133.4999999999998
 21
-354.9529861856111
 31
0.0
  0
LINE
  5
11BF
330
2B44
100
AcDbEntity
  8
NOTE
 62
     0
100
AcDbLine
 10
-111.4999999999999
 20
-334.9529861856112
 30
0.0
 11
-99.4999999999999
 21
-334.9529861856112
 31
0.0
  0
LINE
  5
11C0
330
2B44
100
AcDbEntity
  8
NOTE
 62
     0
100
AcDbLine
 10
-145.4999999999998
 20
-334.9529861856112
 30
0.0
 11
-157.4999999999998
 21
-334.9529861856112
 31
0.0
  0
LINE
  5
11C1
330
2B44
100
AcDbEntity
  8
NOTE
 62
     0
100
AcDbLine
 10
-123.4999999999999
 20
-334.9529861856112
 30
0.0
 11
-133.4999999999998
 21
-334.9529861856112
 31
0.0
  0
INSERT
  5
11C2
330
2B44
100
AcDbEntity
  8
NOTE
 62
     0
100
AcDbBlockReference
  2
_DOTBLANK
 10
-123.4999999999999
 20
-334.9529861856112
 30
0.0
 41
12.0
 42
12.0
 43
12.0
 50
180.0
  0
INSERT
  5
11C3
330
2B44
100
AcDbEntity
  8
NOTE
 62
     0
100
AcDbBlockReference
  2
_DOTBLANK
 10
-133.4999999999998
 20
-334.9529861856112
 30
0.0
 41
12.0
 42
12.0
 43
12.0
  0
INSERT
  5
11C4
330
2B44
100
AcDbEntity
  8
0
100
AcDbBlockReference
  2
*U15
 10
0.0
 20
0.0
 30
0.0
  0
POINT
  5
11C5
330
2B44
100
AcDbEntity
  8
DEFPOINTS
 62
     0
100
AcDbPoint
 10
-123.4999999999999
 20
-300.0
 30
0.0
  0
POINT
  5
11C6
330
2B44
100
AcDbEntity
  8
DEFPOINTS
 62
     0
100
AcDbPoint
 10
-133.4999999999998
 20
-311.2126909923287
 30
0.0
  0
POINT
  5
11C7
330
2B44
100
AcDbEntity
  8
DEFPOINTS
 62
     0
100
AcDbPoint
 10
-133.4999999999998
 20
-334.9529861856112
 30
0.0
  0
ENDBLK
  5
11BC
330
2B44
100
AcDbEntity
  8
0
100
AcDbBlockEnd
  0
BLOCK
  5
2B47
330
2B46
100
AcDbEntity
  8
0
100
AcDbBlockBegin
  2
*U15
 70
     1
 10
0.0
 20
0.0
 30
0.0
  3
*U15
  1

  0
TEXT
  5
1EE5
330
2B46
100
AcDbEntity
  8
NOTE
 62
     0
100
AcDbText
 10
-169.642857142857
 20
-324.9529861856112
 30
0.0
 40
64.0
  1
10
 41
0.9
100
AcDbText
  0
ENDBLK
  5
1EE7
330
2B46
100
AcDbEntity
  8
0
100
AcDbBlockEnd
  0
BLOCK
  5
2B49
330
2B48
100
AcDbEntity
  8
0
100
AcDbBlockBegin
  2
*D16
 70
     1
 10
0.0
 20
0.0
 30
0.0
  3
*D16
  1

  0
LINE
  5
11E7
330
2B48
100
AcDbEntity
  8
NOTE
 62
     0
100
AcDbLine
 10
-135.5
 20
-333.2126909923287
 30
0.0
 11
-135.5
 21
-386.2569421441843
 31
0.0
  0
LINE
  5
11E8
330
2B48
100
AcDbEntity
  8
NOTE
 62
     0
100
AcDbLine
 10
-123.4999999999999
 20
-320.0
 30
0.0
 11
-123.4999999999999
 21
-386.2569421441843
 31
0.0
  0
LINE
  5
11E9
330
2B48
100
AcDbEntity
  8
NOTE
 62
     0
100
AcDbLine
 10
-147.5
 20
-366.2569421441844
 30
0.0
 11
-159.5
 21
-366.2569421441844
 31
0.0
  0
LINE
  5
11EA
330
2B48
100
AcDbEntity
  8
NOTE
 62
     0
100
AcDbLine
 10
-111.4999999999999
 20
-366.2569421441844
 30
0.0
 11
-99.4999999999999
 21
-366.2569421441844
 31
0.0
  0
LINE
  5
11EB
330
2B48
100
AcDbEntity
  8
NOTE
 62
     0
100
AcDbLine
 10
-135.5
 20
-366.2569421441844
 30
0.0
 11
-123.4999999999999
 21
-366.2569421441844
 31
0.0
  0
INSERT
  5
11EC
330
2B48
100
AcDbEntity
  8
NOTE
 62
     0
100
AcDbBlockReference
  2
_DOTBLANK
 10
-135.5
 20
-366.2569421441844
 30
0.0
 41
12.0
 42
12.0
 43
12.0
  0
INSERT
  5
11ED
330
2B48
100
AcDbEntity
  8
NOTE
 62
     0
100
AcDbBlockReference
  2
_DOTBLANK
 10
-123.4999999999999
 20
-366.2569421441844
 30
0.0
 41
12.0
 42
12.0
 43
12.0
 50
180.0
  0
INSERT
  5
11EE
330
2B48
100
AcDbEntity
  8
0
100
AcDbBlockReference
  2
*U17
 10
0.0
 20
0.0
 30
0.0
  0
POINT
  5
11EF
330
2B48
100
AcDbEntity
  8
DEFPOINTS
 62
     0
100
AcDbPoint
 10
-135.5
 20
-313.2126909923287
 30
0.0
  0
POINT
  5
11F0
330
2B48
100
AcDbEntity
  8
DEFPOINTS
 62
     0
100
AcDbPoint
 10
-123.4999999999999
 20
-300.0
 30
0.0
  0
POINT
  5
11F1
330
2B48
100
AcDbEntity
  8
DEFPOINTS
 62
     0
100
AcDbPoint
 10
-123.4999999999999
 20
-366.2569421441844
 30
0.0
  0
ENDBLK
  5
11E6
330
2B48
100
AcDbEntity
  8
0
100
AcDbBlockEnd
  0
BLOCK
  5
2B4B
330
2B4A
100
AcDbEntity
  8
0
100
AcDbBlockBegin
  2
*U17
 70
     1
 10
0.0
 20
0.0
 30
0.0
  3
*U17
  1

  0
TEXT
  5
1EE9
330
2B4A
100
AcDbEntity
  8
NOTE
 62
     0
100
AcDbText
 10
-170.642857142857
 20
-356.2569421441843
 30
0.0
 40
64.0
  1
12
 41
0.9
100
AcDbText
  0
ENDBLK
  5
1EEB
330
2B4A
100
AcDbEntity
  8
0
100
AcDbBlockEnd
  0
BLOCK
  5
2B4D
330
2B4C
100
AcDbEntity
  8
0
100
AcDbBlockBegin
  2
*D18
 70
     1
 10
0.0
 20
0.0
 30
0.0
  3
*D18
  1

  0
LINE
  5
11F6
330
2B4C
100
AcDbEntity
  8
NOTE
 62
     0
100
AcDbLine
 10
-123.4999999999999
 20
-320.0
 30
0.0
 11
-123.4999999999999
 21
-583.8286022818904
 31
0.0
  0
LINE
  5
11F7
330
2B4C
100
AcDbEntity
  8
NOTE
 62
     0
100
AcDbLine
 10
123.5
 20
-320.0
 30
0.0
 11
123.5
 21
-583.8286022818904
 31
0.0
  0
LINE
  5
11F8
330
2B4C
100
AcDbEntity
  8
NOTE
 62
     0
100
AcDbLine
 10
-111.4999999999999
 20
-563.8286022818904
 30
0.0
 11
111.5
 21
-563.8286022818904
 31
0.0
  0
INSERT
  5
11F9
330
2B4C
100
AcDbEntity
  8
NOTE
 62
     0
100
AcDbBlockReference
  2
_DOTBLANK
 10
-123.4999999999999
 20
-563.8286022818904
 30
0.0
 41
12.0
 42
12.0
 43
12.0
 50
180.0
  0
INSERT
  5
11FA
330
2B4C
100
AcDbEntity
  8
NOTE
 62
     0
100
AcDbBlockReference
  2
_DOTBLANK
 10
123.5
 20
-563.8286022818904
 30
0.0
 41
12.0
 42
12.0
 43
12.0
  0
INSERT
  5
11FB
330
2B4C
100
AcDbEntity
  8
0
100
AcDbBlockReference
  2
*U19
 10
0.0
 20
0.0
 30
0.0
  0
POINT
  5
11FC
330
2B4C
100
AcDbEntity
  8
DEFPOINTS
 62
     0
100
AcDbPoint
 10
-123.4999999999999
 20
-300.0
 30
0.0
  0
POINT
  5
11FD
330
2B4C
100
AcDbEntity
  8
DEFPOINTS
 62
     0
100
AcDbPoint
 10
123.5
 20
-300.0
 30
0.0
  0
POINT
  5
11FE
330
2B4C
100
AcDbEntity
  8
DEFPOINTS
 62
     0
100
AcDbPoint
 10
123.5
 20
-563.8286022818904
 30
0.0
  0
ENDBLK
  5
11F5
330
2B4C
100
AcDbEntity
  8
0
100
AcDbBlockEnd
  0
BLOCK
  5
2B4F
330
2B4E
100
AcDbEntity
  8
0
100
AcDbBlockBegin
  2
*U19
 70
     1
 10
0.0
 20
0.0
 30
0.0
  3
*U19
  1

  0
TEXT
  5
1EED
330
2B4E
100
AcDbEntity
  8
NOTE
 62
     0
100
AcDbText
 10
-74.05714285714281
 20
-553.8286022818904
 30
0.0
 40
64.0
  1
247
 41
0.9
100
AcDbText
  0
ENDBLK
  5
1EEF
330
2B4E
100
AcDbEntity
  8
0
100
AcDbBlockEnd
  0
BLOCK
  5
2B51
330
2B50
100
AcDbEntity
  8
0
100
AcDbBlockBegin
  2
*D20
 70
     1
 10
0.0
 20
0.0
 30
0.0
  3
*D20
  1

  0
LINE
  5
1284
330
2B50
100
AcDbEntity
  8
NOTE
 62
     0
100
AcDbLine
 10
-123.5
 20
12.0
 30
0.0
 11
-123.5
 21
71.83630134534229
 31
0.0
  0
LINE
  5
1285
330
2B50
100
AcDbEntity
  8
NOTE
 62
     0
100
AcDbLine
 10
123.5
 20
12.0
 30
0.0
 11
123.5
 21
71.83630134534229
 31
0.0
  0
LINE
  5
1286
330
2B50
100
AcDbEntity
  8
NOTE
 62
     0
100
AcDbLine
 10
-111.5
 20
51.83630134534229
 30
0.0
 11
111.5
 21
51.83630134534229
 31
0.0
  0
INSERT
  5
1287
330
2B50
100
AcDbEntity
  8
NOTE
 62
     0
100
AcDbBlockReference
  2
_DOTBLANK
 10
-123.5
 20
51.83630134534229
 30
0.0
 41
12.0
 42
12.0
 43
12.0
 50
180.0
  0
INSERT
  5
1288
330
2B50
100
AcDbEntity
  8
NOTE
 62
     0
100
AcDbBlockReference
  2
_DOTBLANK
 10
123.5
 20
51.83630134534229
 30
0.0
 41
12.0
 42
12.0
 43
12.0
  0
INSERT
  5
1289
330
2B50
100
AcDbEntity
  8
0
100
AcDbBlockReference
  2
*U21
 10
0.0
 20
0.0
 30
0.0
  0
POINT
  5
128A
330
2B50
100
AcDbEntity
  8
DEFPOINTS
 62
     0
100
AcDbPoint
 10
-123.5
 20
-8.0
 30
0.0
  0
POINT
  5
128B
330
2B50
100
AcDbEntity
  8
DEFPOINTS
 62
     0
100
AcDbPoint
 10
123.5
 20
-8.0
 30
0.0
  0
POINT
  5
128C
330
2B50
100
AcDbEntity
  8
DEFPOINTS
 62
     0
100
AcDbPoint
 10
123.5
 20
51.83630134534229
 30
0.0
  0
ENDBLK
  5
1283
330
2B50
100
AcDbEntity
  8
0
100
AcDbBlockEnd
  0
BLOCK
  5
2B53
330
2B52
100
AcDbEntity
  8
0
100
AcDbBlockBegin
  2
*U21
 70
     1
 10
0.0
 20
0.0
 30
0.0
  3
*U21
  1

  0
TEXT
  5
1EF1
330
2B52
100
AcDbEntity
  8
NOTE
 62
     0
100
AcDbText
 10
-74.05714285714283
 20
61.83630134534229
 30
0.0
 40
64.0
  1
247
 41
0.9
100
AcDbText
  0
ENDBLK
  5
1EF3
330
2B52
100
AcDbEntity
  8
0
100
AcDbBlockEnd
  0
BLOCK
  5
2B55
330
2B54
100
AcDbEntity
  8
0
100
AcDbBlockBegin
  2
*D22
 70
     1
 10
0.0
 20
0.0
 30
0.0
  3
*D22
  1

  0
LINE
  5
1414
330
2B54
100
AcDbEntity
  8
SIZE
 62
     0
100
AcDbLine
 10
-22313.11521613997
 20
7365.702971374808
 30
0.0
 11
-22313.11521613997
 21
7217.685576144207
 31
0.0
  0
LINE
  5
1415
330
2B54
100
AcDbEntity
  8
SIZE
 62
     0
100
AcDbLine
 10
-22044.11521613997
 20
7365.702971374808
 30
0.0
 11
-22044.11521613997
 21
7217.685576144207
 31
0.0
  0
LINE
  5
1416
330
2B54
100
AcDbEntity
  8
SIZE
 62
     0
100
AcDbLine
 10
-22301.11521613997
 20
7237.685576144207
 30
0.0
 11
-22056.11521613997
 21
7237.685576144207
 31
0.0
  0
INSERT
  5
1417
330
2B54
100
AcDbEntity
  8
SIZE
 62
     0
100
AcDbBlockReference
  2
_DOTBLANK
 10
-22313.11521613997
 20
7237.685576144207
 30
0.0
 41
12.0
 42
12.0
 43
12.0
 50
180.0
  0
INSERT
  5
1418
330
2B54
100
AcDbEntity
  8
SIZE
 62
     0
100
AcDbBlockReference
  2
_DOTBLANK
 10
-22044.11521613997
 20
7237.685576144207
 30
0.0
 41
12.0
 42
12.0
 43
12.0
  0
INSERT
  5
1419
330
2B54
100
AcDbEntity
  8
0
100
AcDbBlockReference
  2
*U23
 10
0.0
 20
0.0
 30
0.0
  0
POINT
  5
141A
330
2B54
100
AcDbEntity
  8
DEFPOINTS
 62
     0
100
AcDbPoint
 10
-22313.11521613997
 20
7385.702971374808
 30
0.0
  0
POINT
  5
141B
330
2B54
100
AcDbEntity
  8
DEFPOINTS
 62
     0
100
AcDbPoint
 10
-22044.11521613997
 20
7385.702971374808
 30
0.0
  0
POINT
  5
141C
330
2B54
100
AcDbEntity
  8
DEFPOINTS
 62
     0
100
AcDbPoint
 10
-22044.11521613997
 20
7237.685576144207
 30
0.0
  0
ENDBLK
  5
141D
330
2B54
100
AcDbEntity
  8
0
100
AcDbBlockEnd
  0
BLOCK
  5
2B57
330
2B56
100
AcDbEntity
  8
0
100
AcDbBlockBegin
  2
*U23
 70
     1
 10
0.0
 20
0.0
 30
0.0
  3
*U23
  1

  0
TEXT
  5
1EF9
330
2B56
100
AcDbEntity
  8
SIZE
 62
     0
100
AcDbText
 10
-22251.30093042568
 20
7247.685576144205
 30
0.0
 40
64.0
  1
269
 41
0.9
100
AcDbText
  0
ENDBLK
  5
1EFB
330
2B56
100
AcDbEntity
  8
0
100
AcDbBlockEnd
  0
BLOCK
  5
2B59
330
2B58
100
AcDbEntity
  8
0
100
AcDbBlockBegin
  2
*D24
 70
     1
 10
0.0
 20
0.0
 30
0.0
  3
*D24
  1

  0
LINE
  5
1420
330
2B58
100
AcDbEntity
  8
SIZE
  6
Continuous
 62
     0
100
AcDbLine
 10
-22035.11521613997
 20
7385.702971374808
 30
0.0
 11
-21873.97193165959
 21
7385.702971374808
 31
0.0
  0
LINE
  5
1421
330
2B58
100
AcDbEntity
  8
SIZE
  6
Continuous
 62
     0
100
AcDbLine
 10
-22001.11521613997
 20
7685.702971374808
 30
0.0
 11
-21873.97193165959
 21
7685.702971374808
 31
0.0
  0
LINE
  5
1422
330
2B58
100
AcDbEntity
  8
SIZE
  6
Continuous
 62
     0
100
AcDbLine
 10
-21893.97193165959
 20
7397.702971374808
 30
0.0
 11
-21893.97193165959
 21
7673.702971374808
 31
0.0
  0
INSERT
  5
1423
330
2B58
100
AcDbEntity
  8
SIZE
  6
Continuous
 62
     0
100
AcDbBlockReference
  2
_DOTBLANK
 10
-21893.97193165959
 20
7385.702971374808
 30
0.0
 41
12.0
 42
12.0
 43
12.0
 50
270.0
  0
INSERT
  5
1424
330
2B58
100
AcDbEntity
  8
SIZE
  6
Continuous
 62
     0
100
AcDbBlockReference
  2
_DOTBLANK
 10
-21893.97193165959
 20
7685.702971374808
 30
0.0
 41
12.0
 42
12.0
 43
12.0
 50
90.0
  0
INSERT
  5
1425
330
2B58
100
AcDbEntity
  8
0
100
AcDbBlockReference
  2
*U25
 10
0.0
 20
0.0
 30
0.0
  0
POINT
  5
1426
330
2B58
100
AcDbEntity
  8
DEFPOINTS
  6
Continuous
 62
     0
100
AcDbPoint
 10
-22055.11521613997
 20
7385.702971374808
 30
0.0
  0
POINT
  5
1427
330
2B58
100
AcDbEntity
  8
DEFPOINTS
  6
Continuous
 62
     0
100
AcDbPoint
 10
-22021.11521613997
 20
7685.702971374808
 30
0.0
  0
POINT
  5
1428
330
2B58
100
AcDbEntity
  8
DEFPOINTS
  6
Continuous
 62
     0
100
AcDbPoint
 10
-21893.97193165959
 20
7685.702971374808
 30
0.0
  0
ENDBLK
  5
1429
330
2B58
100
AcDbEntity
  8
0
100
AcDbBlockEnd
  0
BLOCK
  5
2B5B
330
2B5A
100
AcDbEntity
  8
0
100
AcDbBlockBegin
  2
*U25
 70
     1
 10
0.0
 20
0.0
 30
0.0
  3
*U25
  1

  0
TEXT
  5
1EFD
330
2B5A
100
AcDbEntity
  8
SIZE
 62
     0
100
AcDbText
 10
-21903.97193165959
 20
7461.645828517662
 30
0.0
 40
64.0
  1
300
 50
90.0
 41
0.9
100
AcDbText
  0
ENDBLK
  5
1EFF
330
2B5A
100
AcDbEntity
  8
0
100
AcDbBlockEnd
  0
BLOCK
  5
2B5D
330
2B5C
100
AcDbEntity
  8
0
100
AcDbBlockBegin
  2
*D26
 70
     1
 10
0.0
 20
0.0
 30
0.0
  3
*D26
  1

  0
LINE
  5
142C
330
2B5C
100
AcDbEntity
  8
SIZE
 62
     0
100
AcDbLine
 10
-22318.61521613997
 20
7718.167454177002
 30
0.0
 11
-22318.61521613997
 21
7822.154659243358
 31
0.0
  0
LINE
  5
142D
330
2B5C
100
AcDbEntity
  8
SIZE
 62
     0
100
AcDbLine
 10
-22038.61521613997
 20
7718.167454177002
 30
0.0
 11
-22038.61521613997
 21
7822.154659243358
 31
0.0
  0
LINE
  5
142E
330
2B5C
100
AcDbEntity
  8
SIZE
 62
     0
100
AcDbLine
 10
-22306.61521613997
 20
7802.154659243358
 30
0.0
 11
-22050.61521613997
 21
7802.154659243358
 31
0.0
  0
INSERT
  5
142F
330
2B5C
100
AcDbEntity
  8
SIZE
 62
     0
100
AcDbBlockReference
  2
_DOTBLANK
 10
-22318.61521613997
 20
7802.154659243358
 30
0.0
 41
12.0
 42
12.0
 43
12.0
 50
180.0
  0
INSERT
  5
1430
330
2B5C
100
AcDbEntity
  8
SIZE
 62
     0
100
AcDbBlockReference
  2
_DOTBLANK
 10
-22038.61521613997
 20
7802.154659243358
 30
0.0
 41
12.0
 42
12.0
 43
12.0
  0
INSERT
  5
1431
330
2B5C
100
AcDbEntity
  8
0
100
AcDbBlockReference
  2
*U27
 10
0.0
 20
0.0
 30
0.0
  0
POINT
  5
1432
330
2B5C
100
AcDbEntity
  8
DEFPOINTS
 62
     0
100
AcDbPoint
 10
-22318.61521613997
 20
7698.167454177002
 30
0.0
  0
POINT
  5
1433
330
2B5C
100
AcDbEntity
  8
DEFPOINTS
 62
     0
100
AcDbPoint
 10
-22038.61521613997
 20
7698.167454177002
 30
0.0
  0
POINT
  5
1434
330
2B5C
100
AcDbEntity
  8
DEFPOINTS
 62
     0
100
AcDbPoint
 10
-22038.61521613997
 20
7802.154659243358
 30
0.0
  0
ENDBLK
  5
1435
330
2B5C
100
AcDbEntity
  8
0
100
AcDbBlockEnd
  0
BLOCK
  5
2B5F
330
2B5E
100
AcDbEntity
  8
0
100
AcDbBlockBegin
  2
*U27
 70
     1
 10
0.0
 20
0.0
 30
0.0
  3
*U27
  1

  0
TEXT
  5
1F01
330
2B5E
100
AcDbEntity
  8
SIZE
 62
     0
100
AcDbText
 10
-22252.6723589971
 20
7812.154659243358
 30
0.0
 40
64.0
  1
280
 41
0.9
100
AcDbText
  0
ENDBLK
  5
1F03
330
2B5E
100
AcDbEntity
  8
0
100
AcDbBlockEnd
  0
BLOCK
  5
2B61
330
2B60
100
AcDbEntity
  8
0
100
AcDbBlockBegin
  2
*D28
 70
     1
 10
0.0
 20
0.0
 30
0.0
  3
*D28
  1

  0
LINE
  5
1438
330
2B60
100
AcDbEntity
  8
SIZE
 62
     0
100
AcDbLine
 10
-22336.11521613997
 20
7705.702971374808
 30
0.0
 11
-22336.11521613997
 21
7931.282433493766
 31
0.0
  0
LINE
  5
1439
330
2B60
100
AcDbEntity
  8
SIZE
 62
     0
100
AcDbLine
 10
-22021.11521613997
 20
7705.702971374808
 30
0.0
 11
-22021.11521613997
 21
7931.282433493766
 31
0.0
  0
LINE
  5
143A
330
2B60
100
AcDbEntity
  8
SIZE
 62
     0
100
AcDbLine
 10
-22324.11521613997
 20
7911.282433493766
 30
0.0
 11
-22033.11521613997
 21
7911.282433493766
 31
0.0
  0
INSERT
  5
143B
330
2B60
100
AcDbEntity
  8
SIZE
 62
     0
100
AcDbBlockReference
  2
_DOTBLANK
 10
-22336.11521613997
 20
7911.282433493766
 30
0.0
 41
12.0
 42
12.0
 43
12.0
 50
180.0
  0
INSERT
  5
143C
330
2B60
100
AcDbEntity
  8
SIZE
 62
     0
100
AcDbBlockReference
  2
_DOTBLANK
 10
-22021.11521613997
 20
7911.282433493766
 30
0.0
 41
12.0
 42
12.0
 43
12.0
  0
INSERT
  5
143D
330
2B60
100
AcDbEntity
  8
0
100
AcDbBlockReference
  2
*U29
 10
0.0
 20
0.0
 30
0.0
  0
POINT
  5
143E
330
2B60
100
AcDbEntity
  8
DEFPOINTS
 62
     0
100
AcDbPoint
 10
-22336.11521613997
 20
7685.702971374808
 30
0.0
  0
POINT
  5
143F
330
2B60
100
AcDbEntity
  8
DEFPOINTS
 62
     0
100
AcDbPoint
 10
-22021.11521613997
 20
7685.702971374808
 30
0.0
  0
POINT
  5
1440
330
2B60
100
AcDbEntity
  8
DEFPOINTS
 62
     0
100
AcDbPoint
 10
-22021.11521613997
 20
7911.282433493766
 30
0.0
  0
ENDBLK
  5
1441
330
2B60
100
AcDbEntity
  8
0
100
AcDbBlockEnd
  0
BLOCK
  5
2B63
330
2B62
100
AcDbEntity
  8
0
100
AcDbBlockBegin
  2
*U29
 70
     1
 10
0.0
 20
0.0
 30
0.0
  3
*U29
  1

  0
TEXT
  5
1F05
330
2B62
100
AcDbEntity
  8
SIZE
 62
     0
100
AcDbText
 10
-22247.18664471139
 20
7921.282433493766
 30
0.0
 40
64.0
  1
315
 41
0.9
100
AcDbText
  0
ENDBLK
  5
1F07
330
2B62
100
AcDbEntity
  8
0
100
AcDbBlockEnd
  0
BLOCK
  5
2B65
330
2B64
100
AcDbEntity
  8
0
100
AcDbBlockBegin
  2
*D30
 70
     1
 10
0.0
 20
0.0
 30
0.0
  3
*D30
  1

  0
LINE
  5
166B
330
2B64
100
AcDbEntity
  8
SIZE
 62
     0
100
AcDbLine
 10
-134.5
 20
-320.0
 30
0.0
 11
-134.5
 21
-468.0173952306001
 31
0.0
  0
LINE
  5
166C
330
2B64
100
AcDbEntity
  8
SIZE
 62
     0
100
AcDbLine
 10
134.5
 20
-320.0
 30
0.0
 11
134.5
 21
-468.0173952306001
 31
0.0
  0
LINE
  5
166D
330
2B64
100
AcDbEntity
  8
SIZE
 62
     0
100
AcDbLine
 10
-122.5
 20
-448.0173952306
 30
0.0
 11
122.5
 21
-448.0173952306
 31
0.0
  0
INSERT
  5
166E
330
2B64
100
AcDbEntity
  8
SIZE
 62
     0
100
AcDbBlockReference
  2
_DOTBLANK
 10
-134.5
 20
-448.0173952306
 30
0.0
 41
12.0
 42
12.0
 43
12.0
 50
180.0
  0
INSERT
  5
166F
330
2B64
100
AcDbEntity
  8
SIZE
 62
     0
100
AcDbBlockReference
  2
_DOTBLANK
 10
134.5
 20
-448.0173952306
 30
0.0
 41
12.0
 42
12.0
 43
12.0
  0
INSERT
  5
1670
330
2B64
100
AcDbEntity
  8
0
100
AcDbBlockReference
  2
*U31
 10
0.0
 20
0.0
 30
0.0
  0
POINT
  5
1671
330
2B64
100
AcDbEntity
  8
DEFPOINTS
 62
     0
100
AcDbPoint
 10
-134.5
 20
-300.0
 30
0.0
  0
POINT
  5
1672
330
2B64
100
AcDbEntity
  8
DEFPOINTS
 62
     0
100
AcDbPoint
 10
134.5
 20
-300.0
 30
0.0
  0
POINT
  5
1673
330
2B64
100
AcDbEntity
  8
DEFPOINTS
 62
     0
100
AcDbPoint
 10
134.5
 20
-448.0173952306
 30
0.0
  0
ENDBLK
  5
14A7
330
2B64
100
AcDbEntity
  8
0
100
AcDbBlockEnd
  0
BLOCK
  5
2B67
330
2B66
100
AcDbEntity
  8
0
100
AcDbBlockBegin
  2
*U31
 70
     1
 10
0.0
 20
0.0
 30
0.0
  3
*U31
  1

  0
TEXT
  5
1F09
330
2B66
100
AcDbEntity
  8
SIZE
 62
     0
100
AcDbText
 10
-72.68571428571426
 20
-438.0173952306002
 30
0.0
 40
64.0
  1
269
 41
0.9
100
AcDbText
  0
ENDBLK
  5
1F0B
330
2B66
100
AcDbEntity
  8
0
100
AcDbBlockEnd
  0
BLOCK
  5
2B69
330
2B68
100
AcDbEntity
  8
0
100
AcDbBlockBegin
  2
*D32
 70
     1
 10
0.0
 20
0.0
 30
0.0
  3
*D32
  1

  0
LINE
  5
1674
330
2B68
100
AcDbEntity
  8
SIZE
  6
Continuous
 62
     0
100
AcDbLine
 10
143.5
 20
-300.0
 30
0.0
 11
304.6432844803784
 21
-300.0
 31
0.0
  0
LINE
  5
1675
330
2B68
100
AcDbEntity
  8
SIZE
  6
Continuous
 62
     0
100
AcDbLine
 10
177.5
 20
-0.0000000000000057
 30
0.0
 11
304.6432844803785
 21
-0.0000000000000417
 31
0.0
  0
LINE
  5
1676
330
2B68
100
AcDbEntity
  8
SIZE
  6
Continuous
 62
     0
100
AcDbLine
 10
284.6432844803784
 20
-288.0000000000001
 30
0.0
 11
284.6432844803785
 21
-12.00000000000003
 31
0.0
  0
INSERT
  5
1677
330
2B68
100
AcDbEntity
  8
SIZE
  6
Continuous
 62
     0
100
AcDbBlockReference
  2
_DOTBLANK
 10
284.6432844803784
 20
-300.0
 30
0.0
 41
12.0
 42
12.0
 43
12.0
 50
270.0
  0
INSERT
  5
1678
330
2B68
100
AcDbEntity
  8
SIZE
  6
Continuous
 62
     0
100
AcDbBlockReference
  2
_DOTBLANK
 10
284.6432844803785
 20
-0.000000000000036
 30
0.0
 41
12.0
 42
12.0
 43
12.0
 50
90.0
  0
INSERT
  5
1679
330
2B68
100
AcDbEntity
  8
0
100
AcDbBlockReference
  2
*U33
 10
0.0
 20
0.0
 30
0.0
  0
POINT
  5
167A
330
2B68
100
AcDbEntity
  8
DEFPOINTS
  6
Continuous
 62
     0
100
AcDbPoint
 10
123.5
 20
-300.0
 30
0.0
  0
POINT
  5
167B
330
2B68
100
AcDbEntity
  8
DEFPOINTS
  6
Continuous
 62
     0
100
AcDbPoint
 10
157.5
 20
0.0
 30
0.0
  0
POINT
  5
167C
330
2B68
100
AcDbEntity
  8
DEFPOINTS
  6
Continuous
 62
     0
100
AcDbPoint
 10
284.6432844803785
 20
-0.000000000000036
 30
0.0
  0
ENDBLK
  5
14B3
330
2B68
100
AcDbEntity
  8
0
100
AcDbBlockEnd
  0
BLOCK
  5
2B6B
330
2B6A
100
AcDbEntity
  8
0
100
AcDbBlockBegin
  2
*U33
 70
     1
 10
0.0
 20
0.0
 30
0.0
  3
*U33
  1

  0
TEXT
  5
1F0D
330
2B6A
100
AcDbEntity
  8
SIZE
 62
     0
100
AcDbText
 10
274.6432844803785
 20
-224.0571428571429
 30
0.0
 40
64.0
  1
300
 50
90.0
 41
0.9
100
AcDbText
  0
ENDBLK
  5
1F0F
330
2B6A
100
AcDbEntity
  8
0
100
AcDbBlockEnd
  0
BLOCK
  5
2B6D
330
2B6C
100
AcDbEntity
  8
0
100
AcDbBlockBegin
  2
*D34
 70
     1
 10
0.0
 20
0.0
 30
0.0
  3
*D34
  1

  0
LINE
  5
167D
330
2B6C
100
AcDbEntity
  8
SIZE
 62
     0
100
AcDbLine
 10
-140.0
 20
32.46448280219375
 30
0.0
 11
-140.0
 21
136.4516878685507
 31
0.0
  0
LINE
  5
167E
330
2B6C
100
AcDbEntity
  8
SIZE
 62
     0
100
AcDbLine
 10
140.0
 20
32.46448280219375
 30
0.0
 11
140.0
 21
136.4516878685507
 31
0.0
  0
LINE
  5
167F
330
2B6C
100
AcDbEntity
  8
SIZE
 62
     0
100
AcDbLine
 10
-128.0
 20
116.4516878685508
 30
0.0
 11
128.0
 21
116.4516878685508
 31
0.0
  0
INSERT
  5
1680
330
2B6C
100
AcDbEntity
  8
SIZE
 62
     0
100
AcDbBlockReference
  2
_DOTBLANK
 10
-140.0
 20
116.4516878685508
 30
0.0
 41
12.0
 42
12.0
 43
12.0
 50
180.0
  0
INSERT
  5
1681
330
2B6C
100
AcDbEntity
  8
SIZE
 62
     0
100
AcDbBlockReference
  2
_DOTBLANK
 10
140.0
 20
116.4516878685508
 30
0.0
 41
12.0
 42
12.0
 43
12.0
  0
INSERT
  5
1682
330
2B6C
100
AcDbEntity
  8
0
100
AcDbBlockReference
  2
*U35
 10
0.0
 20
0.0
 30
0.0
  0
POINT
  5
1683
330
2B6C
100
AcDbEntity
  8
DEFPOINTS
 62
     0
100
AcDbPoint
 10
-140.0
 20
12.46448280219374
 30
0.0
  0
POINT
  5
1684
330
2B6C
100
AcDbEntity
  8
DEFPOINTS
 62
     0
100
AcDbPoint
 10
140.0
 20
12.46448280219374
 30
0.0
  0
POINT
  5
1685
330
2B6C
100
AcDbEntity
  8
DEFPOINTS
 62
     0
100
AcDbPoint
 10
140.0
 20
116.4516878685508
 30
0.0
  0
ENDBLK
  5
14BF
330
2B6C
100
AcDbEntity
  8
0
100
AcDbBlockEnd
  0
BLOCK
  5
2B6F
330
2B6E
100
AcDbEntity
  8
0
100
AcDbBlockBegin
  2
*U35
 70
     1
 10
0.0
 20
0.0
 30
0.0
  3
*U35
  1

  0
TEXT
  5
1F11
330
2B6E
100
AcDbEntity
  8
SIZE
 62
     0
100
AcDbText
 10
-74.05714285714283
 20
126.4516878685507
 30
0.0
 40
64.0
  1
280
 41
0.9
100
AcDbText
  0
ENDBLK
  5
1F13
330
2B6E
100
AcDbEntity
  8
0
100
AcDbBlockEnd
  0
BLOCK
  5
2B71
330
2B70
100
AcDbEntity
  8
0
100
AcDbBlockBegin
  2
*D36
 70
     1
 10
0.0
 20
0.0
 30
0.0
  3
*D36
  1

  0
LINE
  5
1686
330
2B70
100
AcDbEntity
  8
SIZE
 62
     0
100
AcDbLine
 10
-157.5
 20
20.0
 30
0.0
 11
-157.5
 21
245.5794621189598
 31
0.0
  0
LINE
  5
1687
330
2B70
100
AcDbEntity
  8
SIZE
 62
     0
100
AcDbLine
 10
157.5
 20
20.0
 30
0.0
 11
157.5
 21
245.5794621189598
 31
0.0
  0
LINE
  5
1688
330
2B70
100
AcDbEntity
  8
SIZE
 62
     0
100
AcDbLine
 10
-145.5
 20
225.5794621189598
 30
0.0
 11
145.5
 21
225.5794621189598
 31
0.0
  0
INSERT
  5
1689
330
2B70
100
AcDbEntity
  8
SIZE
 62
     0
100
AcDbBlockReference
  2
_DOTBLANK
 10
-157.5
 20
225.5794621189598
 30
0.0
 41
12.0
 42
12.0
 43
12.0
 50
180.0
  0
INSERT
  5
168A
330
2B70
100
AcDbEntity
  8
SIZE
 62
     0
100
AcDbBlockReference
  2
_DOTBLANK
 10
157.5
 20
225.5794621189598
 30
0.0
 41
12.0
 42
12.0
 43
12.0
  0
INSERT
  5
168B
330
2B70
100
AcDbEntity
  8
0
100
AcDbBlockReference
  2
*U37
 10
0.0
 20
0.0
 30
0.0
  0
POINT
  5
168C
330
2B70
100
AcDbEntity
  8
DEFPOINTS
 62
     0
100
AcDbPoint
 10
-157.5
 20
0.0
 30
0.0
  0
POINT
  5
168D
330
2B70
100
AcDbEntity
  8
DEFPOINTS
 62
     0
100
AcDbPoint
 10
157.5
 20
0.0
 30
0.0
  0
POINT
  5
168E
330
2B70
100
AcDbEntity
  8
DEFPOINTS
 62
     0
100
AcDbPoint
 10
157.5
 20
225.5794621189598
 30
0.0
  0
ENDBLK
  5
14CB
330
2B70
100
AcDbEntity
  8
0
100
AcDbBlockEnd
  0
BLOCK
  5
2B73
330
2B72
100
AcDbEntity
  8
0
100
AcDbBlockBegin
  2
*U37
 70
     1
 10
0.0
 20
0.0
 30
0.0
  3
*U37
  1

  0
TEXT
  5
1F15
330
2B72
100
AcDbEntity
  8
SIZE
 62
     0
100
AcDbText
 10
-68.57142857142857
 20
235.5794621189598
 30
0.0
 40
64.0
  1
315
 41
0.9
100
AcDbText
  0
ENDBLK
  5
1F17
330
2B72
100
AcDbEntity
  8
0
100
AcDbBlockEnd
  0
BLOCK
  5
2B75
330
2B74
100
AcDbEntity
  8
0
100
AcDbBlockBegin
  2
*U38
 70
     1
 10
0.0
 20
0.0
 30
0.0
  3
*U38
  1

  0
ENDBLK
  5
15CF
330
2B74
100
AcDbEntity
  8
0
100
AcDbBlockEnd
  0
BLOCK
  5
2B77
330
2B76
100
AcDbEntity
  8
0
100
AcDbBlockBegin
  2
*D39
 70
     1
 10
0.0
 20
0.0
 30
0.0
  3
*D39
  1

  0
LINE
  5
1692
330
2B76
100
AcDbEntity
  8
SIZE
 62
     0
100
AcDbLine
 10
-25844.51823276502
 20
7685.702971374808
 30
0.0
 11
-25981.04465488371
 21
7685.702971374808
 31
0.0
  0
LINE
  5
1693
330
2B76
100
AcDbEntity
  8
SIZE
 62
     0
100
AcDbLine
 10
-25844.51823276502
 20
7677.702971374808
 30
0.0
 11
-25981.04465488371
 21
7677.702971374808
 31
0.0
  0
LINE
  5
1694
330
2B76
100
AcDbEntity
  8
SIZE
 62
     0
100
AcDbLine
 10
-25961.04465488371
 20
7697.702971374808
 30
0.0
 11
-25961.04465488371
 21
7709.702971374809
 31
0.0
  0
LINE
  5
1695
330
2B76
100
AcDbEntity
  8
SIZE
 62
     0
100
AcDbLine
 10
-25961.04465488371
 20
7665.70297137481
 30
0.0
 11
-25961.04465488371
 21
7595.302971374808
 31
0.0
  0
INSERT
  5
1696
330
2B76
100
AcDbEntity
  8
SIZE
 62
     0
100
AcDbBlockReference
  2
_DOTBLANK
 10
-25961.04465488371
 20
7685.702971374808
 30
0.0
 41
12.0
 42
12.0
 43
12.0
 50
270.0
  0
INSERT
  5
1697
330
2B76
100
AcDbEntity
  8
SIZE
 62
     0
100
AcDbBlockReference
  2
_DOTBLANK
 10
-25961.04465488371
 20
7677.702971374808
 30
0.0
 41
12.0
 42
12.0
 43
12.0
 50
90.0
  0
INSERT
  5
1698
330
2B76
100
AcDbEntity
  8
0
100
AcDbBlockReference
  2
*U40
 10
0.0
 20
0.0
 30
0.0
  0
POINT
  5
1699
330
2B76
100
AcDbEntity
  8
DEFPOINTS
 62
     0
100
AcDbPoint
 10
-25824.51823276501
 20
7685.702971374808
 30
0.0
  0
POINT
  5
169A
330
2B76
100
AcDbEntity
  8
DEFPOINTS
 62
     0
100
AcDbPoint
 10
-25824.51823276501
 20
7677.702971374808
 30
0.0
  0
POINT
  5
169B
330
2B76
100
AcDbEntity
  8
DEFPOINTS
 62
     0
100
AcDbPoint
 10
-25961.04465488371
 20
7677.702971374808
 30
0.0
  0
ENDBLK
  5
169C
330
2B76
100
AcDbEntity
  8
0
100
AcDbBlockEnd
  0
BLOCK
  5
2B79
330
2B78
100
AcDbEntity
  8
0
100
AcDbBlockBegin
  2
*U40
 70
     1
 10
0.0
 20
0.0
 30
0.0
  3
*U40
  1

  0
TEXT
  5
1F19
330
2B78
100
AcDbEntity
  8
SIZE
 62
     0
100
AcDbText
 10
-25971.04465488371
 20
7605.302971374804
 30
0.0
 40
64.0
  1
8
 50
90.0
 41
0.9
100
AcDbText
  0
ENDBLK
  5
1F1B
330
2B78
100
AcDbEntity
  8
0
100
AcDbBlockEnd
  0
BLOCK
  5
2B7B
330
2B7A
100
AcDbEntity
  8
0
100
AcDbBlockBegin
  2
*D41
 70
     1
 10
0.0
 20
0.0
 30
0.0
  3
*D41
  1

  0
LINE
  5
169F
330
2B7A
100
AcDbEntity
  8
SIZE
 62
     0
100
AcDbLine
 10
-25512.51823276502
 20
7385.702971374808
 30
0.0
 11
-25362.37494828464
 21
7385.702971374808
 31
0.0
  0
LINE
  5
16A0
330
2B7A
100
AcDbEntity
  8
SIZE
 62
     0
100
AcDbLine
 10
-25523.51823276501
 20
7373.702971374808
 30
0.0
 11
-25362.37494828464
 21
7373.702971374808
 31
0.0
  0
LINE
  5
16A1
330
2B7A
100
AcDbEntity
  8
SIZE
 62
     0
100
AcDbLine
 10
-25382.37494828464
 20
7397.702971374808
 30
0.0
 11
-25382.37494828464
 21
7409.70297137481
 31
0.0
  0
LINE
  5
16A2
330
2B7A
100
AcDbEntity
  8
SIZE
 62
     0
100
AcDbLine
 10
-25382.37494828464
 20
7361.702971374808
 30
0.0
 11
-25382.37494828464
 21
7244.674399946238
 31
0.0
  0
INSERT
  5
16A3
330
2B7A
100
AcDbEntity
  8
SIZE
 62
     0
100
AcDbBlockReference
  2
_DOTBLANK
 10
-25382.37494828464
 20
7385.702971374808
 30
0.0
 41
12.0
 42
12.0
 43
12.0
 50
270.0
  0
INSERT
  5
16A4
330
2B7A
100
AcDbEntity
  8
SIZE
 62
     0
100
AcDbBlockReference
  2
_DOTBLANK
 10
-25382.37494828464
 20
7373.702971374808
 30
0.0
 41
12.0
 42
12.0
 43
12.0
 50
90.0
  0
INSERT
  5
16A5
330
2B7A
100
AcDbEntity
  8
0
100
AcDbBlockReference
  2
*U42
 10
0.0
 20
0.0
 30
0.0
  0
POINT
  5
16A6
330
2B7A
100
AcDbEntity
  8
DEFPOINTS
 62
     0
100
AcDbPoint
 10
-25532.51823276502
 20
7385.702971374808
 30
0.0
  0
POINT
  5
16A7
330
2B7A
100
AcDbEntity
  8
DEFPOINTS
 62
     0
100
AcDbPoint
 10
-25543.51823276502
 20
7373.702971374808
 30
0.0
  0
POINT
  5
16A8
330
2B7A
100
AcDbEntity
  8
DEFPOINTS
 62
     0
100
AcDbPoint
 10
-25382.37494828464
 20
7373.702971374808
 30
0.0
  0
ENDBLK
  5
16A9
330
2B7A
100
AcDbEntity
  8
0
100
AcDbBlockEnd
  0
BLOCK
  5
2B7D
330
2B7C
100
AcDbEntity
  8
0
100
AcDbBlockBegin
  2
*U42
 70
     1
 10
0.0
 20
0.0
 30
0.0
  3
*U42
  1

  0
TEXT
  5
1F1D
330
2B7C
100
AcDbEntity
  8
SIZE
 62
     0
100
AcDbText
 10
-25392.37494828464
 20
7256.045828517662
 30
0.0
 40
64.0
  1
12
 50
90.0
 41
0.9
100
AcDbText
  0
ENDBLK
  5
1F1F
330
2B7C
100
AcDbEntity
  8
0
100
AcDbBlockEnd
  0
BLOCK
  5
2B7F
330
2B7E
100
AcDbEntity
  8
0
100
AcDbBlockBegin
  2
*D43
 70
     1
 10
0.0
 20
0.0
 30
0.0
  3
*D43
  1

  0
LINE
  5
16AC
330
2B7E
100
AcDbEntity
  8
SIZE
 62
     0
100
AcDbLine
 10
-25801.51823276501
 20
7365.702971374808
 30
0.0
 11
-25801.51823276501
 21
7217.685576144207
 31
0.0
  0
LINE
  5
16AD
330
2B7E
100
AcDbEntity
  8
SIZE
 62
     0
100
AcDbLine
 10
-25532.51823276502
 20
7365.702971374808
 30
0.0
 11
-25532.51823276502
 21
7217.685576144207
 31
0.0
  0
LINE
  5
16AE
330
2B7E
100
AcDbEntity
  8
SIZE
 62
     0
100
AcDbLine
 10
-25789.51823276502
 20
7237.685576144207
 30
0.0
 11
-25544.51823276501
 21
7237.685576144207
 31
0.0
  0
INSERT
  5
16AF
330
2B7E
100
AcDbEntity
  8
SIZE
 62
     0
100
AcDbBlockReference
  2
_DOTBLANK
 10
-25801.51823276501
 20
7237.685576144207
 30
0.0
 41
12.0
 42
12.0
 43
12.0
 50
180.0
  0
INSERT
  5
16B0
330
2B7E
100
AcDbEntity
  8
SIZE
 62
     0
100
AcDbBlockReference
  2
_DOTBLANK
 10
-25532.51823276502
 20
7237.685576144207
 30
0.0
 41
12.0
 42
12.0
 43
12.0
  0
INSERT
  5
16B1
330
2B7E
100
AcDbEntity
  8
0
100
AcDbBlockReference
  2
*U44
 10
0.0
 20
0.0
 30
0.0
  0
POINT
  5
16B2
330
2B7E
100
AcDbEntity
  8
DEFPOINTS
 62
     0
100
AcDbPoint
 10
-25801.51823276501
 20
7385.702971374808
 30
0.0
  0
POINT
  5
16B3
330
2B7E
100
AcDbEntity
  8
DEFPOINTS
 62
     0
100
AcDbPoint
 10
-25532.51823276502
 20
7385.702971374808
 30
0.0
  0
POINT
  5
16B4
330
2B7E
100
AcDbEntity
  8
DEFPOINTS
 62
     0
100
AcDbPoint
 10
-25532.51823276502
 20
7237.685576144207
 30
0.0
  0
ENDBLK
  5
16B5
330
2B7E
100
AcDbEntity
  8
0
100
AcDbBlockEnd
  0
BLOCK
  5
2B81
330
2B80
100
AcDbEntity
  8
0
100
AcDbBlockBegin
  2
*U44
 70
     1
 10
0.0
 20
0.0
 30
0.0
  3
*U44
  1

  0
TEXT
  5
1F21
330
2B80
100
AcDbEntity
  8
SIZE
 62
     0
100
AcDbText
 10
-25739.70394705074
 20
7247.685576144205
 30
0.0
 40
64.0
  1
269
 41
0.9
100
AcDbText
  0
ENDBLK
  5
1F23
330
2B80
100
AcDbEntity
  8
0
100
AcDbBlockEnd
  0
BLOCK
  5
2B83
330
2B82
100
AcDbEntity
  8
0
100
AcDbBlockBegin
  2
*D45
 70
     1
 10
0.0
 20
0.0
 30
0.0
  3
*D45
  1

  0
LINE
  5
16B8
330
2B82
100
AcDbEntity
  8
SIZE
 62
     0
100
AcDbLine
 10
-25512.51823276502
 20
7385.702971374808
 30
0.0
 11
-25362.37494828464
 21
7385.702971374808
 31
0.0
  0
LINE
  5
16B9
330
2B82
100
AcDbEntity
  8
SIZE
 62
     0
100
AcDbLine
 10
-25489.51823276501
 20
7685.702971374808
 30
0.0
 11
-25362.37494828464
 21
7685.702971374808
 31
0.0
  0
LINE
  5
16BA
330
2B82
100
AcDbEntity
  8
SIZE
 62
     0
100
AcDbLine
 10
-25382.37494828464
 20
7397.702971374808
 30
0.0
 11
-25382.37494828464
 21
7673.702971374808
 31
0.0
  0
INSERT
  5
16BB
330
2B82
100
AcDbEntity
  8
SIZE
 62
     0
100
AcDbBlockReference
  2
_DOTBLANK
 10
-25382.37494828464
 20
7385.702971374808
 30
0.0
 41
12.0
 42
12.0
 43
12.0
 50
270.0
  0
INSERT
  5
16BC
330
2B82
100
AcDbEntity
  8
SIZE
 62
     0
100
AcDbBlockReference
  2
_DOTBLANK
 10
-25382.37494828464
 20
7685.702971374808
 30
0.0
 41
12.0
 42
12.0
 43
12.0
 50
90.0
  0
INSERT
  5
16BD
330
2B82
100
AcDbEntity
  8
0
100
AcDbBlockReference
  2
*U46
 10
0.0
 20
0.0
 30
0.0
  0
POINT
  5
16BE
330
2B82
100
AcDbEntity
  8
DEFPOINTS
 62
     0
100
AcDbPoint
 10
-25532.51823276502
 20
7385.702971374808
 30
0.0
  0
POINT
  5
16BF
330
2B82
100
AcDbEntity
  8
DEFPOINTS
 62
     0
100
AcDbPoint
 10
-25509.51823276502
 20
7685.702971374808
 30
0.0
  0
POINT
  5
16C0
330
2B82
100
AcDbEntity
  8
DEFPOINTS
 62
     0
100
AcDbPoint
 10
-25382.37494828464
 20
7685.702971374808
 30
0.0
  0
ENDBLK
  5
16C1
330
2B82
100
AcDbEntity
  8
0
100
AcDbBlockEnd
  0
BLOCK
  5
2B85
330
2B84
100
AcDbEntity
  8
0
100
AcDbBlockBegin
  2
*U46
 70
     1
 10
0.0
 20
0.0
 30
0.0
  3
*U46
  1

  0
TEXT
  5
1F25
330
2B84
100
AcDbEntity
  8
SIZE
 62
     0
100
AcDbText
 10
-25392.37494828464
 20
7461.645828517662
 30
0.0
 40
64.0
  1
300
 50
90.0
 41
0.9
100
AcDbText
  0
ENDBLK
  5
1F27
330
2B84
100
AcDbEntity
  8
0
100
AcDbBlockEnd
  0
BLOCK
  5
2B87
330
2B86
100
AcDbEntity
  8
0
100
AcDbBlockBegin
  2
*D47
 70
     1
 10
0.0
 20
0.0
 30
0.0
  3
*D47
  1

  0
LINE
  5
16C4
330
2B86
100
AcDbEntity
  8
SIZE
 62
     0
100
AcDbLine
 10
-25807.01823276501
 20
7718.167454177002
 30
0.0
 11
-25807.01823276501
 21
7822.154659243358
 31
0.0
  0
LINE
  5
16C5
330
2B86
100
AcDbEntity
  8
SIZE
 62
     0
100
AcDbLine
 10
-25527.01823276501
 20
7718.167454177002
 30
0.0
 11
-25527.01823276501
 21
7822.154659243358
 31
0.0
  0
LINE
  5
16C6
330
2B86
100
AcDbEntity
  8
SIZE
 62
     0
100
AcDbLine
 10
-25795.01823276502
 20
7802.154659243358
 30
0.0
 11
-25539.01823276501
 21
7802.154659243358
 31
0.0
  0
INSERT
  5
16C7
330
2B86
100
AcDbEntity
  8
SIZE
 62
     0
100
AcDbBlockReference
  2
_DOTBLANK
 10
-25807.01823276501
 20
7802.154659243358
 30
0.0
 41
12.0
 42
12.0
 43
12.0
 50
180.0
  0
INSERT
  5
16C8
330
2B86
100
AcDbEntity
  8
SIZE
 62
     0
100
AcDbBlockReference
  2
_DOTBLANK
 10
-25527.01823276501
 20
7802.154659243358
 30
0.0
 41
12.0
 42
12.0
 43
12.0
  0
INSERT
  5
16C9
330
2B86
100
AcDbEntity
  8
0
100
AcDbBlockReference
  2
*U48
 10
0.0
 20
0.0
 30
0.0
  0
POINT
  5
16CA
330
2B86
100
AcDbEntity
  8
DEFPOINTS
 62
     0
100
AcDbPoint
 10
-25807.01823276501
 20
7698.167454177002
 30
0.0
  0
POINT
  5
16CB
330
2B86
100
AcDbEntity
  8
DEFPOINTS
 62
     0
100
AcDbPoint
 10
-25527.01823276501
 20
7698.167454177002
 30
0.0
  0
POINT
  5
16CC
330
2B86
100
AcDbEntity
  8
DEFPOINTS
 62
     0
100
AcDbPoint
 10
-25527.01823276501
 20
7802.154659243358
 30
0.0
  0
ENDBLK
  5
16CD
330
2B86
100
AcDbEntity
  8
0
100
AcDbBlockEnd
  0
BLOCK
  5
2B89
330
2B88
100
AcDbEntity
  8
0
100
AcDbBlockBegin
  2
*U48
 70
     1
 10
0.0
 20
0.0
 30
0.0
  3
*U48
  1

  0
TEXT
  5
1F29
330
2B88
100
AcDbEntity
  8
SIZE
 62
     0
100
AcDbText
 10
-25741.07537562216
 20
7812.154659243358
 30
0.0
 40
64.0
  1
280
 41
0.9
100
AcDbText
  0
ENDBLK
  5
1F2B
330
2B88
100
AcDbEntity
  8
0
100
AcDbBlockEnd
  0
BLOCK
  5
2B8B
330
2B8A
100
AcDbEntity
  8
0
100
AcDbBlockBegin
  2
*D49
 70
     1
 10
0.0
 20
0.0
 30
0.0
  3
*D49
  1

  0
LINE
  5
16D0
330
2B8A
100
AcDbEntity
  8
SIZE
 62
     0
100
AcDbLine
 10
-25824.51823276501
 20
7705.702971374808
 30
0.0
 11
-25824.51823276501
 21
7931.282433493766
 31
0.0
  0
LINE
  5
16D1
330
2B8A
100
AcDbEntity
  8
SIZE
 62
     0
100
AcDbLine
 10
-25509.51823276502
 20
7705.702971374808
 30
0.0
 11
-25509.51823276502
 21
7931.282433493766
 31
0.0
  0
LINE
  5
16D2
330
2B8A
100
AcDbEntity
  8
SIZE
 62
     0
100
AcDbLine
 10
-25812.51823276502
 20
7911.282433493766
 30
0.0
 11
-25521.51823276501
 21
7911.282433493766
 31
0.0
  0
INSERT
  5
16D3
330
2B8A
100
AcDbEntity
  8
SIZE
 62
     0
100
AcDbBlockReference
  2
_DOTBLANK
 10
-25824.51823276501
 20
7911.282433493766
 30
0.0
 41
12.0
 42
12.0
 43
12.0
 50
180.0
  0
INSERT
  5
16D4
330
2B8A
100
AcDbEntity
  8
SIZE
 62
     0
100
AcDbBlockReference
  2
_DOTBLANK
 10
-25509.51823276502
 20
7911.282433493766
 30
0.0
 41
12.0
 42
12.0
 43
12.0
  0
INSERT
  5
16D5
330
2B8A
100
AcDbEntity
  8
0
100
AcDbBlockReference
  2
*U50
 10
0.0
 20
0.0
 30
0.0
  0
POINT
  5
16D6
330
2B8A
100
AcDbEntity
  8
DEFPOINTS
 62
     0
100
AcDbPoint
 10
-25824.51823276501
 20
7685.702971374808
 30
0.0
  0
POINT
  5
16D7
330
2B8A
100
AcDbEntity
  8
DEFPOINTS
 62
     0
100
AcDbPoint
 10
-25509.51823276502
 20
7685.702971374808
 30
0.0
  0
POINT
  5
16D8
330
2B8A
100
AcDbEntity
  8
DEFPOINTS
 62
     0
100
AcDbPoint
 10
-25509.51823276502
 20
7911.282433493766
 30
0.0
  0
ENDBLK
  5
16D9
330
2B8A
100
AcDbEntity
  8
0
100
AcDbBlockEnd
  0
BLOCK
  5
2B8D
330
2B8C
100
AcDbEntity
  8
0
100
AcDbBlockBegin
  2
*U50
 70
     1
 10
0.0
 20
0.0
 30
0.0
  3
*U50
  1

  0
TEXT
  5
1F2D
330
2B8C
100
AcDbEntity
  8
SIZE
 62
     0
100
AcDbText
 10
-25735.58966133645
 20
7921.282433493766
 30
0.0
 40
64.0
  1
315
 41
0.9
100
AcDbText
  0
ENDBLK
  5
1F2F
330
2B8C
100
AcDbEntity
  8
0
100
AcDbBlockEnd
  0
BLOCK
  5
2B8F
330
2B8E
100
AcDbEntity
  8
0
100
AcDbBlockBegin
  2
*D51
 70
     1
 10
0.0
 20
0.0
 30
0.0
  3
*D51
  1

  0
LINE
  5
1D83
330
2B8E
100
AcDbEntity
  8
SIZE
 62
     0
100
AcDbLine
 10
-134.5
 20
-320.0
 30
0.0
 11
-134.5
 21
-468.0173952306001
 31
0.0
  0
LINE
  5
1D84
330
2B8E
100
AcDbEntity
  8
SIZE
 62
     0
100
AcDbLine
 10
134.5
 20
-320.0
 30
0.0
 11
134.5
 21
-468.0173952306001
 31
0.0
  0
LINE
  5
1D85
330
2B8E
100
AcDbEntity
  8
SIZE
 62
     0
100
AcDbLine
 10
-122.5
 20
-448.0173952306
 30
0.0
 11
122.5
 21
-448.0173952306
 31
0.0
  0
INSERT
  5
1D86
330
2B8E
100
AcDbEntity
  8
SIZE
 62
     0
100
AcDbBlockReference
  2
_DOTBLANK
 10
-134.5
 20
-448.0173952306
 30
0.0
 41
12.0
 42
12.0
 43
12.0
 50
180.0
  0
INSERT
  5
1D87
330
2B8E
100
AcDbEntity
  8
SIZE
 62
     0
100
AcDbBlockReference
  2
_DOTBLANK
 10
134.5
 20
-448.0173952306
 30
0.0
 41
12.0
 42
12.0
 43
12.0
  0
INSERT
  5
1D88
330
2B8E
100
AcDbEntity
  8
0
100
AcDbBlockReference
  2
*U52
 10
0.0
 20
0.0
 30
0.0
  0
POINT
  5
1D89
330
2B8E
100
AcDbEntity
  8
DEFPOINTS
 62
     0
100
AcDbPoint
 10
-134.5
 20
-300.0
 30
0.0
  0
POINT
  5
1D8A
330
2B8E
100
AcDbEntity
  8
DEFPOINTS
 62
     0
100
AcDbPoint
 10
134.5
 20
-300.0
 30
0.0
  0
POINT
  5
1D8B
330
2B8E
100
AcDbEntity
  8
DEFPOINTS
 62
     0
100
AcDbPoint
 10
134.5
 20
-448.0173952306
 30
0.0
  0
ENDBLK
  5
173D
330
2B8E
100
AcDbEntity
  8
0
100
AcDbBlockEnd
  0
BLOCK
  5
2B91
330
2B90
100
AcDbEntity
  8
0
100
AcDbBlockBegin
  2
*U52
 70
     1
 10
0.0
 20
0.0
 30
0.0
  3
*U52
  1

  0
TEXT
  5
1F31
330
2B90
100
AcDbEntity
  8
SIZE
 62
     0
100
AcDbText
 10
-72.68571428571426
 20
-438.0173952306003
 30
0.0
 40
64.0
  1
269
 41
0.9
100
AcDbText
  0
ENDBLK
  5
1F33
330
2B90
100
AcDbEntity
  8
0
100
AcDbBlockEnd
  0
BLOCK
  5
2B93
330
2B92
100
AcDbEntity
  8
0
100
AcDbBlockBegin
  2
*D53
 70
     1
 10
0.0
 20
0.0
 30
0.0
  3
*D53
  1

  0
LINE
  5
1D8C
330
2B92
100
AcDbEntity
  8
SIZE
 62
     0
100
AcDbLine
 10
154.5
 20
-300.0
 30
0.0
 11
304.6432844803784
 21
-300.0
 31
0.0
  0
LINE
  5
1D8D
330
2B92
100
AcDbEntity
  8
SIZE
 62
     0
100
AcDbLine
 10
177.5
 20
-0.0000000000000057
 30
0.0
 11
304.6432844803785
 21
-0.0000000000000417
 31
0.0
  0
LINE
  5
1D8E
330
2B92
100
AcDbEntity
  8
SIZE
 62
     0
100
AcDbLine
 10
284.6432844803784
 20
-288.0
 30
0.0
 11
284.6432844803785
 21
-12.00000000000003
 31
0.0
  0
INSERT
  5
1D8F
330
2B92
100
AcDbEntity
  8
SIZE
 62
     0
100
AcDbBlockReference
  2
_DOTBLANK
 10
284.6432844803784
 20
-300.0
 30
0.0
 41
12.0
 42
12.0
 43
12.0
 50
270.0
  0
INSERT
  5
1D90
330
2B92
100
AcDbEntity
  8
SIZE
 62
     0
100
AcDbBlockReference
  2
_DOTBLANK
 10
284.6432844803785
 20
-0.000000000000036
 30
0.0
 41
12.0
 42
12.0
 43
12.0
 50
90.0
  0
INSERT
  5
1D91
330
2B92
100
AcDbEntity
  8
0
100
AcDbBlockReference
  2
*U54
 10
0.0
 20
0.0
 30
0.0
  0
POINT
  5
1D92
330
2B92
100
AcDbEntity
  8
DEFPOINTS
 62
     0
100
AcDbPoint
 10
134.5
 20
-300.0
 30
0.0
  0
POINT
  5
1D93
330
2B92
100
AcDbEntity
  8
DEFPOINTS
 62
     0
100
AcDbPoint
 10
157.5
 20
0.0
 30
0.0
  0
POINT
  5
1D94
330
2B92
100
AcDbEntity
  8
DEFPOINTS
 62
     0
100
AcDbPoint
 10
284.6432844803785
 20
-0.000000000000036
 30
0.0
  0
ENDBLK
  5
1749
330
2B92
100
AcDbEntity
  8
0
100
AcDbBlockEnd
  0
BLOCK
  5
2B95
330
2B94
100
AcDbEntity
  8
0
100
AcDbBlockBegin
  2
*U54
 70
     1
 10
0.0
 20
0.0
 30
0.0
  3
*U54
  1

  0
TEXT
  5
1F35
330
2B94
100
AcDbEntity
  8
SIZE
 62
     0
100
AcDbText
 10
274.6432844803785
 20
-224.0571428571429
 30
0.0
 40
64.0
  1
300
 50
90.0
 41
0.9
100
AcDbText
  0
ENDBLK
  5
1F37
330
2B94
100
AcDbEntity
  8
0
100
AcDbBlockEnd
  0
BLOCK
  5
2B97
330
2B96
100
AcDbEntity
  8
0
100
AcDbBlockBegin
  2
*D55
 70
     1
 10
0.0
 20
0.0
 30
0.0
  3
*D55
  1

  0
LINE
  5
1D95
330
2B96
100
AcDbEntity
  8
SIZE
 62
     0
100
AcDbLine
 10
-140.0
 20
32.46448280219375
 30
0.0
 11
-140.0
 21
136.4516878685508
 31
0.0
  0
LINE
  5
1D96
330
2B96
100
AcDbEntity
  8
SIZE
 62
     0
100
AcDbLine
 10
140.0
 20
32.46448280219375
 30
0.0
 11
140.0
 21
136.4516878685508
 31
0.0
  0
LINE
  5
1D97
330
2B96
100
AcDbEntity
  8
SIZE
 62
     0
100
AcDbLine
 10
-128.0
 20
116.4516878685508
 30
0.0
 11
128.0
 21
116.4516878685508
 31
0.0
  0
INSERT
  5
1D98
330
2B96
100
AcDbEntity
  8
SIZE
 62
     0
100
AcDbBlockReference
  2
_DOTBLANK
 10
-140.0
 20
116.4516878685508
 30
0.0
 41
12.0
 42
12.0
 43
12.0
 50
180.0
  0
INSERT
  5
1D99
330
2B96
100
AcDbEntity
  8
SIZE
 62
     0
100
AcDbBlockReference
  2
_DOTBLANK
 10
140.0
 20
116.4516878685508
 30
0.0
 41
12.0
 42
12.0
 43
12.0
  0
INSERT
  5
1D9A
330
2B96
100
AcDbEntity
  8
0
100
AcDbBlockReference
  2
*U56
 10
0.0
 20
0.0
 30
0.0
  0
POINT
  5
1D9B
330
2B96
100
AcDbEntity
  8
DEFPOINTS
 62
     0
100
AcDbPoint
 10
-140.0
 20
12.46448280219374
 30
0.0
  0
POINT
  5
1D9C
330
2B96
100
AcDbEntity
  8
DEFPOINTS
 62
     0
100
AcDbPoint
 10
140.0
 20
12.46448280219374
 30
0.0
  0
POINT
  5
1D9D
330
2B96
100
AcDbEntity
  8
DEFPOINTS
 62
     0
100
AcDbPoint
 10
140.0
 20
116.4516878685508
 30
0.0
  0
ENDBLK
  5
1755
330
2B96
100
AcDbEntity
  8
0
100
AcDbBlockEnd
  0
BLOCK
  5
2B99
330
2B98
100
AcDbEntity
  8
0
100
AcDbBlockBegin
  2
*U56
 70
     1
 10
0.0
 20
0.0
 30
0.0
  3
*U56
  1

  0
TEXT
  5
1F39
330
2B98
100
AcDbEntity
  8
SIZE
 62
     0
100
AcDbText
 10
-74.05714285714283
 20
126.4516878685508
 30
0.0
 40
64.0
  1
280
 41
0.9
100
AcDbText
  0
ENDBLK
  5
1F3B
330
2B98
100
AcDbEntity
  8
0
100
AcDbBlockEnd
  0
BLOCK
  5
2B9B
330
2B9A
100
AcDbEntity
  8
0
100
AcDbBlockBegin
  2
*D57
 70
     1
 10
0.0
 20
0.0
 30
0.0
  3
*D57
  1

  0
LINE
  5
1D9E
330
2B9A
100
AcDbEntity
  8
SIZE
 62
     0
100
AcDbLine
 10
-157.5
 20
20.0
 30
0.0
 11
-157.5
 21
245.5794621189598
 31
0.0
  0
LINE
  5
1D9F
330
2B9A
100
AcDbEntity
  8
SIZE
 62
     0
100
AcDbLine
 10
157.5
 20
20.0
 30
0.0
 11
157.5
 21
245.5794621189598
 31
0.0
  0
LINE
  5
1DA0
330
2B9A
100
AcDbEntity
  8
SIZE
 62
     0
100
AcDbLine
 10
-145.5
 20
225.5794621189598
 30
0.0
 11
145.5
 21
225.5794621189598
 31
0.0
  0
INSERT
  5
1DA1
330
2B9A
100
AcDbEntity
  8
SIZE
 62
     0
100
AcDbBlockReference
  2
_DOTBLANK
 10
-157.5
 20
225.5794621189598
 30
0.0
 41
12.0
 42
12.0
 43
12.0
 50
180.0
  0
INSERT
  5
1DA2
330
2B9A
100
AcDbEntity
  8
SIZE
 62
     0
100
AcDbBlockReference
  2
_DOTBLANK
 10
157.5
 20
225.5794621189598
 30
0.0
 41
12.0
 42
12.0
 43
12.0
  0
INSERT
  5
1DA3
330
2B9A
100
AcDbEntity
  8
0
100
AcDbBlockReference
  2
*U58
 10
0.0
 20
0.0
 30
0.0
  0
POINT
  5
1DA4
330
2B9A
100
AcDbEntity
  8
DEFPOINTS
 62
     0
100
AcDbPoint
 10
-157.5
 20
0.0
 30
0.0
  0
POINT
  5
1DA5
330
2B9A
100
AcDbEntity
  8
DEFPOINTS
 62
     0
100
AcDbPoint
 10
157.5
 20
0.0
 30
0.0
  0
POINT
  5
1DA6
330
2B9A
100
AcDbEntity
  8
DEFPOINTS
 62
     0
100
AcDbPoint
 10
157.5
 20
225.5794621189598
 30
0.0
  0
ENDBLK
  5
1761
330
2B9A
100
AcDbEntity
  8
0
100
AcDbBlockEnd
  0
BLOCK
  5
2B9D
330
2B9C
100
AcDbEntity
  8
0
100
AcDbBlockBegin
  2
*U58
 70
     1
 10
0.0
 20
0.0
 30
0.0
  3
*U58
  1

  0
TEXT
  5
1F3D
330
2B9C
100
AcDbEntity
  8
SIZE
 62
     0
100
AcDbText
 10
-68.57142857142857
 20
235.5794621189599
 30
0.0
 40
64.0
  1
315
 41
0.9
100
AcDbText
  0
ENDBLK
  5
1F3F
330
2B9C
100
AcDbEntity
  8
0
100
AcDbBlockEnd
  0
BLOCK
  5
2B9F
330
2B9E
100
AcDbEntity
  8
0
100
AcDbBlockBegin
  2
*D59
 70
     1
 10
0.0
 20
0.0
 30
0.0
  3
*D59
  1

  0
LINE
  5
1DA7
330
2B9E
100
AcDbEntity
  8
SIZE
 62
     0
100
AcDbLine
 10
-177.5
 20
0.0000000000000057
 30
0.0
 11
-314.0264221186908
 21
0.0000000000000443
 31
0.0
  0
LINE
  5
1DA8
330
2B9E
100
AcDbEntity
  8
SIZE
 62
     0
100
AcDbLine
 10
-177.5
 20
-7.999999999999993
 30
0.0
 11
-314.0264221186908
 21
-7.999999999999958
 31
0.0
  0
LINE
  5
1DA9
330
2B9E
100
AcDbEntity
  8
SIZE
 62
     0
100
AcDbLine
 10
-294.0264221186908
 20
12.00000000000003
 30
0.0
 11
-294.0264221186908
 21
24.00000000000004
 31
0.0
  0
LINE
  5
1DAA
330
2B9E
100
AcDbEntity
  8
SIZE
 62
     0
100
AcDbLine
 10
-294.0264221186908
 20
-19.99999999999996
 30
0.0
 11
-294.0264221186908
 21
-90.39999999999997
 31
0.0
  0
INSERT
  5
1DAB
330
2B9E
100
AcDbEntity
  8
SIZE
 62
     0
100
AcDbBlockReference
  2
_DOTBLANK
 10
-294.0264221186908
 20
0.0000000000000387
 30
0.0
 41
12.0
 42
12.0
 43
12.0
 50
270.0
  0
INSERT
  5
1DAC
330
2B9E
100
AcDbEntity
  8
SIZE
 62
     0
100
AcDbBlockReference
  2
_DOTBLANK
 10
-294.0264221186908
 20
-7.999999999999961
 30
0.0
 41
12.0
 42
12.0
 43
12.0
 50
90.0
  0
INSERT
  5
1DAD
330
2B9E
100
AcDbEntity
  8
0
100
AcDbBlockReference
  2
*U60
 10
0.0
 20
0.0
 30
0.0
  0
POINT
  5
1DAE
330
2B9E
100
AcDbEntity
  8
DEFPOINTS
 62
     0
100
AcDbPoint
 10
-157.5
 20
0.0
 30
0.0
  0
POINT
  5
1DAF
330
2B9E
100
AcDbEntity
  8
DEFPOINTS
 62
     0
100
AcDbPoint
 10
-157.5
 20
-8.000000000000003
 30
0.0
  0
POINT
  5
1DB0
330
2B9E
100
AcDbEntity
  8
DEFPOINTS
 62
     0
100
AcDbPoint
 10
-294.0264221186908
 20
-7.999999999999961
 30
0.0
  0
ENDBLK
  5
176D
330
2B9E
100
AcDbEntity
  8
0
100
AcDbBlockEnd
  0
BLOCK
  5
2BA1
330
2BA0
100
AcDbEntity
  8
0
100
AcDbBlockBegin
  2
*U60
 70
     1
 10
0.0
 20
0.0
 30
0.0
  3
*U60
  1

  0
TEXT
  5
1F41
330
2BA0
100
AcDbEntity
  8
SIZE
 62
     0
100
AcDbText
 10
-304.0264221186908
 20
-80.4
 30
0.0
 40
64.0
  1
8
 50
90.0
 41
0.9
100
AcDbText
  0
ENDBLK
  5
1F43
330
2BA0
100
AcDbEntity
  8
0
100
AcDbBlockEnd
  0
BLOCK
  5
2BA3
330
2BA2
100
AcDbEntity
  8
0
100
AcDbBlockBegin
  2
*D61
 70
     1
 10
0.0
 20
0.0
 30
0.0
  3
*D61
  1

  0
LINE
  5
1DB1
330
2BA2
100
AcDbEntity
  8
SIZE
 62
     0
100
AcDbLine
 10
154.5
 20
-300.0
 30
0.0
 11
304.6432844803785
 21
-300.0
 31
0.0
  0
LINE
  5
1DB2
330
2BA2
100
AcDbEntity
  8
SIZE
 62
     0
100
AcDbLine
 10
143.5
 20
-312.0
 30
0.0
 11
304.6432844803785
 21
-312.0
 31
0.0
  0
LINE
  5
1DB3
330
2BA2
100
AcDbEntity
  8
SIZE
 62
     0
100
AcDbLine
 10
284.6432844803785
 20
-288.0
 30
0.0
 11
284.6432844803785
 21
-276.0
 31
0.0
  0
LINE
  5
1DB4
330
2BA2
100
AcDbEntity
  8
SIZE
 62
     0
100
AcDbLine
 10
284.6432844803785
 20
-324.0000000000001
 30
0.0
 11
284.6432844803784
 21
-438.2857142857143
 31
0.0
  0
INSERT
  5
1DB5
330
2BA2
100
AcDbEntity
  8
SIZE
 62
     0
100
AcDbBlockReference
  2
_DOTBLANK
 10
284.6432844803785
 20
-300.0
 30
0.0
 41
12.0
 42
12.0
 43
12.0
 50
270.0
  0
INSERT
  5
1DB6
330
2BA2
100
AcDbEntity
  8
SIZE
 62
     0
100
AcDbBlockReference
  2
_DOTBLANK
 10
284.6432844803785
 20
-312.0
 30
0.0
 41
12.0
 42
12.0
 43
12.0
 50
90.0
  0
INSERT
  5
1DB7
330
2BA2
100
AcDbEntity
  8
0
100
AcDbBlockReference
  2
*U62
 10
0.0
 20
0.0
 30
0.0
  0
POINT
  5
1DB8
330
2BA2
100
AcDbEntity
  8
DEFPOINTS
 62
     0
100
AcDbPoint
 10
134.5
 20
-300.0
 30
0.0
  0
POINT
  5
1DB9
330
2BA2
100
AcDbEntity
  8
DEFPOINTS
 62
     0
100
AcDbPoint
 10
123.5
 20
-312.0
 30
0.0
  0
POINT
  5
1DBA
330
2BA2
100
AcDbEntity
  8
DEFPOINTS
 62
     0
100
AcDbPoint
 10
284.6432844803785
 20
-312.0
 30
0.0
  0
ENDBLK
  5
177B
330
2BA2
100
AcDbEntity
  8
0
100
AcDbBlockEnd
  0
BLOCK
  5
2BA5
330
2BA4
100
AcDbEntity
  8
0
100
AcDbBlockBegin
  2
*U62
 70
     1
 10
0.0
 20
0.0
 30
0.0
  3
*U62
  1

  0
TEXT
  5
1F45
330
2BA4
100
AcDbEntity
  8
SIZE
 62
     0
100
AcDbText
 10
274.6432844803785
 20
-428.2857142857142
 30
0.0
 40
64.0
  1
12
 50
90.0
 41
0.9
100
AcDbText
  0
ENDBLK
  5
1F47
330
2BA4
100
AcDbEntity
  8
0
100
AcDbBlockEnd
  0
BLOCK
  5
2BA7
330
2BA6
100
AcDbEntity
  8
0
100
AcDbBlockBegin
  2
*U63
 70
     1
 10
0.0
 20
0.0
 30
0.0
  3
*U63
  1

  0
ENDBLK
  5
1D57
330
2BA6
100
AcDbEntity
  8
0
100
AcDbBlockEnd
  0
BLOCK
  5
2BA9
330
2BA8
100
AcDbEntity
  8
0
100
AcDbBlockBegin
  2
*U64
 70
     1
 10
0.0
 20
0.0
 30
0.0
  3
*U64
  1

  0
INSERT
  5
2088
330
2BA8
100
AcDbEntity
  8
NOTE
100
AcDbBlockReference
  2
_OPEN30
 10
-140.0
 20
0.0
 30
0.0
 41
12.0
 42
12.0
 43
12.0
 50
312.6090116116894
  0
POLYLINE
  5
2089
330
2BA8
100
AcDbEntity
  8
NOTE
100
AcDb2dPolyline
 66
     1
 10
0.0
 20
0.0
 30
0.0
  0
VERTEX
  5
2124
330
2089
100
AcDbEntity
  8
NOTE
100
AcDbVertex
100
AcDb2dVertex
 10
-148.1239008361894
 20
8.831887408915472
 30
0.0
  0
VERTEX
  5
2125
330
2089
100
AcDbEntity
  8
NOTE
100
AcDbVertex
100
AcDb2dVertex
 10
-227.8693999922543
 20
95.52709505801338
 30
0.0
  0
VERTEX
  5
2126
330
2089
100
AcDbEntity
  8
NOTE
100
AcDbVertex
100
AcDb2dVertex
 10
-773.7093999922541
 20
95.52709505801338
 30
0.0
  0
SEQEND
  5
2127
330
2089
100
AcDbEntity
  8
NOTE
  0
ENDBLK
  5
208A
330
2BA8
100
AcDbEntity
  8
0
100
AcDbBlockEnd
  0
BLOCK
  5
2BAB
330
2BAA
100
AcDbEntity
  8
0
100
AcDbBlockBegin
  2
*U65
 70
     1
 10
0.0
 20
0.0
 30
0.0
  3
*U65
  1

  0
TEXT
  5
208D
330
2BAA
100
AcDbEntity
  8
NOTE
100
AcDbText
 10
-773.7093999922541
 20
113.5270950580134
 30
0.0
 40
64.0
  1
4×φ10取付穴
 41
0.9
100
AcDbText
  0
ENDBLK
  5
208E
330
2BAA
100
AcDbEntity
  8
0
100
AcDbBlockEnd
  0
BLOCK
  5
2BAD
330
2BAC
100
AcDbEntity
  8
0
100
AcDbBlockBegin
  2
*U66
 70
     1
 10
0.0
 20
0.0
 30
0.0
  3
*U66
  1

  0
INSERT
  5
25A0
330
2BAC
100
AcDbEntity
  8
NOTE
100
AcDbBlockReference
  2
_OPEN30
 10
-400.0
 20
0.0
 30
0.0
 41
12.0
 42
12.0
 43
12.0
 50
312.6090116116895
  0
POLYLINE
  5
25A1
330
2BAC
100
AcDbEntity
  8
NOTE
100
AcDb2dPolyline
 66
     1
 10
0.0
 20
0.0
 30
0.0
  0
VERTEX
  5
25A2
330
25A1
100
AcDbEntity
  8
NOTE
100
AcDbVertex
100
AcDb2dVertex
 10
-408.1239008361895
 20
8.831887408915461
 30
0.0
  0
VERTEX
  5
25A3
330
25A1
100
AcDbEntity
  8
NOTE
100
AcDbVertex
100
AcDb2dVertex
 10
-487.8693999922544
 20
95.52709505801338
 30
0.0
  0
VERTEX
  5
25A4
330
25A1
100
AcDbEntity
  8
NOTE
100
AcDbVertex
100
AcDb2dVertex
 10
-1077.595114277969
 20
95.52709505801338
 30
0.0
  0
SEQEND
  5
25A5
330
25A1
100
AcDbEntity
  8
NOTE
  0
ENDBLK
  5
25A6
330
2BAC
100
AcDbEntity
  8
0
100
AcDbBlockEnd
  0
BLOCK
  5
2BAF
330
2BAE
100
AcDbEntity
  8
0
100
AcDbBlockBegin
  2
*U67
 70
     1
 10
0.0
 20
0.0
 30
0.0
  3
*U67
  1

  0
TEXT
  5
25A9
330
2BAE
100
AcDbEntity
  8
NOTE
100
AcDbText
 10
-1077.595114277969
 20
113.5270950580134
 30
0.0
 40
64.0
  1
10×φ15取付穴
 41
0.9
100
AcDbText
  0
ENDBLK
  5
25AA
330
2BAE
100
AcDbEntity
  8
0
100
AcDbBlockEnd
  0
BLOCK
  5
2BB1
330
2BB0
100
AcDbEntity
  8
0
100
AcDbBlockBegin
  2
*U68
 70
     1
 10
0.0
 20
0.0
 30
0.0
  3
*U68
  1

  0
INSERT
  5
2890
330
2BB0
100
AcDbEntity
  8
NOTE
100
AcDbBlockReference
  2
_OPEN30
 10
-400.0
 20
0.0
 30
0.0
 41
12.0
 42
12.0
 43
12.0
 50
312.6090116116894
  0
POLYLINE
  5
2891
330
2BB0
100
AcDbEntity
  8
NOTE
100
AcDb2dPolyline
 66
     1
 10
0.0
 20
0.0
 30
0.0
  0
VERTEX
  5
2892
330
2891
100
AcDbEntity
  8
NOTE
100
AcDbVertex
100
AcDb2dVertex
 10
-408.1239008361895
 20
8.831887408915472
 30
0.0
  0
VERTEX
  5
2893
330
2891
100
AcDbEntity
  8
NOTE
100
AcDbVertex
100
AcDb2dVertex
 10
-487.8693999922543
 20
95.52709505801338
 30
0.0
  0
VERTEX
  5
2894
330
2891
100
AcDbEntity
  8
NOTE
100
AcDbVertex
100
AcDb2dVertex
 10
-1077.595114277968
 20
95.52709505801338
 30
0.0
  0
SEQEND
  5
2895
330
2891
100
AcDbEntity
  8
NOTE
  0
ENDBLK
  5
2896
330
2BB0
100
AcDbEntity
  8
0
100
AcDbBlockEnd
  0
BLOCK
  5
2BB3
330
2BB2
100
AcDbEntity
  8
0
100
AcDbBlockBegin
  2
*U69
 70
     1
 10
0.0
 20
0.0
 30
0.0
  3
*U69
  1

  0
TEXT
  5
2899
330
2BB2
100
AcDbEntity
  8
NOTE
100
AcDbText
 10
-1077.595114277968
 20
113.5270950580134
 30
0.0
 40
64.0
  1
10×φ15取付穴
 41
0.9
100
AcDbText
  0
ENDBLK
  5
289A
330
2BB2
100
AcDbEntity
  8
0
100
AcDbBlockEnd
  0
BLOCK
  5
2BB5
330
2BB4
100
AcDbEntity
  8
0
100
AcDbBlockBegin
  2
*X70
 70
     1
 10
0.0
 20
0.0
 30
0.0
  3
*X70
  1

  0
LINE
  5
289D
330
2BB4
100
AcDbEntity
  8
0
 62
     0
100
AcDbLine
 10
-361.5000000000055
 20
-673.6698548091204
 30
0.0
 11
-346.1066869814859
 21
-681.0000000000016
 31
0.0
  0
LINE
  5
289E
330
2BB4
100
AcDbEntity
  8
0
 62
     0
100
AcDbLine
 10
-361.5000000000073
 20
-663.6699030649879
 30
0.0
 11
-325.1067772444985
 21
-681.0000000000036
 31
0.0
  0
LINE
  5
289F
330
2BB4
100
AcDbEntity
  8
0
 62
     0
100
AcDbLine
 10
-361.5000000000055
 20
-653.6699513208532
 30
0.0
 11
-304.1068675075057
 21
-681.0000000000027
 31
0.0
  0
LINE
  5
28A0
330
2BB4
100
AcDbEntity
  8
0
 62
     0
100
AcDbLine
 10
-361.5000000000055
 20
-643.6699995767185
 30
0.0
 11
-283.1069577705166
 21
-681.0000000000016
 31
0.0
  0
LINE
  5
28A1
330
2BB4
100
AcDbEntity
  8
0
 62
     0
100
AcDbLine
 10
-361.5000000000073
 20
-633.6700478325838
 30
0.0
 11
-262.1070480335275
 21
-681.0000000000016
 31
0.0
  0
LINE
  5
28A2
330
2BB4
100
AcDbEntity
  8
0
 62
     0
100
AcDbLine
 10
-361.5000000000055
 20
-623.6700960884481
 30
0.0
 11
-241.1071382965328
 21
-681.0000000000016
 31
0.0
  0
LINE
  5
28A3
330
2BB4
100
AcDbEntity
  8
0
 62
     0
100
AcDbLine
 10
-361.5000000000073
 20
-613.6701443443135
 30
0.0
 11
-220.1072285595437
 21
-681.0000000000016
 31
0.0
  0
LINE
  5
28A4
330
2BB4
100
AcDbEntity
  8
0
 62
     0
100
AcDbLine
 10
-361.5000000000073
 20
-603.6701926001803
 30
0.0
 11
-199.1073188225545
 21
-681.0000000000027
 31
0.0
  0
LINE
  5
28A5
330
2BB4
100
AcDbEntity
  8
0
 62
     0
100
AcDbLine
 10
-361.5000000000055
 20
-593.6702408560456
 30
0.0
 11
-178.1074090855618
 21
-681.0000000000027
 31
0.0
  0
LINE
  5
28A6
330
2BB4
100
AcDbEntity
  8
0
 62
     0
100
AcDbLine
 10
-361.5000000000055
 20
-583.6702891119109
 30
0.0
 11
-157.1074993485708
 21
-681.0000000000027
 31
0.0
  0
LINE
  5
28A7
330
2BB4
100
AcDbEntity
  8
0
 62
     0
100
AcDbLine
 10
-361.5000000000055
 20
-573.6703373677762
 30
0.0
 11
-136.1075896115799
 21
-681.0000000000027
 31
0.0
  0
LINE
  5
28A8
330
2BB4
100
AcDbEntity
  8
0
 62
     0
100
AcDbLine
 10
-361.5000000000055
 20
-563.6703856236416
 30
0.0
 11
-115.1076798745889
 21
-681.0000000000016
 31
0.0
  0
LINE
  5
28A9
330
2BB4
100
AcDbEntity
  8
0
 62
     0
100
AcDbLine
 10
-361.5000000000055
 20
-553.6704338795098
 30
0.0
 11
-94.10777013759977
 21
-681.0000000000036
 31
0.0
  0
LINE
  5
28AA
330
2BB4
100
AcDbEntity
  8
0
 62
     0
100
AcDbLine
 10
-361.5000000000055
 20
-543.6704821353749
 30
0.0
 11
-73.10786040060881
 21
-681.0000000000027
 31
0.0
  0
LINE
  5
28AB
330
2BB4
100
AcDbEntity
  8
0
 62
     0
100
AcDbLine
 10
-361.5000000000055
 20
-533.6705303912395
 30
0.0
 11
-52.10795066361789
 21
-681.0000000000016
 31
0.0
  0
LINE
  5
28AC
330
2BB4
100
AcDbEntity
  8
0
 62
     0
100
AcDbLine
 10
-361.5000000000073
 20
-523.6705786471048
 30
0.0
 11
-31.10804092662875
 21
-681.0000000000016
 31
0.0
  0
LINE
  5
28AD
330
2BB4
100
AcDbEntity
  8
0
 62
     0
100
AcDbLine
 10
-361.5000000000073
 20
-513.67062690297
 30
0.0
 11
-10.10813118963596
 21
-681.0000000000016
 31
0.0
  0
LINE
  5
28AE
330
2BB4
100
AcDbEntity
  8
0
 62
     0
100
AcDbLine
 10
-361.5000000000055
 20
-503.6706751588371
 30
0.0
 11
10.89177854735499
 21
-681.0000000000036
 31
0.0
  0
LINE
  5
28AF
330
2BB4
100
AcDbEntity
  8
0
 62
     0
100
AcDbLine
 10
-361.5000000000073
 20
-493.6707234147022
 30
0.0
 11
31.89168828434595
 21
-681.0000000000036
 31
0.0
  0
LINE
  5
28B0
330
2BB4
100
AcDbEntity
  8
0
 62
     0
100
AcDbLine
 10
-361.5000000000055
 20
-483.6707716705677
 30
0.0
 11
52.89159802133688
 21
-681.0000000000036
 31
0.0
  0
LINE
  5
28B1
330
2BB4
100
AcDbEntity
  8
0
 62
     0
100
AcDbLine
 10
-361.5000000000055
 20
-473.6708199264328
 30
0.0
 11
73.89150775832604
 21
-681.0000000000016
 31
0.0
  0
LINE
  5
28B2
330
2BB4
100
AcDbEntity
  8
0
 62
     0
100
AcDbLine
 10
-361.5000000000073
 20
-463.6708681822983
 30
0.0
 11
94.89141749531516
 21
-681.0000000000016
 31
0.0
  0
LINE
  5
28B3
330
2BB4
100
AcDbEntity
  8
0
 62
     0
100
AcDbLine
 10
-361.5000000000055
 20
-453.6709164381625
 30
0.0
 11
115.8913272323097
 21
-681.0000000000016
 31
0.0
  0
LINE
  5
28B4
330
2BB4
100
AcDbEntity
  8
0
 62
     0
100
AcDbLine
 10
-361.5000000000073
 20
-443.6709646940299
 30
0.0
 11
136.8912369692989
 21
-681.0000000000036
 31
0.0
  0
LINE
  5
28B5
330
2BB4
100
AcDbEntity
  8
0
 62
     0
100
AcDbLine
 10
-361.5000000000073
 20
-433.6710129498952
 30
0.0
 11
157.891146706288
 21
-681.0000000000036
 31
0.0
  0
LINE
  5
28B6
330
2BB4
100
AcDbEntity
  8
0
 62
     0
100
AcDbLine
 10
-361.5000000000055
 20
-423.6710612057605
 30
0.0
 11
178.8910564432826
 21
-681.0000000000027
 31
0.0
  0
LINE
  5
28B7
330
2BB4
100
AcDbEntity
  8
0
 62
     0
100
AcDbLine
 10
-361.5000000000073
 20
-413.6711094616257
 30
0.0
 11
199.89096618027
 21
-681.0000000000016
 31
0.0
  0
LINE
  5
28B8
330
2BB4
100
AcDbEntity
  8
0
 62
     0
100
AcDbLine
 10
-361.5000000000055
 20
-403.6711577174909
 30
0.0
 11
220.8908759172627
 21
-681.0000000000016
 31
0.0
  0
LINE
  5
28B9
330
2BB4
100
AcDbEntity
  8
0
 62
     0
100
AcDbLine
 10
-361.5000000000055
 20
-393.6712059733581
 30
0.0
 11
241.8907856542537
 21
-681.0000000000036
 31
0.0
  0
LINE
  5
28BA
330
2BB4
100
AcDbEntity
  8
0
 62
     0
100
AcDbLine
 10
-361.5000000000055
 20
-383.6712542292234
 30
0.0
 11
262.8906953912428
 21
-681.0000000000027
 31
0.0
  0
LINE
  5
28BB
330
2BB4
100
AcDbEntity
  8
0
 62
     0
100
AcDbLine
 10
-361.5000000000073
 20
-373.6713024850879
 30
0.0
 11
283.8906051282338
 21
-681.0000000000027
 31
0.0
  0
LINE
  5
28BC
330
2BB4
100
AcDbEntity
  8
0
 62
     0
100
AcDbLine
 10
-361.5000000000073
 20
-363.671350740954
 30
0.0
 11
304.8905148652266
 21
-681.0000000000027
 31
0.0
  0
LINE
  5
28BD
330
2BB4
100
AcDbEntity
  8
0
 62
     0
100
AcDbLine
 10
-361.5000000000073
 20
-353.6713989968192
 30
0.0
 11
325.8904246022157
 21
-681.0000000000027
 31
0.0
  0
LINE
  5
28BE
330
2BB4
100
AcDbEntity
  8
0
 62
     0
100
AcDbLine
 10
-361.5000000000073
 20
-343.6714472526846
 30
0.0
 11
346.8903343392049
 21
-681.0000000000016
 31
0.0
  0
LINE
  5
28BF
330
2BB4
100
AcDbEntity
  8
0
 62
     0
100
AcDbLine
 10
-361.5000000000055
 20
-333.6714955085517
 30
0.0
 11
361.4999999999964
 21
-677.957028235096
 31
0.0
  0
LINE
  5
28C0
330
2BB4
100
AcDbEntity
  8
0
 62
     0
100
AcDbLine
 10
-361.5000000000073
 20
-323.6715437644169
 30
0.0
 11
361.4999999999927
 21
-667.9570764909612
 31
0.0
  0
LINE
  5
28C1
330
2BB4
100
AcDbEntity
  8
0
 62
     0
100
AcDbLine
 10
-361.5000000000073
 20
-313.6715920202823
 30
0.0
 11
361.4999999999927
 21
-657.9571247468265
 31
0.0
  0
LINE
  5
28C2
330
2BB4
100
AcDbEntity
  8
0
 62
     0
100
AcDbLine
 10
-361.5000000000055
 20
-303.6716402761476
 30
0.0
 11
361.4999999999946
 21
-647.9571730026917
 31
0.0
  0
LINE
  5
28C3
330
2BB4
100
AcDbEntity
  8
0
 62
     0
100
AcDbLine
 10
-361.5000000000073
 20
-293.6716885320129
 30
0.0
 11
361.4999999999927
 21
-637.957221258557
 31
0.0
  0
LINE
  5
28C4
330
2BB4
100
AcDbEntity
  8
0
 62
     0
100
AcDbLine
 10
-361.5000000000055
 20
-283.6717367878792
 30
0.0
 11
361.4999999999964
 21
-627.9572695144243
 31
0.0
  0
LINE
  5
28C5
330
2BB4
100
AcDbEntity
  8
0
 62
     0
100
AcDbLine
 10
-361.5000000000073
 20
-273.6717850437444
 30
0.0
 11
361.4999999999946
 21
-617.9573177702896
 31
0.0
  0
LINE
  5
28C6
330
2BB4
100
AcDbEntity
  8
0
 62
     0
100
AcDbLine
 10
-361.5000000000073
 20
-263.6718332996097
 30
0.0
 11
361.4999999999927
 21
-607.9573660261549
 31
0.0
  0
LINE
  5
28C7
330
2BB4
100
AcDbEntity
  8
0
 62
     0
100
AcDbLine
 10
-361.5000000000055
 20
-253.671881555475
 30
0.0
 11
361.4999999999964
 21
-597.95741428202
 31
0.0
  0
LINE
  5
28C8
330
2BB4
100
AcDbEntity
  8
0
 62
     0
100
AcDbLine
 10
-361.5000000000073
 20
-243.6719298113403
 30
0.0
 11
361.4999999999946
 21
-587.9574625378855
 31
0.0
  0
LINE
  5
28C9
330
2BB4
100
AcDbEntity
  8
0
 62
     0
100
AcDbLine
 10
-361.5000000000055
 20
-233.6719780672074
 30
0.0
 11
361.4999999999946
 21
-577.9575107937516
 31
0.0
  0
LINE
  5
28CA
330
2BB4
100
AcDbEntity
  8
0
 62
     0
100
AcDbLine
 10
-361.5000000000055
 20
-223.6720263230727
 30
0.0
 11
361.4999999999946
 21
-567.957559049617
 31
0.0
  0
LINE
  5
28CB
330
2BB4
100
AcDbEntity
  8
0
 62
     0
100
AcDbLine
 10
-361.5000000000073
 20
-213.672074578938
 30
0.0
 11
361.4999999999927
 21
-557.9576073054822
 31
0.0
  0
LINE
  5
28CC
330
2BB4
100
AcDbEntity
  8
0
 62
     0
100
AcDbLine
 10
-361.5000000000055
 20
-203.6721228348033
 30
0.0
 11
361.4999999999946
 21
-547.9576555613475
 31
0.0
  0
LINE
  5
28CD
330
2BB4
100
AcDbEntity
  8
0
 62
     0
100
AcDbLine
 10
-361.5000000000073
 20
-193.6721710906677
 30
0.0
 11
361.4999999999946
 21
-537.9577038172128
 31
0.0
  0
LINE
  5
28CE
330
2BB4
100
AcDbEntity
  8
0
 62
     0
100
AcDbLine
 10
-361.5000000000073
 20
-183.672219346533
 30
0.0
 11
361.4999999999946
 21
-527.9577520730781
 31
0.0
  0
LINE
  5
28CF
330
2BB4
100
AcDbEntity
  8
0
 62
     0
100
AcDbLine
 10
-361.5000000000073
 20
-173.6722676024001
 30
0.0
 11
361.4999999999946
 21
-517.9578003289451
 31
0.0
  0
LINE
  5
28D0
330
2BB4
100
AcDbEntity
  8
0
 62
     0
100
AcDbLine
 10
-361.5000000000055
 20
-163.6723158582654
 30
0.0
 11
361.4999999999946
 21
-507.9578485848105
 31
0.0
  0
LINE
  5
28D1
330
2BB4
100
AcDbEntity
  8
0
 62
     0
100
AcDbLine
 10
-361.5000000000073
 20
-153.6723641141307
 30
0.0
 11
361.4999999999946
 21
-497.9578968406758
 31
0.0
  0
LINE
  5
28D2
330
2BB4
100
AcDbEntity
  8
0
 62
     0
100
AcDbLine
 10
-361.5000000000073
 20
-143.672412369996
 30
0.0
 11
361.4999999999927
 21
-487.9579450965402
 31
0.0
  0
LINE
  5
28D3
330
2BB4
100
AcDbEntity
  8
0
 62
     0
100
AcDbLine
 10
-361.5000000000055
 20
-133.6724606258613
 30
0.0
 11
361.4999999999964
 21
-477.9579933524064
 31
0.0
  0
LINE
  5
28D4
330
2BB4
100
AcDbEntity
  8
0
 62
     0
100
AcDbLine
 10
-361.5000000000073
 20
-123.6725088817293
 30
0.0
 11
361.4999999999946
 21
-467.9580416082735
 31
0.0
  0
LINE
  5
28D5
330
2BB4
100
AcDbEntity
  8
0
 62
     0
100
AcDbLine
 10
-361.5000000000037
 20
-113.6725571375946
 30
0.0
 11
361.4999999999964
 21
-457.9580898641386
 31
0.0
  0
LINE
  5
28D6
330
2BB4
100
AcDbEntity
  8
0
 62
     0
100
AcDbLine
 10
-361.5000000000073
 20
-103.6726053934589
 30
0.0
 11
361.4999999999964
 21
-447.958138120004
 31
0.0
  0
LINE
  5
28D7
330
2BB4
100
AcDbEntity
  8
0
 62
     0
100
AcDbLine
 10
-361.5000000000073
 20
-93.67265364932428
 30
0.0
 11
361.4999999999964
 21
-437.9581863758692
 31
0.0
  0
LINE
  5
28D8
330
2BB4
100
AcDbEntity
  8
0
 62
     0
100
AcDbLine
 10
-361.5000000000055
 20
-83.67270190518954
 30
0.0
 11
361.4999999999982
 21
-427.9582346317345
 31
0.0
  0
LINE
  5
28D9
330
2BB4
100
AcDbEntity
  8
0
 62
     0
100
AcDbLine
 10
-346.112767223758
 20
-81.00000000000093
 30
0.0
 11
361.4999999999964
 21
-417.9582828876
 31
0.0
  0
LINE
  5
28DA
330
2BB4
100
AcDbEntity
  8
0
 62
     0
100
AcDbLine
 10
-325.1128574867653
 20
-81.00000000000269
 30
0.0
 11
361.4999999999964
 21
-407.9583311434671
 31
0.0
  0
LINE
  5
28DB
330
2BB4
100
AcDbEntity
  8
0
 62
     0
100
AcDbLine
 10
-304.1129477497743
 20
-81.00000000000269
 30
0.0
 11
361.4999999999982
 21
-397.9583793993334
 31
0.0
  0
LINE
  5
28DC
330
2BB4
100
AcDbEntity
  8
0
 62
     0
100
AcDbLine
 10
-283.1130380127852
 20
-81.00000000000182
 30
0.0
 11
361.4999999999964
 21
-387.9584276551987
 31
0.0
  0
LINE
  5
28DD
330
2BB4
100
AcDbEntity
  8
0
 62
     0
100
AcDbLine
 10
-262.1131282757943
 20
-81.00000000000182
 30
0.0
 11
361.4999999999982
 21
-377.9584759110639
 31
0.0
  0
LINE
  5
28DE
330
2BB4
100
AcDbEntity
  8
0
 62
     0
100
AcDbLine
 10
145.6999999999971
 20
-265.1966735965434
 30
0.0
 11
165.8669960823299
 21
-274.8000000000011
 31
0.0
  0
LINE
  5
28DF
330
2BB4
100
AcDbEntity
  8
0
 62
     0
100
AcDbLine
 10
165.8669960823299
 20
-274.8000000000011
 30
0.0
 11
361.4999999999964
 21
-367.9585241669283
 31
0.0
  0
LINE
  5
28E0
330
2BB4
100
AcDbEntity
  8
0
 62
     0
100
AcDbLine
 10
-241.1132185388033
 20
-81.00000000000182
 30
0.0
 11
145.6999999999952
 21
-265.1966735965425
 31
0.0
  0
LINE
  5
28E1
330
2BB4
100
AcDbEntity
  8
0
 62
     0
100
AcDbLine
 10
145.6999999999952
 20
-255.1967218524104
 30
0.0
 11
186.8669058193171
 21
-274.800000000002
 31
0.0
  0
LINE
  5
28E2
330
2BB4
100
AcDbEntity
  8
0
 62
     0
100
AcDbLine
 10
186.8669058193171
 20
-274.800000000002
 30
0.0
 11
361.4999999999946
 21
-357.9585724227954
 31
0.0
  0
LINE
  5
28E3
330
2BB4
100
AcDbEntity
  8
0
 62
     0
100
AcDbLine
 10
-220.1133088018141
 20
-81.00000000000269
 30
0.0
 11
145.6999999999934
 21
-255.1967218524096
 31
0.0
  0
LINE
  5
28E4
330
2BB4
100
AcDbEntity
  8
0
 62
     0
100
AcDbLine
 10
145.6999999999971
 20
-245.1967701082758
 30
0.0
 11
207.86681555631
 21
-274.800000000002
 31
0.0
  0
LINE
  5
28E5
330
2BB4
100
AcDbEntity
  8
0
 62
     0
100
AcDbLine
 10
207.86681555631
 20
-274.800000000002
 30
0.0
 11
361.4999999999964
 21
-347.9586206786607
 31
0.0
  0
LINE
  5
28E6
330
2BB4
100
AcDbEntity
  8
0
 62
     0
100
AcDbLine
 10
-199.1133990648231
 20
-81.00000000000269
 30
0.0
 11
145.6999999999952
 21
-245.1967701082749
 31
0.0
  0
LINE
  5
28E7
330
2BB4
100
AcDbEntity
  8
0
 62
     0
100
AcDbLine
 10
145.6999999999971
 20
-235.1968183641411
 30
0.0
 11
228.8667252932992
 21
-274.8000000000011
 31
0.0
  0
LINE
  5
28E8
330
2BB4
100
AcDbEntity
  8
0
 62
     0
100
AcDbLine
 10
228.8667252933009
 20
-274.800000000002
 30
0.0
 11
361.4999999999964
 21
-337.958668934526
 31
0.0
  0
LINE
  5
28E9
330
2BB4
100
AcDbEntity
  8
0
 62
     0
100
AcDbLine
 10
-178.1134893278304
 20
-81.00000000000269
 30
0.0
 11
145.6999999999952
 21
-235.1968183641402
 31
0.0
  0
LINE
  5
28EA
330
2BB4
100
AcDbEntity
  8
0
 62
     0
100
AcDbLine
 10
145.6999999999952
 20
-225.1968666200055
 30
0.0
 11
249.8666350302883
 21
-274.8000000000011
 31
0.0
  0
LINE
  5
28EB
330
2BB4
100
AcDbEntity
  8
0
 62
     0
100
AcDbLine
 10
249.8666350302901
 20
-274.800000000002
 30
0.0
 11
361.4999999999964
 21
-327.9587171903913
 31
0.0
  0
LINE
  5
28EC
330
2BB4
100
AcDbEntity
  8
0
 62
     0
100
AcDbLine
 10
-157.1135795908412
 20
-81.00000000000269
 30
0.0
 11
145.6999999999952
 21
-225.1968666200055
 31
0.0
  0
LINE
  5
28ED
330
2BB4
100
AcDbEntity
  8
0
 62
     0
100
AcDbLine
 10
145.6999999999952
 20
-215.1969148758708
 30
0.0
 11
270.8665447672812
 21
-274.8000000000011
 31
0.0
  0
LINE
  5
28EE
330
2BB4
100
AcDbEntity
  8
0
 62
     0
100
AcDbLine
 10
270.8665447672829
 20
-274.800000000002
 30
0.0
 11
361.4999999999964
 21
-317.9587654462566
 31
0.0
  0
LINE
  5
28EF
330
2BB4
100
AcDbEntity
  8
0
 62
     0
100
AcDbLine
 10
-136.1136698538503
 20
-81.00000000000182
 30
0.0
 11
145.6999999999952
 21
-215.1969148758708
 31
0.0
  0
LINE
  5
28F0
330
2BB4
100
AcDbEntity
  8
0
 62
     0
100
AcDbLine
 10
145.6999999999934
 20
-205.1969631317379
 30
0.0
 11
291.866454504272
 21
-274.8000000000029
 31
0.0
  0
LINE
  5
28F1
330
2BB4
100
AcDbEntity
  8
0
 62
     0
100
AcDbLine
 10
291.866454504272
 20
-274.8000000000029
 30
0.0
 11
361.4999999999964
 21
-307.9588137021237
 31
0.0
  0
LINE
  5
28F2
330
2BB4
100
AcDbEntity
  8
0
 62
     0
100
AcDbLine
 10
-115.1137601168593
 20
-81.00000000000269
 30
0.0
 11
145.6999999999934
 21
-205.1969631317379
 31
0.0
  0
LINE
  5
28F3
330
2BB4
100
AcDbEntity
  8
0
 62
     0
100
AcDbLine
 10
145.6999999999934
 20
-195.1970113876032
 30
0.0
 11
312.8663642412612
 21
-274.800000000002
 31
0.0
  0
LINE
  5
28F4
330
2BB4
100
AcDbEntity
  8
0
 62
     0
100
AcDbLine
 10
312.8663642412612
 20
-274.800000000002
 30
0.0
 11
361.4999999999964
 21
-297.9588619579889
 31
0.0
  0
LINE
  5
28F5
330
2BB4
100
AcDbEntity
  8
0
 62
     0
100
AcDbLine
 10
-94.11385037986836
 20
-81.00000000000269
 30
0.0
 11
145.6999999999934
 21
-195.1970113876032
 31
0.0
  0
LINE
  5
28F6
330
2BB4
100
AcDbEntity
  8
0
 62
     0
100
AcDbLine
 10
145.6999999999952
 20
-185.1970596434684
 30
0.0
 11
333.8662739782539
 21
-274.8000000000011
 31
0.0
  0
LINE
  5
28F7
330
2BB4
100
AcDbEntity
  8
0
 62
     0
100
AcDbLine
 10
333.8662739782539
 20
-274.8000000000011
 30
0.0
 11
361.4999999999982
 21
-287.9589102138543
 31
0.0
  0
LINE
  5
28F8
330
2BB4
100
AcDbEntity
  8
0
 62
     0
100
AcDbLine
 10
-73.11394064287743
 20
-81.00000000000182
 30
0.0
 11
145.6999999999952
 21
-185.1970596434684
 31
0.0
  0
LINE
  5
28F9
330
2BB4
100
AcDbEntity
  8
0
 62
     0
100
AcDbLine
 10
145.6999999999952
 20
-175.1971078993338
 30
0.0
 11
354.8661837152449
 21
-274.8000000000011
 31
0.0
  0
LINE
  5
28FA
330
2BB4
100
AcDbEntity
  8
0
 62
     0
100
AcDbLine
 10
354.8661837152449
 20
-274.8000000000011
 30
0.0
 11
361.4999999999964
 21
-277.9589584697187
 31
0.0
  0
LINE
  5
28FB
330
2BB4
100
AcDbEntity
  8
0
 62
     0
100
AcDbLine
 10
-52.11403090588646
 20
-81.00000000000182
 30
0.0
 11
145.6999999999952
 21
-175.1971078993338
 31
0.0
  0
LINE
  5
28FC
330
2BB4
100
AcDbEntity
  8
0
 62
     0
100
AcDbLine
 10
145.6999999999971
 20
-165.1971561552
 30
0.0
 11
361.4999999999964
 21
-267.959006725584
 31
0.0
  0
LINE
  5
28FD
330
2BB4
100
AcDbEntity
  8
0
 62
     0
100
AcDbLine
 10
-31.11412116889551
 20
-81.00000000000182
 30
0.0
 11
145.6999999999952
 21
-165.1971561551991
 31
0.0
  0
LINE
  5
28FE
330
2BB4
100
AcDbEntity
  8
0
 62
     0
100
AcDbLine
 10
145.6999999999971
 20
-155.1972044110653
 30
0.0
 11
361.4999999999982
 21
-257.9590549814493
 31
0.0
  0
LINE
  5
28FF
330
2BB4
100
AcDbEntity
  8
0
 62
     0
100
AcDbLine
 10
-10.11421143190455
 20
-81.00000000000182
 30
0.0
 11
145.6999999999952
 21
-155.1972044110643
 31
0.0
  0
LINE
  5
2900
330
2BB4
100
AcDbEntity
  8
0
 62
     0
100
AcDbLine
 10
145.6999999999971
 20
-145.1972526669324
 30
0.0
 11
361.4999999999964
 21
-247.9591032373164
 31
0.0
  0
LINE
  5
2901
330
2BB4
100
AcDbEntity
  8
0
 62
     0
100
AcDbLine
 10
10.88569830508459
 20
-81.00000000000269
 30
0.0
 11
145.6999999999952
 21
-145.1972526669315
 31
0.0
  0
LINE
  5
2902
330
2BB4
100
AcDbEntity
  8
0
 62
     0
100
AcDbLine
 10
145.6999999999971
 20
-135.1973009227976
 30
0.0
 11
361.4999999999964
 21
-237.9591514931817
 31
0.0
  0
LINE
  5
2903
330
2BB4
100
AcDbEntity
  8
0
 62
     0
100
AcDbLine
 10
31.88560804207555
 20
-81.00000000000269
 30
0.0
 11
145.6999999999952
 21
-135.1973009227968
 31
0.0
  0
LINE
  5
2904
330
2BB4
100
AcDbEntity
  8
0
 62
     0
100
AcDbLine
 10
145.6999999999971
 20
-125.197349178662
 30
0.0
 11
361.4999999999982
 21
-227.959199749047
 31
0.0
  0
LINE
  5
2905
330
2BB4
100
AcDbEntity
  8
0
 62
     0
100
AcDbLine
 10
52.88551777906832
 20
-81.00000000000269
 30
0.0
 11
145.6999999999934
 21
-125.1973491786602
 31
0.0
  0
LINE
  5
2906
330
2BB4
100
AcDbEntity
  8
0
 62
     0
100
AcDbLine
 10
145.6999999999952
 20
-115.1973974345273
 30
0.0
 11
361.4999999999927
 21
-217.9592480049114
 31
0.0
  0
LINE
  5
2907
330
2BB4
100
AcDbEntity
  8
0
 62
     0
100
AcDbLine
 10
73.88542751605566
 20
-81.00000000000182
 30
0.0
 11
145.6999999999914
 21
-115.1973974345255
 31
0.0
  0
LINE
  5
2908
330
2BB4
100
AcDbEntity
  8
0
 62
     0
100
AcDbLine
 10
145.6999999999952
 20
-105.1974456903925
 30
0.0
 11
361.4999999999946
 21
-207.9592962607767
 31
0.0
  0
LINE
  5
2909
330
2BB4
100
AcDbEntity
  8
0
 62
     0
100
AcDbLine
 10
94.88533725304842
 20
-81.00000000000182
 30
0.0
 11
145.6999999999934
 21
-105.1974456903908
 31
0.0
  0
LINE
  5
290A
330
2BB4
100
AcDbEntity
  8
0
 62
     0
100
AcDbLine
 10
145.6999999999971
 20
-95.19749394625979
 30
0.0
 11
361.4999999999946
 21
-197.9593445166438
 31
0.0
  0
LINE
  5
290B
330
2BB4
100
AcDbEntity
  8
0
 62
     0
100
AcDbLine
 10
115.8852469900393
 20
-81.00000000000362
 30
0.0
 11
145.6999999999934
 21
-95.19749394625796
 31
0.0
  0
LINE
  5
290C
330
2BB4
100
AcDbEntity
  8
0
 62
     0
100
AcDbLine
 10
145.6999999999952
 20
-85.1975422021251
 30
0.0
 11
361.4999999999927
 21
-187.9593927725091
 31
0.0
  0
LINE
  5
290D
330
2BB4
100
AcDbEntity
  8
0
 62
     0
100
AcDbLine
 10
136.8851567270285
 20
-81.00000000000269
 30
0.0
 11
145.6999999999914
 21
-85.19754220212323
 31
0.0
  0
LINE
  5
290E
330
2BB4
100
AcDbEntity
  8
0
 62
     0
100
AcDbLine
 10
157.8850664640158
 20
-81.00000000000093
 30
0.0
 11
361.4999999999946
 21
-177.9594410283744
 31
0.0
  0
LINE
  5
290F
330
2BB4
100
AcDbEntity
  8
0
 62
     0
100
AcDbLine
 10
178.8849762010086
 20
-81.00000000000093
 30
0.0
 11
361.4999999999946
 21
-167.9594892842397
 31
0.0
  0
LINE
  5
2910
330
2BB4
100
AcDbEntity
  8
0
 62
     0
100
AcDbLine
 10
199.8848859379977
 20
-81.0
 30
0.0
 11
361.4999999999946
 21
-157.959537540105
 31
0.0
  0
LINE
  5
2911
330
2BB4
100
AcDbEntity
  8
0
 62
     0
100
AcDbLine
 10
220.8847956749924
 20
-81.00000000000182
 30
0.0
 11
361.4999999999946
 21
-147.9595857959711
 31
0.0
  0
LINE
  5
2912
330
2BB4
100
AcDbEntity
  8
0
 62
     0
100
AcDbLine
 10
241.8847054119815
 20
-81.00000000000182
 30
0.0
 11
361.4999999999946
 21
-137.9596340518364
 31
0.0
  0
LINE
  5
2913
330
2BB4
100
AcDbEntity
  8
0
 62
     0
100
AcDbLine
 10
262.8846151489706
 20
-81.00000000000182
 30
0.0
 11
361.4999999999927
 21
-127.9596823077017
 31
0.0
  0
LINE
  5
2914
330
2BB4
100
AcDbEntity
  8
0
 62
     0
100
AcDbLine
 10
283.8845248859632
 20
-81.00000000000093
 30
0.0
 11
361.4999999999927
 21
-117.9597305635661
 31
0.0
  0
LINE
  5
2915
330
2BB4
100
AcDbEntity
  8
0
 62
     0
100
AcDbLine
 10
304.8844346229525
 20
-81.00000000000093
 30
0.0
 11
361.4999999999927
 21
-107.9597788194314
 31
0.0
  0
LINE
  5
2916
330
2BB4
100
AcDbEntity
  8
0
 62
     0
100
AcDbLine
 10
325.8843443599453
 20
-81.00000000000093
 30
0.0
 11
361.4999999999927
 21
-97.95982707529674
 31
0.0
  0
LINE
  5
2917
330
2BB4
100
AcDbEntity
  8
0
 62
     0
100
AcDbLine
 10
346.8842540969363
 20
-81.00000000000269
 30
0.0
 11
361.4999999999946
 21
-87.95987533116386
 31
0.0
  0
ENDBLK
  5
2918
330
2BB4
100
AcDbEntity
  8
0
100
AcDbBlockEnd
  0
BLOCK
  5
2BB7
330
2BB6
100
AcDbEntity
  8
0
100
AcDbBlockBegin
  2
*X71
 70
     1
 10
0.0
 20
0.0
 30
0.0
  3
*X71
  1

  0
LINE
  5
291B
330
2BB6
100
AcDbEntity
  8
0
 62
     0
100
AcDbLine
 10
346.2926121891724
 20
-680.9999999999988
 30
0.0
 11
361.5
 21
-673.7583905756145
 31
0.0
  0
LINE
  5
291C
330
2BB6
100
AcDbEntity
  8
0
 62
     0
100
AcDbLine
 10
325.2927024521814
 20
-680.9999999999988
 30
0.0
 11
361.4999999999982
 21
-663.7584388314807
 31
0.0
  0
LINE
  5
291D
330
2BB6
100
AcDbEntity
  8
0
 62
     0
100
AcDbLine
 10
304.2927927151922
 20
-681.0
 30
0.0
 11
361.5
 21
-653.758487087347
 31
0.0
  0
LINE
  5
291E
330
2BB6
100
AcDbEntity
  8
0
 62
     0
100
AcDbLine
 10
283.2928829781995
 20
-681.0
 30
0.0
 11
361.4999999999982
 21
-643.7585353432123
 31
0.0
  0
LINE
  5
291F
330
2BB6
100
AcDbEntity
  8
0
 62
     0
100
AcDbLine
 10
262.2929732412085
 20
-681.0
 30
0.0
 11
361.4999999999982
 21
-633.7585835990775
 31
0.0
  0
LINE
  5
2920
330
2BB6
100
AcDbEntity
  8
0
 62
     0
100
AcDbLine
 10
241.2930635042176
 20
-681.0
 30
0.0
 11
361.5
 21
-623.7586318549428
 31
0.0
  0
LINE
  5
2921
330
2BB6
100
AcDbEntity
  8
0
 62
     0
100
AcDbLine
 10
220.2931537672266
 20
-681.0000000000008
 30
0.0
 11
361.5
 21
-613.7586801108091
 31
0.0
  0
LINE
  5
2922
330
2BB6
100
AcDbEntity
  8
0
 62
     0
100
AcDbLine
 10
199.2932440302356
 20
-681.0000000000008
 30
0.0
 11
361.5
 21
-603.7587283666753
 31
0.0
  0
LINE
  5
2923
330
2BB6
100
AcDbEntity
  8
0
 62
     0
100
AcDbLine
 10
178.2933342932464
 20
-681.0
 30
0.0
 11
361.4999999999982
 21
-593.7587766225406
 31
0.0
  0
LINE
  5
2924
330
2BB6
100
AcDbEntity
  8
0
 62
     0
100
AcDbLine
 10
157.2934245562574
 20
-681.0
 30
0.0
 11
361.5
 21
-583.7588248784055
 31
0.0
  0
LINE
  5
2925
330
2BB6
100
AcDbEntity
  8
0
 62
     0
100
AcDbLine
 10
136.2935148192646
 20
-681.0
 30
0.0
 11
361.5
 21
-573.7588731342712
 31
0.0
  0
LINE
  5
2926
330
2BB6
100
AcDbEntity
  8
0
 62
     0
100
AcDbLine
 10
115.2936050822736
 20
-681.0
 30
0.0
 11
361.4999999999982
 21
-563.7589213901374
 31
0.0
  0
LINE
  5
2927
330
2BB6
100
AcDbEntity
  8
0
 62
     0
100
AcDbLine
 10
94.29369534528083
 20
-681.0000000000008
 30
0.0
 11
361.4999999999982
 21
-553.7589696460034
 31
0.0
  0
LINE
  5
2928
330
2BB6
100
AcDbEntity
  8
0
 62
     0
100
AcDbLine
 10
73.29378560829354
 20
-681.0
 30
0.0
 11
361.4999999999982
 21
-543.7590179018688
 31
0.0
  0
LINE
  5
2929
330
2BB6
100
AcDbEntity
  8
0
 62
     0
100
AcDbLine
 10
52.29387587130258
 20
-680.9999999999988
 30
0.0
 11
361.4999999999982
 21
-533.759066157734
 31
0.0
  0
LINE
  5
292A
330
2BB6
100
AcDbEntity
  8
0
 62
     0
100
AcDbLine
 10
31.29396613431163
 20
-680.9999999999988
 30
0.0
 11
361.5
 21
-523.7591144135985
 31
0.0
  0
LINE
  5
292B
330
2BB6
100
AcDbEntity
  8
0
 62
     0
100
AcDbLine
 10
10.29405639732067
 20
-681.0
 30
0.0
 11
361.4999999999982
 21
-513.7591626694654
 31
0.0
  0
LINE
  5
292C
330
2BB6
100
AcDbEntity
  8
0
 62
     0
100
AcDbLine
 10
-10.70585333967028
 20
-681.0
 30
0.0
 11
361.5
 21
-503.7592109253299
 31
0.0
  0
LINE
  5
292D
330
2BB6
100
AcDbEntity
  8
0
 62
     0
100
AcDbLine
 10
-31.70576307666124
 20
-681.0000000000008
 30
0.0
 11
361.4999999999982
 21
-493.7592591811962
 31
0.0
  0
LINE
  5
292E
330
2BB6
100
AcDbEntity
  8
0
 62
     0
100
AcDbLine
 10
-52.70567281365038
 20
-681.0
 30
0.0
 11
361.5
 21
-483.7593074370614
 31
0.0
  0
LINE
  5
292F
330
2BB6
100
AcDbEntity
  8
0
 62
     0
100
AcDbLine
 10
-73.70558255063952
 20
-680.9999999999988
 30
0.0
 11
361.5
 21
-473.7593556929267
 31
0.0
  0
LINE
  5
2930
330
2BB6
100
AcDbEntity
  8
0
 62
     0
100
AcDbLine
 10
-94.70549228763227
 20
-680.9999999999988
 30
0.0
 11
361.4999999999982
 21
-463.759403948792
 31
0.0
  0
LINE
  5
2931
330
2BB6
100
AcDbEntity
  8
0
 62
     0
100
AcDbLine
 10
-115.7054020246232
 20
-681.0
 30
0.0
 11
361.4999999999982
 21
-453.7594522046584
 31
0.0
  0
LINE
  5
2932
330
2BB6
100
AcDbEntity
  8
0
 62
     0
100
AcDbLine
 10
-136.7053117616142
 20
-681.0000000000008
 30
0.0
 11
361.4999999999982
 21
-443.7595004605245
 31
0.0
  0
LINE
  5
2933
330
2BB6
100
AcDbEntity
  8
0
 62
     0
100
AcDbLine
 10
-157.7052214986052
 20
-681.0000000000008
 30
0.0
 11
361.5
 21
-433.7595487163888
 31
0.0
  0
LINE
  5
2934
330
2BB6
100
AcDbEntity
  8
0
 62
     0
100
AcDbLine
 10
-178.7051312355979
 20
-681.0
 30
0.0
 11
361.4999999999982
 21
-423.7595969722542
 31
0.0
  0
LINE
  5
2935
330
2BB6
100
AcDbEntity
  8
0
 62
     0
100
AcDbLine
 10
-199.7050409725853
 20
-680.9999999999988
 30
0.0
 11
361.5
 21
-413.7596452281194
 31
0.0
  0
LINE
  5
2936
330
2BB6
100
AcDbEntity
  8
0
 62
     0
100
AcDbLine
 10
-220.7049507095762
 20
-680.9999999999988
 30
0.0
 11
361.5
 21
-403.7596934839866
 31
0.0
  0
LINE
  5
2937
330
2BB6
100
AcDbEntity
  8
0
 62
     0
100
AcDbLine
 10
-241.7048604465672
 20
-681.0
 30
0.0
 11
361.4999999999982
 21
-393.7597417398529
 31
0.0
  0
LINE
  5
2938
330
2BB6
100
AcDbEntity
  8
0
 62
     0
100
AcDbLine
 10
-262.7047701835581
 20
-681.0
 30
0.0
 11
361.4999999999982
 21
-383.7597899957182
 31
0.0
  0
LINE
  5
2939
330
2BB6
100
AcDbEntity
  8
0
 62
     0
100
AcDbLine
 10
-283.7046799205491
 20
-681.0
 30
0.0
 11
361.4999999999982
 21
-373.7598382515835
 31
0.0
  0
LINE
  5
293A
330
2BB6
100
AcDbEntity
  8
0
 62
     0
100
AcDbLine
 10
-304.7045896575401
 20
-681.0
 30
0.0
 11
361.4999999999982
 21
-363.7598865074488
 31
0.0
  0
LINE
  5
293B
330
2BB6
100
AcDbEntity
  8
0
 62
     0
100
AcDbLine
 10
-325.704499394531
 20
-681.0
 30
0.0
 11
361.4999999999982
 21
-353.7599347633149
 31
0.0
  0
LINE
  5
293C
330
2BB6
100
AcDbEntity
  8
0
 62
     0
100
AcDbLine
 10
-346.7044091315183
 20
-680.9999999999988
 30
0.0
 11
361.5
 21
-343.7599830191794
 31
0.0
  0
LINE
  5
293D
330
2BB6
100
AcDbEntity
  8
0
 62
     0
100
AcDbLine
 10
-361.5
 20
-678.0455640015897
 30
0.0
 11
361.5
 21
-333.7600312750455
 31
0.0
  0
LINE
  5
293E
330
2BB6
100
AcDbEntity
  8
0
 62
     0
100
AcDbLine
 10
-361.5
 20
-668.045612257455
 30
0.0
 11
361.4999999999982
 21
-323.7600795309108
 31
0.0
  0
LINE
  5
293F
330
2BB6
100
AcDbEntity
  8
0
 62
     0
100
AcDbLine
 10
-361.5
 20
-658.0456605133202
 30
0.0
 11
361.5
 21
-313.760127786776
 31
0.0
  0
LINE
  5
2940
330
2BB6
100
AcDbEntity
  8
0
 62
     0
100
AcDbLine
 10
-361.5
 20
-648.0457087691856
 30
0.0
 11
361.5
 21
-303.7601760426414
 31
0.0
  0
LINE
  5
2941
330
2BB6
100
AcDbEntity
  8
0
 62
     0
100
AcDbLine
 10
-361.5000000000017
 20
-638.0457570250519
 30
0.0
 11
361.4999999999982
 21
-293.7602242985077
 31
0.0
  0
LINE
  5
2942
330
2BB6
100
AcDbEntity
  8
0
 62
     0
100
AcDbLine
 10
-361.5
 20
-628.0458052809173
 30
0.0
 11
361.4999999999982
 21
-283.7602725543737
 31
0.0
  0
LINE
  5
2943
330
2BB6
100
AcDbEntity
  8
0
 62
     0
100
AcDbLine
 10
359.316672550125
 20
-274.7999999999993
 30
0.0
 11
361.4999999999982
 21
-273.7603208102391
 31
0.0
  0
LINE
  5
2944
330
2BB6
100
AcDbEntity
  8
0
 62
     0
100
AcDbLine
 10
-361.4999999999982
 20
-618.0458535367825
 30
0.0
 11
359.3166725501214
 21
-274.8000000000011
 31
0.0
  0
LINE
  5
2945
330
2BB6
100
AcDbEntity
  8
0
 62
     0
100
AcDbLine
 10
338.3167628131323
 20
-274.7999999999993
 30
0.0
 11
361.4999999999982
 21
-263.7603690661044
 31
0.0
  0
LINE
  5
2946
330
2BB6
100
AcDbEntity
  8
0
 62
     0
100
AcDbLine
 10
-361.5
 20
-608.0459017926478
 30
0.0
 11
338.3167628131305
 21
-274.8000000000001
 31
0.0
  0
LINE
  5
2947
330
2BB6
100
AcDbEntity
  8
0
 62
     0
100
AcDbLine
 10
317.3168530761412
 20
-274.7999999999993
 30
0.0
 11
361.4999999999982
 21
-253.7604173219697
 31
0.0
  0
LINE
  5
2948
330
2BB6
100
AcDbEntity
  8
0
 62
     0
100
AcDbLine
 10
-361.5
 20
-598.0459500485131
 30
0.0
 11
317.3168530761377
 21
-274.8000000000001
 31
0.0
  0
LINE
  5
2949
330
2BB6
100
AcDbEntity
  8
0
 62
     0
100
AcDbLine
 10
296.3169433391504
 20
-274.8000000000001
 30
0.0
 11
361.4999999999982
 21
-243.760465577835
 31
0.0
  0
LINE
  5
294A
330
2BB6
100
AcDbEntity
  8
0
 62
     0
100
AcDbLine
 10
-361.5000000000017
 20
-588.0459983043793
 30
0.0
 11
296.3169433391467
 21
-274.8000000000011
 31
0.0
  0
LINE
  5
294B
330
2BB6
100
AcDbEntity
  8
0
 62
     0
100
AcDbLine
 10
275.3170336021594
 20
-274.8000000000001
 30
0.0
 11
361.5
 21
-233.7605138337012
 31
0.0
  0
LINE
  5
294C
330
2BB6
100
AcDbEntity
  8
0
 62
     0
100
AcDbLine
 10
-361.5
 20
-578.0460465602454
 30
0.0
 11
275.3170336021594
 21
-274.8000000000001
 31
0.0
  0
LINE
  5
294D
330
2BB6
100
AcDbEntity
  8
0
 62
     0
100
AcDbLine
 10
254.3171238651685
 20
-274.8000000000001
 30
0.0
 11
361.4999999999982
 21
-223.7605620895664
 31
0.0
  0
LINE
  5
294E
330
2BB6
100
AcDbEntity
  8
0
 62
     0
100
AcDbLine
 10
-361.5
 20
-568.0460948161107
 30
0.0
 11
254.3171238651685
 21
-274.8000000000001
 31
0.0
  0
LINE
  5
294F
330
2BB6
100
AcDbEntity
  8
0
 62
     0
100
AcDbLine
 10
233.3172141281775
 20
-274.7999999999993
 30
0.0
 11
361.4999999999982
 21
-213.7606103454317
 31
0.0
  0
LINE
  5
2950
330
2BB6
100
AcDbEntity
  8
0
 62
     0
100
AcDbLine
 10
-361.5000000000017
 20
-558.0461430719767
 30
0.0
 11
233.3172141281757
 21
-274.8000000000001
 31
0.0
  0
LINE
  5
2951
330
2BB6
100
AcDbEntity
  8
0
 62
     0
100
AcDbLine
 10
212.3173043911884
 20
-274.7999999999993
 30
0.0
 11
361.5
 21
-203.7606586012971
 31
0.0
  0
LINE
  5
2952
330
2BB6
100
AcDbEntity
  8
0
 62
     0
100
AcDbLine
 10
-361.5
 20
-548.046191327842
 30
0.0
 11
212.3173043911866
 21
-274.8000000000001
 31
0.0
  0
LINE
  5
2953
330
2BB6
100
AcDbEntity
  8
0
 62
     0
100
AcDbLine
 10
191.3173946541974
 20
-274.7999999999993
 30
0.0
 11
361.4999999999982
 21
-193.7607068571633
 31
0.0
  0
LINE
  5
2954
330
2BB6
100
AcDbEntity
  8
0
 62
     0
100
AcDbLine
 10
-361.5
 20
-538.0462395837073
 30
0.0
 11
191.3173946541956
 21
-274.8000000000001
 31
0.0
  0
LINE
  5
2955
330
2BB6
100
AcDbEntity
  8
0
 62
     0
100
AcDbLine
 10
170.3174849172064
 20
-274.7999999999993
 30
0.0
 11
361.4999999999982
 21
-183.7607551130286
 31
0.0
  0
LINE
  5
2956
330
2BB6
100
AcDbEntity
  8
0
 62
     0
100
AcDbLine
 10
-361.5
 20
-528.0462878395728
 30
0.0
 11
170.3174849172064
 21
-274.7999999999993
 31
0.0
  0
LINE
  5
2957
330
2BB6
100
AcDbEntity
  8
0
 62
     0
100
AcDbLine
 10
149.3175751802155
 20
-274.8000000000001
 30
0.0
 11
361.4999999999982
 21
-173.7608033688948
 31
0.0
  0
LINE
  5
2958
330
2BB6
100
AcDbEntity
  8
0
 62
     0
100
AcDbLine
 10
-361.5
 20
-518.0463360954388
 30
0.0
 11
149.3175751802155
 21
-274.8000000000001
 31
0.0
  0
LINE
  5
2959
330
2BB6
100
AcDbEntity
  8
0
 62
     0
100
AcDbLine
 10
145.7000000000024
 20
-266.5227021951441
 30
0.0
 11
361.5
 21
-163.7608516247601
 31
0.0
  0
LINE
  5
295A
330
2BB6
100
AcDbEntity
  8
0
 62
     0
100
AcDbLine
 10
-361.5
 20
-508.0463843513043
 30
0.0
 11
145.7000000000007
 21
-266.5227021951441
 31
0.0
  0
LINE
  5
295B
330
2BB6
100
AcDbEntity
  8
0
 62
     0
100
AcDbLine
 10
145.7000000000007
 20
-256.5227504510094
 30
0.0
 11
361.5
 21
-153.7608998806254
 31
0.0
  0
LINE
  5
295C
330
2BB6
100
AcDbEntity
  8
0
 62
     0
100
AcDbLine
 10
-361.5
 20
-498.0464326071696
 30
0.0
 11
145.6999999999989
 21
-256.5227504510094
 31
0.0
  0
LINE
  5
295D
330
2BB6
100
AcDbEntity
  8
0
 62
     0
100
AcDbLine
 10
145.7000000000024
 20
-246.5227987068747
 30
0.0
 11
361.5
 21
-143.7609481364907
 31
0.0
  0
LINE
  5
295E
330
2BB6
100
AcDbEntity
  8
0
 62
     0
100
AcDbLine
 10
-361.5
 20
-488.0464808630349
 30
0.0
 11
145.7000000000024
 21
-246.5227987068747
 31
0.0
  0
LINE
  5
295F
330
2BB6
100
AcDbEntity
  8
0
 62
     0
100
AcDbLine
 10
145.7000000000024
 20
-236.5228469627409
 30
0.0
 11
361.5
 21
-133.7609963923569
 31
0.0
  0
LINE
  5
2960
330
2BB6
100
AcDbEntity
  8
0
 62
     0
100
AcDbLine
 10
-361.5
 20
-478.0465291189011
 30
0.0
 11
145.7000000000024
 21
-236.5228469627409
 31
0.0
  0
LINE
  5
2961
330
2BB6
100
AcDbEntity
  8
0
 62
     0
100
AcDbLine
 10
145.7000000000007
 20
-226.5228952186071
 30
0.0
 11
361.4999999999982
 21
-123.7610446482231
 31
0.0
  0
LINE
  5
2962
330
2BB6
100
AcDbEntity
  8
0
 62
     0
100
AcDbLine
 10
-361.5000000000017
 20
-468.0465773747671
 30
0.0
 11
145.7000000000007
 21
-226.5228952186071
 31
0.0
  0
LINE
  5
2963
330
2BB6
100
AcDbEntity
  8
0
 62
     0
100
AcDbLine
 10
145.7000000000007
 20
-216.5229434744724
 30
0.0
 11
361.4999999999982
 21
-113.7610929040884
 31
0.0
  0
LINE
  5
2964
330
2BB6
100
AcDbEntity
  8
0
 62
     0
100
AcDbLine
 10
-361.5
 20
-458.0466256306316
 30
0.0
 11
145.7000000000007
 21
-216.5229434744724
 31
0.0
  0
LINE
  5
2965
330
2BB6
100
AcDbEntity
  8
0
 62
     0
100
AcDbLine
 10
145.7000000000007
 20
-206.5229917303377
 30
0.0
 11
361.5
 21
-103.7611411599537
 31
0.0
  0
LINE
  5
2966
330
2BB6
100
AcDbEntity
  8
0
 62
     0
100
AcDbLine
 10
-361.4999999999982
 20
-448.0466738864969
 30
0.0
 11
145.7000000000007
 21
-206.5229917303377
 31
0.0
  0
LINE
  5
2967
330
2BB6
100
AcDbEntity
  8
0
 62
     0
100
AcDbLine
 10
145.7000000000007
 20
-196.523039986203
 30
0.0
 11
361.5
 21
-93.76118941581808
 31
0.0
  0
LINE
  5
2968
330
2BB6
100
AcDbEntity
  8
0
 62
     0
100
AcDbLine
 10
-361.5
 20
-438.0467221423621
 30
0.0
 11
145.7000000000007
 21
-196.523039986203
 31
0.0
  0
LINE
  5
2969
330
2BB6
100
AcDbEntity
  8
0
 62
     0
100
AcDbLine
 10
145.7000000000007
 20
-186.5230882420692
 30
0.0
 11
361.4999999999982
 21
-83.7612376716852
 31
0.0
  0
LINE
  5
296A
330
2BB6
100
AcDbEntity
  8
0
 62
     0
100
AcDbLine
 10
-361.5
 20
-428.0467703982285
 30
0.0
 11
145.7000000000007
 21
-186.5230882420692
 31
0.0
  0
LINE
  5
296B
330
2BB6
100
AcDbEntity
  8
0
 62
     0
100
AcDbLine
 10
145.7000000000007
 20
-176.5231364979345
 30
0.0
 11
346.2986924314373
 21
-81.00000000000182
 31
0.0
  0
LINE
  5
296C
330
2BB6
100
AcDbEntity
  8
0
 62
     0
100
AcDbLine
 10
-361.5000000000017
 20
-418.0468186540945
 30
0.0
 11
145.6999999999989
 21
-176.5231364979354
 31
0.0
  0
LINE
  5
296D
330
2BB6
100
AcDbEntity
  8
0
 62
     0
100
AcDbLine
 10
145.7000000000007
 20
-166.5231847538007
 30
0.0
 11
325.2987826944482
 21
-81.00000000000182
 31
0.0
  0
LINE
  5
296E
330
2BB6
100
AcDbEntity
  8
0
 62
     0
100
AcDbLine
 10
-361.5
 20
-408.04686690996
 30
0.0
 11
145.7000000000007
 21
-166.5231847538007
 31
0.0
  0
LINE
  5
296F
330
2BB6
100
AcDbEntity
  8
0
 62
     0
100
AcDbLine
 10
145.7000000000007
 20
-156.5232330096651
 30
0.0
 11
304.2988729574554
 21
-81.00000000000182
 31
0.0
  0
LINE
  5
2970
330
2BB6
100
AcDbEntity
  8
0
 62
     0
100
AcDbLine
 10
-361.5
 20
-398.0469151658253
 30
0.0
 11
145.7000000000007
 21
-156.5232330096651
 31
0.0
  0
LINE
  5
2971
330
2BB6
100
AcDbEntity
  8
0
 62
     0
100
AcDbLine
 10
145.7000000000007
 20
-146.5232812655304
 30
0.0
 11
283.2989632204662
 21
-81.00000000000093
 31
0.0
  0
LINE
  5
2972
330
2BB6
100
AcDbEntity
  8
0
 62
     0
100
AcDbLine
 10
-361.5000000000017
 20
-388.0469634216906
 30
0.0
 11
145.7000000000007
 21
-146.5232812655304
 31
0.0
  0
LINE
  5
2973
330
2BB6
100
AcDbEntity
  8
0
 62
     0
100
AcDbLine
 10
145.7000000000007
 20
-136.5233295213966
 30
0.0
 11
262.2990534834753
 21
-81.00000000000093
 31
0.0
  0
LINE
  5
2974
330
2BB6
100
AcDbEntity
  8
0
 62
     0
100
AcDbLine
 10
-361.4999999999982
 20
-378.0470116775559
 30
0.0
 11
145.7000000000007
 21
-136.5233295213966
 31
0.0
  0
LINE
  5
2975
330
2BB6
100
AcDbEntity
  8
0
 62
     0
100
AcDbLine
 10
145.7000000000007
 20
-126.5233777772619
 30
0.0
 11
241.2991437464861
 21
-81.00000000000093
 31
0.0
  0
LINE
  5
2976
330
2BB6
100
AcDbEntity
  8
0
 62
     0
100
AcDbLine
 10
-361.5
 20
-368.0470599334212
 30
0.0
 11
145.7000000000007
 21
-126.5233777772619
 31
0.0
  0
LINE
  5
2977
330
2BB6
100
AcDbEntity
  8
0
 62
     0
100
AcDbLine
 10
145.7000000000007
 20
-116.5234260331281
 30
0.0
 11
220.2992340094934
 21
-81.00000000000093
 31
0.0
  0
LINE
  5
2978
330
2BB6
100
AcDbEntity
  8
0
 62
     0
100
AcDbLine
 10
-361.5
 20
-358.0471081892883
 30
0.0
 11
145.7000000000007
 21
-116.5234260331281
 31
0.0
  0
LINE
  5
2979
330
2BB6
100
AcDbEntity
  8
0
 62
     0
100
AcDbLine
 10
145.7000000000007
 20
-106.5234742889934
 30
0.0
 11
199.2993242725042
 21
-81.00000000000093
 31
0.0
  0
LINE
  5
297A
330
2BB6
100
AcDbEntity
  8
0
 62
     0
100
AcDbLine
 10
-361.4999999999982
 20
-348.0471564451536
 30
0.0
 11
145.7000000000007
 21
-106.5234742889934
 31
0.0
  0
LINE
  5
297B
330
2BB6
100
AcDbEntity
  8
0
 62
     0
100
AcDbLine
 10
145.7000000000007
 20
-96.52352254485869
 30
0.0
 11
178.2994145355114
 21
-81.00000000000093
 31
0.0
  0
LINE
  5
297C
330
2BB6
100
AcDbEntity
  8
0
 62
     0
100
AcDbLine
 10
-361.5
 20
-338.0472047010189
 30
0.0
 11
145.7000000000007
 21
-96.52352254485869
 31
0.0
  0
LINE
  5
297D
330
2BB6
100
AcDbEntity
  8
0
 62
     0
100
AcDbLine
 10
145.7000000000007
 20
-86.52357080072397
 30
0.0
 11
157.2995047985205
 21
-81.00000000000182
 31
0.0
  0
LINE
  5
297E
330
2BB6
100
AcDbEntity
  8
0
 62
     0
100
AcDbLine
 10
-361.5
 20
-328.0472529568851
 30
0.0
 11
145.7000000000007
 21
-86.52357080072397
 31
0.0
  0
LINE
  5
297F
330
2BB6
100
AcDbEntity
  8
0
 62
     0
100
AcDbLine
 10
-361.5000000000017
 20
-318.0473012127504
 30
0.0
 11
136.2995950615313
 21
-81.0
 31
0.0
  0
LINE
  5
2980
330
2BB6
100
AcDbEntity
  8
0
 62
     0
100
AcDbLine
 10
-361.5
 20
-308.0473494686166
 30
0.0
 11
115.2996853245422
 21
-81.00000000000093
 31
0.0
  0
LINE
  5
2981
330
2BB6
100
AcDbEntity
  8
0
 62
     0
100
AcDbLine
 10
-361.5
 20
-298.0473977244819
 30
0.0
 11
94.29977558755309
 21
-81.0
 31
0.0
  0
LINE
  5
2982
330
2BB6
100
AcDbEntity
  8
0
 62
     0
100
AcDbLine
 10
-361.5
 20
-288.0474459803463
 30
0.0
 11
73.29986585056031
 21
-81.0
 31
0.0
  0
LINE
  5
2983
330
2BB6
100
AcDbEntity
  8
0
 62
     0
100
AcDbLine
 10
-361.4999999999982
 20
-278.0474942362116
 30
0.0
 11
52.29995611357118
 21
-81.0
 31
0.0
  0
LINE
  5
2984
330
2BB6
100
AcDbEntity
  8
0
 62
     0
100
AcDbLine
 10
-361.5
 20
-268.0475424920778
 30
0.0
 11
31.30004637657839
 21
-81.00000000000093
 31
0.0
  0
LINE
  5
2985
330
2BB6
100
AcDbEntity
  8
0
 62
     0
100
AcDbLine
 10
-361.5
 20
-258.047590747944
 30
0.0
 11
10.30013663958743
 21
-81.00000000000182
 31
0.0
  0
LINE
  5
2986
330
2BB6
100
AcDbEntity
  8
0
 62
     0
100
AcDbLine
 10
-361.5000000000017
 20
-248.0476390038093
 30
0.0
 11
-10.69977309740352
 21
-81.00000000000093
 31
0.0
  0
LINE
  5
2987
330
2BB6
100
AcDbEntity
  8
0
 62
     0
100
AcDbLine
 10
-361.5
 20
-238.0476872596746
 30
0.0
 11
-31.69968283439266
 21
-81.00000000000093
 31
0.0
  0
LINE
  5
2988
330
2BB6
100
AcDbEntity
  8
0
 62
     0
100
AcDbLine
 10
-361.5
 20
-228.0477355155399
 30
0.0
 11
-52.69959257138362
 21
-81.0
 31
0.0
  0
LINE
  5
2989
330
2BB6
100
AcDbEntity
  8
0
 62
     0
100
AcDbLine
 10
-361.5000000000017
 20
-218.0477837714061
 30
0.0
 11
-73.69950230837457
 21
-81.0
 31
0.0
  0
LINE
  5
298A
330
2BB6
100
AcDbEntity
  8
0
 62
     0
100
AcDbLine
 10
-361.5
 20
-208.0478320272723
 30
0.0
 11
-94.69941204536372
 21
-81.00000000000093
 31
0.0
  0
LINE
  5
298B
330
2BB6
100
AcDbEntity
  8
0
 62
     0
100
AcDbLine
 10
-361.5
 20
-198.0478802831366
 30
0.0
 11
-115.6993217823565
 21
-81.00000000000093
 31
0.0
  0
LINE
  5
298C
330
2BB6
100
AcDbEntity
  8
0
 62
     0
100
AcDbLine
 10
-361.5
 20
-188.047928539002
 30
0.0
 11
-136.6992315193456
 21
-81.0
 31
0.0
  0
LINE
  5
298D
330
2BB6
100
AcDbEntity
  8
0
 62
     0
100
AcDbLine
 10
-361.4999999999982
 20
-178.0479767948673
 30
0.0
 11
-157.6991412563366
 21
-81.0
 31
0.0
  0
LINE
  5
298E
330
2BB6
100
AcDbEntity
  8
0
 62
     0
100
AcDbLine
 10
-361.5
 20
-168.0480250507334
 30
0.0
 11
-178.6990509933275
 21
-81.00000000000093
 31
0.0
  0
LINE
  5
298F
330
2BB6
100
AcDbEntity
  8
0
 62
     0
100
AcDbLine
 10
-361.5
 20
-158.0480733065988
 30
0.0
 11
-199.6989607303203
 21
-81.00000000000093
 31
0.0
  0
LINE
  5
2990
330
2BB6
100
AcDbEntity
  8
0
 62
     0
100
AcDbLine
 10
-361.5000000000017
 20
-148.048121562465
 30
0.0
 11
-220.6988704673113
 21
-81.00000000000182
 31
0.0
  0
LINE
  5
2991
330
2BB6
100
AcDbEntity
  8
0
 62
     0
100
AcDbLine
 10
-361.5
 20
-138.0481698183303
 30
0.0
 11
-241.6987802043004
 21
-81.00000000000093
 31
0.0
  0
LINE
  5
2992
330
2BB6
100
AcDbEntity
  8
0
 62
     0
100
AcDbLine
 10
-361.5
 20
-128.0482180741955
 30
0.0
 11
-262.6986899412914
 21
-81.00000000000093
 31
0.0
  0
LINE
  5
2993
330
2BB6
100
AcDbEntity
  8
0
 62
     0
100
AcDbLine
 10
-361.5000000000017
 20
-118.0482663300618
 30
0.0
 11
-283.6985996782805
 21
-81.0
 31
0.0
  0
LINE
  5
2994
330
2BB6
100
AcDbEntity
  8
0
 62
     0
100
AcDbLine
 10
-361.5
 20
-108.048314585927
 30
0.0
 11
-304.6985094152732
 21
-81.00000000000093
 31
0.0
  0
LINE
  5
2995
330
2BB6
100
AcDbEntity
  8
0
 62
     0
100
AcDbLine
 10
-361.5
 20
-98.0483628417933
 30
0.0
 11
-325.6984191522624
 21
-81.00000000000182
 31
0.0
  0
LINE
  5
2996
330
2BB6
100
AcDbEntity
  8
0
 62
     0
100
AcDbLine
 10
-361.5
 20
-88.04841109765858
 30
0.0
 11
-346.6983288892552
 21
-81.00000000000093
 31
0.0
  0
ENDBLK
  5
2997
330
2BB6
100
AcDbEntity
  8
0
100
AcDbBlockEnd
  0
ENDSEC
  0
SECTION
  2
ENTITIES
  0
TEXT
  5
953
330
2ADE
100
AcDbEntity
  8
OUTLINE
  6
Continuous
 62
     3
100
AcDbText
 10
-418.231467
 20
13.715189
 30
0.0
 40
64.0
  1
 
 41
0.9
100
AcDbText
  0
TEXT
  5
954
330
2ADE
100
AcDbEntity
  8
OUTLINE
  6
Continuous
 62
     3
100
AcDbText
 10
-418.231467
 20
13.715189
 30
0.0
 40
64.0
  1
 
 41
0.9
100
AcDbText
  0
TEXT
  5
955
330
2ADE
100
AcDbEntity
  8
OUTLINE
  6
Continuous
 62
     3
100
AcDbText
 10
1341.41903
 20
-706.0588199999997
 30
0.0
 40
64.0
  1
 
 41
0.9
100
AcDbText
  0
TEXT
  5
956
330
2ADE
100
AcDbEntity
  8
OUTLINE
  6
Continuous
 62
     3
100
AcDbText
 10
1341.41903
 20
-706.0588199999997
 30
0.0
 40
64.0
  1
 
 41
0.9
100
AcDbText
  0
TEXT
  5
957
330
2ADE
100
AcDbEntity
  8
OUTLINE
  6
Continuous
 62
     3
100
AcDbText
 10
1341.41903
 20
-706.0588199999997
 30
0.0
 40
64.0
  1
 
 41
0.9
100
AcDbText
  0
TEXT
  5
958
330
2ADE
100
AcDbEntity
  8
OUTLINE
  6
Continuous
 62
     3
100
AcDbText
 10
1341.41903
 20
-706.0588199999997
 30
0.0
 40
64.0
  1
 
 41
0.9
100
AcDbText
  0
TEXT
  5
29EA
330
2ADE
100
AcDbEntity
  8
ETC
100
AcDbText
 10
527.6816116987993
 20
565.8763752417772
 30
0.0
 40
64.0
  1
システム部材
 41
0.9
100
AcDbText
  0
TEXT
  5
29EB
330
2ADE
100
AcDbEntity
  8
ETC
100
AcDbText
 10
533.8896096987967
 20
666.7597012417773
 30
0.0
 40
64.0
  1
W-70SDA-A_6
 41
0.9
100
AcDbText
  0
CIRCLE
  5
29EC
330
2ADE
100
AcDbEntity
  8
ARRANGE
100
AcDbCircle
 10
0.0
 20
0.0
 30
0.0
 40
40.0
  0
LINE
  5
29ED
330
2ADE
100
AcDbEntity
  8
BASIS
100
AcDbLine
 10
0.0
 20
25.0
 30
0.0
 11
0.0
 21
-727.0
 31
0.0
  0
LINE
  5
29EE
330
2ADE
100
AcDbEntity
  8
DETAIL
100
AcDbLine
 10
361.5
 20
-681.0
 30
0.0
 11
361.5
 21
-81.0
 31
0.0
  0
LINE
  5
29EF
330
2ADE
100
AcDbEntity
  8
DETAIL
100
AcDbLine
 10
-361.5
 20
-681.0
 30
0.0
 11
-361.5
 21
-81.0
 31
0.0
  0
LINE
  5
29F0
330
2ADE
100
AcDbEntity
  8
DETAIL
100
AcDbLine
 10
-387.0
 20
-702.0
 30
0.0
 11
-387.0
 21
-3.0
 31
0.0
  0
LINE
  5
29F1
330
2ADE
100
AcDbEntity
  8
DETAIL
100
AcDbLine
 10
387.0
 20
-702.0
 30
0.0
 11
387.0
 21
-3.0
 31
0.0
  0
LINE
  5
29F2
330
2ADE
100
AcDbEntity
  8
DETAIL
100
AcDbLine
 10
-361.5
 20
-81.0
 30
0.0
 11
361.5
 21
-81.0
 31
0.0
  0
LINE
  5
29F3
330
2ADE
100
AcDbEntity
  8
DETAIL
100
AcDbLine
 10
-387.0
 20
-40.0
 30
0.0
 11
387.0
 21
-40.0
 31
0.0
  0
LINE
  5
29F4
330
2ADE
100
AcDbEntity
  8
DETAIL
100
AcDbLine
 10
-425.0
 20
0.0
 30
0.0
 11
425.0
 21
0.0
 31
0.0
  0
LINE
  5
29F5
330
2ADE
100
AcDbEntity
  8
DETAIL
100
AcDbLine
 10
-425.0
 20
-3.0
 30
0.0
 11
425.0
 21
-3.0
 31
0.0
  0
LINE
  5
29F6
330
2ADE
100
AcDbEntity
  8
NOTE
100
AcDbLine
 10
-400.0
 20
-12.5
 30
0.0
 11
-400.0
 21
12.5
 31
0.0
  0
LINE
  5
29F7
330
2ADE
100
AcDbEntity
  8
DETAIL
100
AcDbLine
 10
-425.0
 20
0.0
 30
0.0
 11
-425.0
 21
-3.0
 31
0.0
  0
LINE
  5
29F8
330
2ADE
100
AcDbEntity
  8
NOTE
100
AcDbLine
 10
399.9999999999982
 20
-12.5
 30
0.0
 11
399.9999999999982
 21
12.5
 31
0.0
  0
LINE
  5
29F9
330
2ADE
100
AcDbEntity
  8
DETAIL
100
AcDbLine
 10
425.0
 20
-3.0
 30
0.0
 11
425.0
 21
0.0
 31
0.0
  0
LINE
  5
29FA
330
2ADE
100
AcDbEntity
  8
DETAIL
100
AcDbLine
 10
-361.5
 20
-681.0
 30
0.0
 11
361.5
 21
-681.0
 31
0.0
  0
LINE
  5
29FB
330
2ADE
100
AcDbEntity
  8
DETAIL
100
AcDbLine
 10
-387.0
 20
-702.0
 30
0.0
 11
387.0
 21
-702.0
 31
0.0
  0
LINE
  5
29FC
330
2ADE
100
AcDbEntity
  8
OUTLINE
100
AcDbLine
 10
172.9999999999981
 20
-702.0
 30
0.0
 11
342.0
 21
-702.0
 31
0.0
  0
POINT
  5
29FD
330
2ADE
100
AcDbEntity
  8
ARRANGE
100
AcDbPoint
 10
0.0
 20
0.0
 30
0.0
 39
50.0
  0
LINE
  5
29FE
330
2ADE
100
AcDbEntity
  8
DETAIL
100
AcDbLine
 10
-387.0
 20
-60.0
 30
0.0
 11
387.0
 21
-60.0
 31
0.0
  0
LINE
  5
29FF
330
2ADE
100
AcDbEntity
  8
OUTLINE
100
AcDbLine
 10
172.9999999999981
 20
-702.0
 30
0.0
 11
342.0
 21
-702.0
 31
0.0
  0
INSERT
  5
2A00
330
2ADE
100
AcDbEntity
  8
0
100
AcDbBlockReference
  2
*U68
 10
0.0
 20
0.0
 30
0.0
1001
ACAD
1000
DSTYLE
1002
{
1070
    41
1040
12.0
1070
    42
1040
20.0
1070
    43
1040
200.0
1070
    44
1040
20.0
1070
    73
1070
     0
1070
    74
1070
     0
1070
    77
1070
     1
1070
    78
1070
     8
1070
   140
1040
64.0
1070
   147
1040
50.0
1070
   172
1070
     1
1070
   174
1070
     1
1070
   275
1070
     0
1070
   284
1070
     0
1070
   285
1070
     0
1070
   286
1070
     0
1070
   341
1005
0
1070
   342
1005
0
1002
}
  0
INSERT
  5
2A01
330
2ADE
100
AcDbEntity
  8
0
100
AcDbBlockReference
  2
*U69
 10
0.0
 20
0.0
 30
0.0
  0
LINE
  5
2A02
330
2ADE
100
AcDbEntity
  8
NOTE
100
AcDbLine
 39
50.0
 10
-412.5
 20
0.0
 30
0.0
 11
-387.5
 21
0.0
 31
0.0
  0
LINE
  5
2A03
330
2ADE
100
AcDbEntity
  8
NOTE
100
AcDbLine
 39
50.0
 10
387.4999999999982
 20
0.0
 30
0.0
 11
412.4999999999982
 21
0.0
 31
0.0
  0
LINE
  5
2A04
330
2ADE
100
AcDbEntity
  8
OUTLINE
100
AcDbLine
 10
-387.0
 20
-702.0
 30
0.0
 11
-387.0
 21
-3.0
 31
0.0
  0
LINE
  5
2A05
330
2ADE
100
AcDbEntity
  8
OUTLINE
100
AcDbLine
 10
387.0
 20
-702.0
 30
0.0
 11
387.0
 21
-3.0
 31
0.0
  0
LINE
  5
2A06
330
2ADE
100
AcDbEntity
  8
OUTLINE
100
AcDbLine
 10
-387.0
 20
-40.0
 30
0.0
 11
387.0
 21
-40.0
 31
0.0
  0
LINE
  5
2A07
330
2ADE
100
AcDbEntity
  8
OUTLINE
100
AcDbLine
 10
-425.0
 20
-3.0
 30
0.0
 11
425.0
 21
-3.0
 31
0.0
  0
LINE
  5
2A08
330
2ADE
100
AcDbEntity
  8
OUTLINE
100
AcDbLine
 10
-387.0
 20
-702.0
 30
0.0
 11
387.0
 21
-702.0
 31
0.0
  0
LINE
  5
2A09
330
2ADE
100
AcDbEntity
  8
OUTLINE
100
AcDbLine
 10
-387.0
 20
-60.0
 30
0.0
 11
387.0
 21
-60.0
 31
0.0
  0
TEXT
  5
2A0A
330
2ADE
100
AcDbEntity
  8
ETC
100
AcDbText
 10
533.8896096987967
 20
466.7597012417773
 30
0.0
 40
64.0
  1
W-70SDA-A
 41
0.9
100
AcDbText
  0
LINE
  5
2A0B
330
2ADE
100
AcDbEntity
  8
OUTLINE
100
AcDbLine
 39
50.0
 10
-425.0
 20
-3.0
 30
0.0
 11
-425.0
 21
0.0
 31
0.0
  0
LINE
  5
2A0C
330
2ADE
100
AcDbEntity
  8
OUTLINE
100
AcDbLine
 39
50.0
 10
-425.0
 20
0.0
 30
0.0
 11
425.0
 21
0.0
 31
0.0
  0
LINE
  5
2A0D
330
2ADE
100
AcDbEntity
  8
OUTLINE
100
AcDbLine
 39
50.0
 10
425.0
 20
0.0
 30
0.0
 11
425.0
 21
-3.0
 31
0.0
  0
LINE
  5
2A0E
330
2ADE
100
AcDbEntity
  8
DETAIL
100
AcDbLine
 10
361.5
 20
-681.0
 30
0.0
 11
361.5
 21
-81.0
 31
0.0
  0
LINE
  5
2A0F
330
2ADE
100
AcDbEntity
  8
DETAIL
100
AcDbLine
 10
-361.5
 20
-681.0
 30
0.0
 11
-361.5
 21
-81.0
 31
0.0
  0
LINE
  5
2A10
330
2ADE
100
AcDbEntity
  8
DETAIL
100
AcDbLine
 10
-361.5
 20
-81.0
 30
0.0
 11
361.5
 21
-81.0
 31
0.0
  0
LINE
  5
2A11
330
2ADE
100
AcDbEntity
  8
DETAIL
100
AcDbLine
 10
-361.5
 20
-681.0
 30
0.0
 11
361.5
 21
-681.0
 31
0.0
  0
INSERT
  5
2A12
330
2ADE
100
AcDbEntity
  8
DETAIL
100
AcDbBlockReference
  2
*X70
 10
0.0
 20
0.0
 30
0.0
1001
ACADANNOTATIVE
1000
AnnotativeData
1002
{
1070
     1
1070
     0
1002
}
1001
ACAD
1000
HATCH
1002
{
1070
    19
1000
LINE
1040
72.22849999999998
1040
5.838766301980095
1000
R14_HATCH_DATA
1000
8869
1011
1.0
1021
0.0
1031
0.0
1011
0.0
1021
1.0
1031
0.0
1011
0.0
1021
0.0
1031
1.0
1040
0.0
1010
0.0
1020
0.0
1030
1.0
1000
LINE
1070
     0
1070
     0
1071
        2
1071
        7
1070
     0
1070
     1
1071
        6
1040
361.5000000000017
1040
-274.8000000000001
1040
145.7000000000007
1040
-274.8000000000001
1040
145.7000000000024
1040
-81.0
1040
-361.5
1040
-81.0
1040
-361.5
1040
-681.0
1040
361.5
1040
-681.0
1071
        0
1071
       23
1070
     0
1070
     1
1071
        4
1040
361.5000000000017
1040
-274.7999999999994
1040
361.4999999999982
1040
-81.0
1040
145.6999999999989
1040
-81.0
1040
145.7000000000024
1040
-274.8000000000001
1071
        0
1070
     0
1070
     1
1040
5.838766301980095
1040
72.22849999999998
1070
     0
1070
     1
1040
5.838766301980095
1040
15340.52702547555
1040
3309.123060632217
1040
3.881680532789153
1040
8.151533417570705
1070
     0
1040
1.15537929479312
1071
        2
1040
11.62841590716925
1040
-282.8473516173972
1040
0.0
1040
259.8751664770971
1040
-197.7013186024037
1040
0.0
1002
}
  0
INSERT
  5
2A13
330
2ADE
100
AcDbEntity
  8
DETAIL
100
AcDbBlockReference
  2
*X71
 10
0.0
 20
0.0
 30
0.0
1001
ACADANNOTATIVE
1000
AnnotativeData
1002
{
1070
     1
1070
     0
1002
}
1001
ACAD
1000
HATCH
1002
{
1070
    19
1000
LINE
1040
72.22849999999998
1040
0.4444190051994897
1000
R14_HATCH_DATA
1000
886F
1011
1.0
1021
0.0
1031
0.0
1011
0.0
1021
1.0
1031
0.0
1011
0.0
1021
0.0
1031
1.0
1040
0.0
1010
0.0
1020
0.0
1030
1.0
1000
LINE
1070
     0
1070
     0
1071
        2
1071
        7
1070
     0
1070
     1
1071
        6
1040
145.7000000000007
1040
-81.0
1040
-361.5
1040
-81.0
1040
-361.5
1040
-681.0
1040
361.5
1040
-681.0
1040
361.5
1040
-274.7999999999997
1040
145.7000000000007
1040
-274.8000000000001
1071
        0
1071
       23
1070
     0
1070
     1
1071
        4
1040
361.5
1040
-81.00000000000045
1040
145.7000000000007
1040
-81.00000000000093
1040
145.7000000000007
1040
-274.7999999999997
1040
361.4999999999982
1040
-274.8000000000001
1071
        0
1070
     0
1070
     1
1040
0.4444190051994897
1040
72.22849999999998
1070
     0
1070
     1
1040
0.4444190051994897
1040
15340.52702547555
1040
3309.123060632217
1040
-3.881680532789157
1040
8.151533417570702
1070
     0
1040
2.582447184730788
1071
        2
1040
-148.211651630434
1040
-249.4549292495858
1040
0.0
1040
284.8675573120709
1040
-197.3238295722171
1040
0.0
1002
}
  0
LINE
  5
2A14
330
2ADE
100
AcDbEntity
  8
DETAIL
100
AcDbLine
 10
361.5
 20
-681.0
 30
0.0
 11
361.5
 21
-81.0
 31
0.0
  0
LINE
  5
2A15
330
2ADE
100
AcDbEntity
  8
DETAIL
100
AcDbLine
 10
-361.5
 20
-681.0
 30
0.0
 11
-361.5
 21
-81.0
 31
0.0
  0
LINE
  5
2A16
330
2ADE
100
AcDbEntity
  8
DETAIL
100
AcDbLine
 10
-361.5
 20
-81.0
 30
0.0
 11
361.5
 21
-81.0
 31
0.0
  0
LINE
  5
2A17
330
2ADE
100
AcDbEntity
  8
DETAIL
100
AcDbLine
 10
-361.5
 20
-681.0
 30
0.0
 11
361.5
 21
-681.0
 31
0.0
  0
LINE
  5
2A18
330
2ADE
100
AcDbEntity
  8
SIZE
100
AcDbLine
 10
425.0
 20
20.0
 30
0.0
 11
425.0
 21
298.8865929365165
 31
0.0
  0
LINE
  5
2A19
330
2ADE
100
AcDbEntity
  8
SIZE
100
AcDbLine
 10
-425.0
 20
20.0
 30
0.0
 11
-425.0
 21
298.8865929365165
 31
0.0
  0
LINE
  5
2A1A
330
2ADE
100
AcDbEntity
  8
SIZE
100
AcDbLine
 10
413.0
 20
278.8865929365165
 30
0.0
 11
-413.0
 21
278.8865929365165
 31
0.0
  0
INSERT
  5
2A1B
330
2ADE
100
AcDbEntity
  8
SIZE
100
AcDbBlockReference
  2
_DOTBLANK
 10
425.0
 20
278.8865929365165
 30
0.0
 41
12.0
 42
12.0
 43
12.0
  0
INSERT
  5
2A1C
330
2ADE
100
AcDbEntity
  8
SIZE
100
AcDbBlockReference
  2
_DOTBLANK
 10
-425.0
 20
278.8865929365165
 30
0.0
 41
12.0
 42
12.0
 43
12.0
 50
180.0
  0
LINE
  5
2A1D
330
2ADE
100
AcDbEntity
  8
SIZE
100
AcDbLine
 10
399.9999999999982
 20
32.5
 30
0.0
 11
399.9999999999982
 21
180.3320910096172
 31
0.0
  0
LINE
  5
2A1E
330
2ADE
100
AcDbEntity
  8
SIZE
100
AcDbLine
 10
-400.0
 20
32.5
 30
0.0
 11
-400.0
 21
180.3320910096172
 31
0.0
  0
LINE
  5
2A1F
330
2ADE
100
AcDbEntity
  8
SIZE
100
AcDbLine
 10
387.9999999999982
 20
160.3320910096172
 30
0.0
 11
-388.0
 21
160.3320910096172
 31
0.0
  0
INSERT
  5
2A20
330
2ADE
100
AcDbEntity
  8
SIZE
100
AcDbBlockReference
  2
_DOTBLANK
 10
399.9999999999982
 20
160.3320910096172
 30
0.0
 41
12.0
 42
12.0
 43
12.0
  0
INSERT
  5
2A21
330
2ADE
100
AcDbEntity
  8
SIZE
100
AcDbBlockReference
  2
_DOTBLANK
 10
-400.0
 20
160.3320910096172
 30
0.0
 41
12.0
 42
12.0
 43
12.0
 50
180.0
  0
LINE
  5
2A22
330
2ADE
100
AcDbEntity
  8
SIZE
100
AcDbLine
 10
-407.0
 20
-702.0
 30
0.0
 11
-750.4063174686051
 21
-702.0
 31
0.0
  0
LINE
  5
2A23
330
2ADE
100
AcDbEntity
  8
SIZE
100
AcDbLine
 10
-445.0
 20
0.0
 30
0.0
 11
-750.4063174686051
 21
0.0000000000001137
 31
0.0
  0
LINE
  5
2A24
330
2ADE
100
AcDbEntity
  8
SIZE
100
AcDbLine
 10
-730.4063174686056
 20
-690.0
 30
0.0
 11
-730.4063174686051
 21
-11.99999999999988
 31
0.0
  0
INSERT
  5
2A25
330
2ADE
100
AcDbEntity
  8
SIZE
100
AcDbBlockReference
  2
_DOTBLANK
 10
-730.4063174686056
 20
-702.0
 30
0.0
 41
12.0
 42
12.0
 43
12.0
 50
270.0
  0
INSERT
  5
2A26
330
2ADE
100
AcDbEntity
  8
SIZE
100
AcDbBlockReference
  2
_DOTBLANK
 10
-730.4063174686051
 20
0.0000000000001137
 30
0.0
 41
12.0
 42
12.0
 43
12.0
 50
90.0
  0
LINE
  5
2A27
330
2ADE
100
AcDbEntity
  8
SIZE
100
AcDbLine
 10
387.0
 20
-722.0
 30
0.0
 11
387.0
 21
-951.1579934542924
 31
0.0
  0
LINE
  5
2A28
330
2ADE
100
AcDbEntity
  8
SIZE
100
AcDbLine
 10
-387.0
 20
-722.0
 30
0.0
 11
-387.0
 21
-951.1579934542924
 31
0.0
  0
LINE
  5
2A29
330
2ADE
100
AcDbEntity
  8
SIZE
100
AcDbLine
 10
375.0
 20
-931.1579934542924
 30
0.0
 11
-375.0
 21
-931.1579934542924
 31
0.0
  0
INSERT
  5
2A2A
330
2ADE
100
AcDbEntity
  8
SIZE
100
AcDbBlockReference
  2
_DOTBLANK
 10
387.0
 20
-931.1579934542924
 30
0.0
 41
12.0
 42
12.0
 43
12.0
  0
INSERT
  5
2A2B
330
2ADE
100
AcDbEntity
  8
SIZE
100
AcDbBlockReference
  2
_DOTBLANK
 10
-387.0
 20
-931.1579934542924
 30
0.0
 41
12.0
 42
12.0
 43
12.0
 50
180.0
  0
TEXT
  5
2A2C
330
2ADE
100
AcDbEntity
  8
SIZE
100
AcDbText
 10
-77.16558687727502
 20
-921.1579934542923
 30
0.0
 40
64.0
  1
774
 41
0.9
100
AcDbText
  0
TEXT
  5
2A2D
330
2ADE
100
AcDbEntity
  8
SIZE
100
AcDbText
 10
-740.4063174686051
 20
-426.0571428571425
 30
0.0
 40
64.0
  1
702
 50
90.0
 41
0.9
100
AcDbText
  0
TEXT
  5
2A2E
330
2ADE
100
AcDbEntity
  8
SIZE
100
AcDbText
 10
-74.05714285714293
 20
288.8865929365165
 30
0.0
 40
64.0
  1
850
 41
0.9
100
AcDbText
  0
TEXT
  5
2A2F
330
2ADE
100
AcDbEntity
  8
SIZE
100
AcDbText
 10
-74.6130204911378
 20
170.3320910096172
 30
0.0
 40
64.0
  1
800
 41
0.9
100
AcDbText
  0
ENDSEC
  0
SECTION
  2
OBJECTS
  0
DICTIONARY
  5
2A76
330
0
100
AcDbDictionary
281
     1
  3
ACAD_2007HEADERVARS_RT
350
2CC3
  3
ACAD_COLOR
350
2AD4
  3
ACAD_GROUP
350
2A77
  3
ACAD_LAYOUT
350
2AD3
  3
ACAD_MATERIAL
350
2A7A
  3
ACAD_MLEADERSTYLE
350
2AD7
  3
ACAD_MLINESTYLE
350
2AD0
  3
ACAD_PLOTSETTINGS
350
2AD2
  3
ACAD_PLOTSTYLENAME
350
2A78
  3
ACAD_SCALELIST
350
2AA4
  3
ACAD_TABLESTYLE
350
2AD5
  3
ACAD_VISUALSTYLE
350
2A93
  3
ACDB_RECOMPOSE_DATA
350
2CC1
  3
AcDbVariableDictionary
350
2CB8
  3
AcmDictionary
350
2C6B
  3
AMG
350
2BB8
  3
DWGPROPS
350
2CC2
  3
MAPISURF_MODULE
350
2C38
  0
DICTIONARY
  5
2C93
330
2AC6
100
AcDbDictionary
280
     1
281
     1
  3
ADSK_XREC_LAYER_RECONCILED
360
2C94
  0
DICTIONARY
  5
2C95
330
2AF5
100
AcDbDictionary
280
     1
281
     1
  3
ADSK_XREC_LAYER_RECONCILED
360
2C96
  0
DICTIONARY
  5
2C97
330
2AF6
100
AcDbDictionary
280
     1
281
     1
  3
ADSK_XREC_LAYER_RECONCILED
360
2C98
  0
DICTIONARY
  5
2C99
330
2AF7
100
AcDbDictionary
280
     1
281
     1
  3
ADSK_XREC_LAYER_RECONCILED
360
2C9A
  0
DICTIONARY
  5
2C9B
330
2AF8
100
AcDbDictionary
280
     1
281
     1
  3
ADSK_XREC_LAYER_RECONCILED
360
2C9C
  0
DICTIONARY
  5
2C9D
330
2AF9
100
AcDbDictionary
280
     1
281
     1
  3
ADSK_XREC_LAYER_RECONCILED
360
2C9E
  0
DICTIONARY
  5
2C9F
330
2AFB
100
AcDbDictionary
280
     1
281
     1
  3
ADSK_XREC_LAYER_RECONCILED
360
2CA0
  0
DICTIONARY
  5
2CA1
330
2AFC
100
AcDbDictionary
280
     1
281
     1
  3
ADSK_XREC_LAYER_RECONCILED
360
2CA2
  0
DICTIONARY
  5
2CA3
330
2AFD
100
AcDbDictionary
280
     1
281
     1
  3
ADSK_XREC_LAYER_RECONCILED
360
2CA4
  0
DICTIONARY
  5
2CA5
330
2AFE
100
AcDbDictionary
280
     1
281
     1
  3
ADSK_XREC_LAYER_RECONCILED
360
2CA6
  0
DICTIONARY
  5
2CA7
330
2AFF
100
AcDbDictionary
280
     1
281
     1
  3
ADSK_XREC_LAYER_RECONCILED
360
2CA8
  0
DICTIONARY
  5
2CA9
330
2ADE
100
AcDbDictionary
280
     1
281
     1
  3
ACAD_INDEX
360
2CAA
  0
DICTIONARY
  5
2CC3
102
{ACAD_REACTORS
330
2A76
102
}
330
2A76
100
AcDbDictionary
281
     1
  3
DIMARCSYM
350
2CC4
  3
DIMLTEX1
350
2CC6
  3
DIMLTEX2
350
2CC7
  3
DIMLTYPE
350
2CC5
  0
DICTIONARY
  5
2AD4
102
{ACAD_REACTORS
330
2A76
102
}
330
2A76
100
AcDbDictionary
281
     1
  0
DICTIONARY
  5
2A77
102
{ACAD_REACTORS
330
2A76
102
}
330
2A76
100
AcDbDictionary
281
     1
  0
DICTIONARY
  5
2AD3
102
{ACAD_REACTORS
330
2A76
102
}
330
2A76
100
AcDbDictionary
281
     1
  3
Model
350
2AE1
  3
レイアウト1
350
2ADD
  0
DICTIONARY
  5
2A7A
102
{ACAD_REACTORS
330
2A76
102
}
330
2A76
100
AcDbDictionary
281
     1
  3
ByBlock
350
2A83
  3
ByLayer
350
2A7B
  3
Global
350
2A8B
  0
DICTIONARY
  5
2AD7
102
{ACAD_REACTORS
330
2A76
102
}
330
2A76
100
AcDbDictionary
281
     1
  3
Standard
350
2AD8
  0
DICTIONARY
  5
2AD0
102
{ACAD_REACTORS
330
2A76
102
}
330
2A76
100
AcDbDictionary
281
     1
  3
Standard
350
2AD1
  0
DICTIONARY
  5
2AD2
102
{ACAD_REACTORS
330
2A76
102
}
330
2A76
100
AcDbDictionary
281
     1
  0
ACDBDICTIONARYWDFLT
  5
2A78
102
{ACAD_REACTORS
330
2A76
102
}
330
2A76
100
AcDbDictionary
281
     1
  3
Normal
350
2A79
100
AcDbDictionaryWithDefault
340
2A79
  0
DICTIONARY
  5
2AA4
102
{ACAD_REACTORS
330
2A76
102
}
330
2A76
100
AcDbDictionary
281
     1
  3
A0
350
2AA5
  3
A1
350
2AA6
  3
A2
350
2AA7
  3
A3
350
2AA8
  3
A4
350
2AA9
  3
A5
350
2AAA
  3
A6
350
2AAB
  3
A7
350
2AAC
  3
A8
350
2AAD
  3
A9
350
2AAE
  3
B0
350
2AAF
  3
B1
350
2AB0
  3
B2
350
2AB1
  3
B3
350
2AB2
  3
B4
350
2AB3
  3
B5
350
2AB4
  3
B6
350
2AB5
  3
B7
350
2AB6
  3
B8
350
2AB7
  3
B9
350
2AB8
  3
C0
350
2AB9
  3
C1
350
2ABA
  3
C2
350
2ABB
  3
C3
350
2ABC
  3
C4
350
2ABD
  3
C5
350
2ABE
  3
C6
350
2ABF
  3
C7
350
2AC0
  3
C8
350
2AC1
  3
C9
350
2AC2
  3
D0
350
2AC3
  3
D1
350
2AC4
  3
D2
350
2AC5
  0
DICTIONARY
  5
2AD5
102
{ACAD_REACTORS
330
2A76
102
}
330
2A76
100
AcDbDictionary
281
     1
  3
Standard
350
2AD6
  0
DICTIONARY
  5
2A93
102
{ACAD_REACTORS
330
2A76
102
}
330
2A76
100
AcDbDictionary
281
     1
  3
2dWireframe
350
2A99
  3
3D Hidden
350
2A9B
  3
3dWireframe
350
2A9A
  3
Basic
350
2A98
  3
Brighten
350
2A9F
  3
ColorChange
350
2AA3
  3
Conceptual
350
2A9C
  3
Dim
350
2A9E
  3
Facepattern
350
2AA2
  3
Flat
350
2A94
  3
FlatWithEdges
350
2A95
  3
Gouraud
350
2A96
  3
GouraudWithEdges
350
2A97
  3
Linepattern
350
2AA1
  3
Realistic
350
2A9D
  3
Thicken
350
2AA0
  0
XRECORD
  5
2CC1
102
{ACAD_REACTORS
330
2A76
102
}
330
2A76
100
AcDbXrecord
280
     1
 90
        1
330
2AD6
  0
DICTIONARY
  5
2CB8
102
{ACAD_REACTORS
330
2A76
102
}
330
2A76
100
AcDbDictionary
281
     1
  3
CANNOSCALE
350
2CBB
  3
CMLEADERSTYLE
350
2CBA
  3
CTABLESTYLE
350
2CB9
  3
DIMASSOC
350
2CBE
  3
INDEXCTL
350
2CBD
  3
SORTENTS
350
2CBC
  0
DICTIONARY
  5
2C6B
102
{ACAD_REACTORS
330
2A76
102
}
330
2A76
100
AcDbDictionary
281
     1
  3
AcmStdDictionary
350
2C79
  0
DICTIONARY
  5
2BB8
102
{ACAD_REACTORS
330
2A76
102
}
330
2A76
100
AcDbDictionary
281
     1
  3
AcMgSettings
350
2BB9
  0
XRECORD
  5
2CC2
102
{ACAD_REACTORS
330
2A76
102
}
330
2A76
100
AcDbXrecord
280
     1
  1
DWGPROPS COOKIE
  2

  3

  4

  6

  7

  8
A090053
  9

300
AmdtFileType=84
301
=
302
=
303
=
304
=
305
=
306
=
307
=
308
=
309
=
 40
1.041247488425925
 41
2452321.396199653
 42
2456210.758607778
  1

 90
        1
  0
XRECORD
  5
2C94
102
{ACAD_REACTORS
330
2C93
102
}
330
2C93
100
AcDbXrecord
280
     1
290
     1
  0
XRECORD
  5
2C96
102
{ACAD_REACTORS
330
2C95
102
}
330
2C95
100
AcDbXrecord
280
     1
290
     1
  0
XRECORD
  5
2C98
102
{ACAD_REACTORS
330
2C97
102
}
330
2C97
100
AcDbXrecord
280
     1
290
     1
  0
XRECORD
  5
2C9A
102
{ACAD_REACTORS
330
2C99
102
}
330
2C99
100
AcDbXrecord
280
     1
290
     1
  0
XRECORD
  5
2C9C
102
{ACAD_REACTORS
330
2C9B
102
}
330
2C9B
100
AcDbXrecord
280
     1
290
     1
  0
XRECORD
  5
2C9E
102
{ACAD_REACTORS
330
2C9D
102
}
330
2C9D
100
AcDbXrecord
280
     1
290
     1
  0
XRECORD
  5
2CA0
102
{ACAD_REACTORS
330
2C9F
102
}
330
2C9F
100
AcDbXrecord
280
     1
290
     1
  0
XRECORD
  5
2CA2
102
{ACAD_REACTORS
330
2CA1
102
}
330
2CA1
100
AcDbXrecord
280
     1
290
     1
  0
XRECORD
  5
2CA4
102
{ACAD_REACTORS
330
2CA3
102
}
330
2CA3
100
AcDbXrecord
280
     1
290
     1
  0
XRECORD
  5
2CA6
102
{ACAD_REACTORS
330
2CA5
102
}
330
2CA5
100
AcDbXrecord
280
     1
290
     1
  0
XRECORD
  5
2CA8
102
{ACAD_REACTORS
330
2CA7
102
}
330
2CA7
100
AcDbXrecord
280
     1
290
     1
  0
DICTIONARY
  5
2CAA
102
{ACAD_REACTORS
330
2CA9
102
}
330
2CA9
100
AcDbDictionary
281
     1
  3
*A1
350
2CAB
  0
XRECORD
  5
2CC4
102
{ACAD_REACTORS
330
2CC3
102
}
330
2CC3
100
AcDbXrecord
280
     1
 70
     1
  0
XRECORD
  5
2CC6
102
{ACAD_REACTORS
330
2CC3
102
}
330
2CC3
100
AcDbXrecord
280
     1
340
2ACC
  0
XRECORD
  5
2CC7
102
{ACAD_REACTORS
330
2CC3
102
}
330
2CC3
100
AcDbXrecord
280
     1
340
2ACC
  0
XRECORD
  5
2CC5
102
{ACAD_REACTORS
330
2CC3
102
}
330
2CC3
100
AcDbXrecord
280
     1
340
2ACC
  0
LAYOUT
  5
2AE1
102
{ACAD_XDICTIONARY
360
2CCE
102
}
102
{ACAD_REACTORS
330
2AD3
102
}
330
2AD3
100
AcDbPlotSettings
  1

  2
自動 EPSON LP-9600S (W2450527 上)
  4

  6

 40
0.0
 41
0.0
 42
0.0
 43
0.0
 44
0.0
 45
0.0
 46
0.0
 47
0.0
 48
0.0
 49
0.0
140
0.0
141
0.0
142
1.0
143
1.0
 70
  1712
 72
     0
 73
     0
 74
     0
  7

 75
     0
147
1.0
148
0.0
149
0.0
100
AcDbLayout
  1
Model
 70
     1
 71
     0
 10
0.0
 20
0.0
 11
12.0
 21
9.0
 12
0.0
 22
0.0
 32
0.0
 14
0.0
 24
0.0
 34
0.0
 15
0.0
 25
0.0
 35
0.0
146
0.0
 13
0.0
 23
0.0
 33
0.0
 16
1.0
 26
0.0
 36
0.0
 17
0.0
 27
1.0
 37
0.0
 76
     0
330
2ADE
331
2AE2
  0
LAYOUT
  5
2ADD
102
{ACAD_XDICTIONARY
360
2CCC
102
}
102
{ACAD_REACTORS
330
2AD3
102
}
330
2AD3
100
AcDbPlotSettings
  1

  2
自動 EPSON LP-9600S (W2450527 上)
  4

  6

 40
0.0
 41
0.0
 42
0.0
 43
0.0
 44
0.0
 45
0.0
 46
0.0
 47
0.0
 48
0.0
 49
0.0
140
0.0
141
0.0
142
1.0
143
1.0
 70
   688
 72
     0
 73
     0
 74
     5
  7

 75
    16
147
1.0
148
0.0
149
0.0
100
AcDbLayout
  1
レイアウト1
 70
     1
 71
     1
 10
0.0
 20
0.0
 11
12.0
 21
9.0
 12
0.0
 22
0.0
 32
0.0
 14
1.000000000000000E+20
 24
1.000000000000000E+20
 34
1.000000000000000E+20
 15
-1.000000000000000E+20
 25
-1.000000000000000E+20
 35
-1.000000000000000E+20
146
0.0
 13
0.0
 23
0.0
 33
0.0
 16
1.0
 26
0.0
 36
0.0
 17
0.0
 27
1.0
 37
0.0
 76
     0
330
2ADA
  0
MATERIAL
  5
2A83
102
{ACAD_XDICTIONARY
360
2A84
102
}
102
{ACAD_REACTORS
330
2A7A
102
}
330
2A7A
100
AcDbMaterial
  1
ByBlock
 72
     0
 43
0.0208333333333333
 43
0.0
 43
0.0
 43
0.0
 43
0.0
 43
0.0208333333333333
 43
0.0
 43
0.0
 43
0.0
 43
0.0
 43
1.0
 43
0.0
 43
0.0
 43
0.0
 43
0.0
 43
1.0
 77
     0
 47
0.0208333333333333
 47
0.0
 47
0.0
 47
0.0
 47
0.0
 47
0.0208333333333333
 47
0.0
 47
0.0
 47
0.0
 47
0.0
 47
1.0
 47
0.0
 47
0.0
 47
0.0
 47
0.0
 47
1.0
171
     0
 49
0.0208333333333333
 49
0.0
 49
0.0
 49
0.0
 49
0.0
 49
0.0208333333333333
 49
0.0
 49
0.0
 49
0.0
 49
0.0
 49
1.0
 49
0.0
 49
0.0
 49
0.0
 49
0.0
 49
1.0
175
     0
142
0.0208333333333333
142
0.0
142
0.0
142
0.0
142
0.0
142
0.0208333333333333
142
0.0
142
0.0
142
0.0
142
0.0
142
1.0
142
0.0
142
0.0
142
0.0
142
0.0
142
1.0
179
     0
144
0.0208333333333333
144
0.0
144
0.0
144
0.0
144
0.0
144
0.0208333333333333
144
0.0
144
0.0
144
0.0
144
0.0
144
1.0
144
0.0
144
0.0
144
0.0
144
0.0
144
1.0
147
0.0208333333333333
147
0.0
147
0.0
147
0.0
147
0.0
147
0.0208333333333333
147
0.0
147
0.0
147
0.0
147
0.0
147
1.0
147
0.0
147
0.0
147
0.0
147
0.0
147
1.0
  0
MATERIAL
  5
2A7B
102
{ACAD_XDICTIONARY
360
2A7C
102
}
102
{ACAD_REACTORS
330
2A7A
102
}
330
2A7A
100
AcDbMaterial
  1
ByLayer
 72
     0
 43
0.0208333333333333
 43
0.0
 43
0.0
 43
0.0
 43
0.0
 43
0.0208333333333333
 43
0.0
 43
0.0
 43
0.0
 43
0.0
 43
1.0
 43
0.0
 43
0.0
 43
0.0
 43
0.0
 43
1.0
 77
     0
 47
0.0208333333333333
 47
0.0
 47
0.0
 47
0.0
 47
0.0
 47
0.0208333333333333
 47
0.0
 47
0.0
 47
0.0
 47
0.0
 47
1.0
 47
0.0
 47
0.0
 47
0.0
 47
0.0
 47
1.0
171
     0
 49
0.0208333333333333
 49
0.0
 49
0.0
 49
0.0
 49
0.0
 49
0.0208333333333333
 49
0.0
 49
0.0
 49
0.0
 49
0.0
 49
1.0
 49
0.0
 49
0.0
 49
0.0
 49
0.0
 49
1.0
175
     0
142
0.0208333333333333
142
0.0
142
0.0
142
0.0
142
0.0
142
0.0208333333333333
142
0.0
142
0.0
142
0.0
142
0.0
142
1.0
142
0.0
142
0.0
142
0.0
142
0.0
142
1.0
179
     0
144
0.0208333333333333
144
0.0
144
0.0
144
0.0
144
0.0
144
0.0208333333333333
144
0.0
144
0.0
144
0.0
144
0.0
144
1.0
144
0.0
144
0.0
144
0.0
144
0.0
144
1.0
147
0.0208333333333333
147
0.0
147
0.0
147
0.0
147
0.0
147
0.0208333333333333
147
0.0
147
0.0
147
0.0
147
0.0
147
1.0
147
0.0
147
0.0
147
0.0
147
0.0
147
1.0
  0
MATERIAL
  5
2A8B
102
{ACAD_XDICTIONARY
360
2A8C
102
}
102
{ACAD_REACTORS
330
2A7A
102
}
330
2A7A
100
AcDbMaterial
  1
Global
 72
     0
 43
0.0208333333333333
 43
0.0
 43
0.0
 43
0.0
 43
0.0
 43
0.0208333333333333
 43
0.0
 43
0.0
 43
0.0
 43
0.0
 43
1.0
 43
0.0
 43
0.0
 43
0.0
 43
0.0
 43
1.0
 77
     0
 47
0.0208333333333333
 47
0.0
 47
0.0
 47
0.0
 47
0.0
 47
0.0208333333333333
 47
0.0
 47
0.0
 47
0.0
 47
0.0
 47
1.0
 47
0.0
 47
0.0
 47
0.0
 47
0.0
 47
1.0
171
     0
 49
0.0208333333333333
 49
0.0
 49
0.0
 49
0.0
 49
0.0
 49
0.0208333333333333
 49
0.0
 49
0.0
 49
0.0
 49
0.0
 49
1.0
 49
0.0
 49
0.0
 49
0.0
 49
0.0
 49
1.0
175
     0
142
0.0208333333333333
142
0.0
142
0.0
142
0.0
142
0.0
142
0.0208333333333333
142
0.0
142
0.0
142
0.0
142
0.0
142
1.0
142
0.0
142
0.0
142
0.0
142
0.0
142
1.0
179
     0
144
0.0208333333333333
144
0.0
144
0.0
144
0.0
144
0.0
144
0.0208333333333333
144
0.0
144
0.0
144
0.0
144
0.0
144
1.0
144
0.0
144
0.0
144
0.0
144
0.0
144
1.0
147
0.0208333333333333
147
0.0
147
0.0
147
0.0
147
0.0
147
0.0208333333333333
147
0.0
147
0.0
147
0.0
147
0.0
147
1.0
147
0.0
147
0.0
147
0.0
147
0.0
147
1.0
  0
MLEADERSTYLE
  5
2AD8
102
{ACAD_REACTORS
330
2AD7
102
}
330
2AD7
100
AcDbMLeaderStyle
170
     2
171
     1
172
     0
 90
        2
 40
0.0
 41
0.0
173
     1
 91
-1056964608
340
2ACC
 92
       -2
290
     1
 42
0.09
291
     1
 43
0.36
  3
Standard
 44
0.18
300

342
2AC7
174
     1
178
     6
175
     1
176
     0
 93
-1056964608
 45
0.18
292
     0
297
     0
 46
0.18
 94
-1056964608
 47
1.0
 49
1.0
140
1.0
293
     1
141
0.0
294
     1
177
     0
142
1.0
295
     0
296
     0
143
0.125
1001
ACAD_MLEADERVER
1070
     2
  0
MLINESTYLE
  5
2AD1
102
{ACAD_REACTORS
330
2AD0
102
}
330
2AD0
100
AcDbMlineStyle
  2
STANDARD
 70
     0
  3

 62
   256
 51
90.0
 52
90.0
 71
     2
 49
0.5
 62
   256
  6
BYLAYER
 49
-0.5
 62
   256
  6
BYLAYER
  0
ACDBPLACEHOLDER
  5
2A79
102
{ACAD_REACTORS
330
2A78
102
}
330
2A78
  0
SCALE
  5
2AA5
102
{ACAD_REACTORS
330
2AA4
102
}
330
2AA4
100
AcDbScale
 70
     0
300
1:1
140
1.0
141
1.0
290
     1
  0
SCALE
  5
2AA6
102
{ACAD_REACTORS
330
2AA4
102
}
330
2AA4
100
AcDbScale
 70
     0
300
1:2
140
1.0
141
2.0
290
     0
  0
SCALE
  5
2AA7
102
{ACAD_REACTORS
330
2AA4
102
}
330
2AA4
100
AcDbScale
 70
     0
300
1:4
140
1.0
141
4.0
290
     0
  0
SCALE
  5
2AA8
102
{ACAD_REACTORS
330
2AA4
102
}
330
2AA4
100
AcDbScale
 70
     0
300
1:5
140
1.0
141
5.0
290
     0
  0
SCALE
  5
2AA9
102
{ACAD_REACTORS
330
2AA4
102
}
330
2AA4
100
AcDbScale
 70
     0
300
1:8
140
1.0
141
8.0
290
     0
  0
SCALE
  5
2AAA
102
{ACAD_REACTORS
330
2AA4
102
}
330
2AA4
100
AcDbScale
 70
     0
300
1:10
140
1.0
141
10.0
290
     0
  0
SCALE
  5
2AAB
102
{ACAD_REACTORS
330
2AA4
102
}
330
2AA4
100
AcDbScale
 70
     0
300
1:16
140
1.0
141
16.0
290
     0
  0
SCALE
  5
2AAC
102
{ACAD_REACTORS
330
2AA4
102
}
330
2AA4
100
AcDbScale
 70
     0
300
1:20
140
1.0
141
20.0
290
     0
  0
SCALE
  5
2AAD
102
{ACAD_REACTORS
330
2AA4
102
}
330
2AA4
100
AcDbScale
 70
     0
300
1:30
140
1.0
141
30.0
290
     0
  0
SCALE
  5
2AAE
102
{ACAD_REACTORS
330
2AA4
102
}
330
2AA4
100
AcDbScale
 70
     0
300
1:40
140
1.0
141
40.0
290
     0
  0
SCALE
  5
2AAF
102
{ACAD_REACTORS
330
2AA4
102
}
330
2AA4
100
AcDbScale
 70
     0
300
1:50
140
1.0
141
50.0
290
     0
  0
SCALE
  5
2AB0
102
{ACAD_REACTORS
330
2AA4
102
}
330
2AA4
100
AcDbScale
 70
     0
300
1:100
140
1.0
141
100.0
290
     0
  0
SCALE
  5
2AB1
102
{ACAD_REACTORS
330
2AA4
102
}
330
2AA4
100
AcDbScale
 70
     0
300
2:1
140
2.0
141
1.0
290
     0
  0
SCALE
  5
2AB2
102
{ACAD_REACTORS
330
2AA4
102
}
330
2AA4
100
AcDbScale
 70
     0
300
4:1
140
4.0
141
1.0
290
     0
  0
SCALE
  5
2AB3
102
{ACAD_REACTORS
330
2AA4
102
}
330
2AA4
100
AcDbScale
 70
     0
300
8:1
140
8.0
141
1.0
290
     0
  0
SCALE
  5
2AB4
102
{ACAD_REACTORS
330
2AA4
102
}
330
2AA4
100
AcDbScale
 70
     0
300
10:1
140
10.0
141
1.0
290
     0
  0
SCALE
  5
2AB5
102
{ACAD_REACTORS
330
2AA4
102
}
330
2AA4
100
AcDbScale
 70
     0
300
100:1
140
100.0
141
1.0
290
     0
  0
SCALE
  5
2AB6
102
{ACAD_REACTORS
330
2AA4
102
}
330
2AA4
100
AcDbScale
 70
     0
300
1/128" = 1'-0"
140
0.0078125
141
12.0
290
     0
  0
SCALE
  5
2AB7
102
{ACAD_REACTORS
330
2AA4
102
}
330
2AA4
100
AcDbScale
 70
     0
300
1/64" = 1'-0"
140
0.015625
141
12.0
290
     0
  0
SCALE
  5
2AB8
102
{ACAD_REACTORS
330
2AA4
102
}
330
2AA4
100
AcDbScale
 70
     0
300
1/32" = 1'-0"
140
0.03125
141
12.0
290
     0
  0
SCALE
  5
2AB9
102
{ACAD_REACTORS
330
2AA4
102
}
330
2AA4
100
AcDbScale
 70
     0
300
1/16" = 1'-0"
140
0.0625
141
12.0
290
     0
  0
SCALE
  5
2ABA
102
{ACAD_REACTORS
330
2AA4
102
}
330
2AA4
100
AcDbScale
 70
     0
300
3/32" = 1'-0"
140
0.09375
141
12.0
290
     0
  0
SCALE
  5
2ABB
102
{ACAD_REACTORS
330
2AA4
102
}
330
2AA4
100
AcDbScale
 70
     0
300
1/8" = 1'-0"
140
0.125
141
12.0
290
     0
  0
SCALE
  5
2ABC
102
{ACAD_REACTORS
330
2AA4
102
}
330
2AA4
100
AcDbScale
 70
     0
300
3/16" = 1'-0"
140
0.1875
141
12.0
290
     0
  0
SCALE
  5
2ABD
102
{ACAD_REACTORS
330
2AA4
102
}
330
2AA4
100
AcDbScale
 70
     0
300
1/4" = 1'-0"
140
0.25
141
12.0
290
     0
  0
SCALE
  5
2ABE
102
{ACAD_REACTORS
330
2AA4
102
}
330
2AA4
100
AcDbScale
 70
     0
300
3/8" = 1'-0"
140
0.375
141
12.0
290
     0
  0
SCALE
  5
2ABF
102
{ACAD_REACTORS
330
2AA4
102
}
330
2AA4
100
AcDbScale
 70
     0
300
1/2" = 1'-0"
140
0.5
141
12.0
290
     0
  0
SCALE
  5
2AC0
102
{ACAD_REACTORS
330
2AA4
102
}
330
2AA4
100
AcDbScale
 70
     0
300
3/4" = 1'-0"
140
0.75
141
12.0
290
     0
  0
SCALE
  5
2AC1
102
{ACAD_REACTORS
330
2AA4
102
}
330
2AA4
100
AcDbScale
 70
     0
300
1" = 1'-0"
140
1.0
141
12.0
290
     0
  0
SCALE
  5
2AC2
102
{ACAD_REACTORS
330
2AA4
102
}
330
2AA4
100
AcDbScale
 70
     0
300
1-1/2" = 1'-0"
140
1.5
141
12.0
290
     0
  0
SCALE
  5
2AC3
102
{ACAD_REACTORS
330
2AA4
102
}
330
2AA4
100
AcDbScale
 70
     0
300
3" = 1'-0"
140
3.0
141
12.0
290
     0
  0
SCALE
  5
2AC4
102
{ACAD_REACTORS
330
2AA4
102
}
330
2AA4
100
AcDbScale
 70
     0
300
6" = 1'-0"
140
6.0
141
12.0
290
     0
  0
SCALE
  5
2AC5
102
{ACAD_REACTORS
330
2AA4
102
}
330
2AA4
100
AcDbScale
 70
     0
300
1'-0" = 1'-0"
140
12.0
141
12.0
290
     0
  0
TABLESTYLE
  5
2AD6
102
{ACAD_XDICTIONARY
360
2CBF
102
}
102
{ACAD_REACTORS
330
2AD5
102
}
330
2AD5
100
AcDbTableStyle
  3
Standard
 70
     0
 71
     0
 40
0.06
 41
0.06
280
     0
281
     0
  7
STANDARD
140
0.18
170
     2
 62
     0
 63
     7
283
     0
274
    -2
284
     1
 64
     0
275
    -2
285
     1
 65
     0
276
    -2
286
     1
 66
     0
277
    -2
287
     1
 67
     0
278
    -2
288
     1
 68
     0
279
    -2
289
     1
 69
     0
  7
STANDARD
140
0.25
170
     5
 62
     0
 63
     7
283
     0
274
    -2
284
     1
 64
     0
275
    -2
285
     1
 65
     0
276
    -2
286
     1
 66
     0
277
    -2
287
     1
 67
     0
278
    -2
288
     1
 68
     0
279
    -2
289
     1
 69
     0
  7
STANDARD
140
0.18
170
     5
 62
     0
 63
     7
283
     0
274
    -2
284
     1
 64
     0
275
    -2
285
     1
 65
     0
276
    -2
286
     1
 66
     0
277
    -2
287
     1
 67
     0
278
    -2
288
     1
 68
     0
279
    -2
289
     1
 69
     0
  0
VISUALSTYLE
  5
2A99
102
{ACAD_REACTORS
330
2A93
102
}
330
2A93
100
AcDbVisualStyle
  2
2dWireframe
 70
     4
 71
     0
 72
     2
 73
     0
 90
        0
 40
-0.6
 41
-30.0
 62
     5
 63
     7
 74
     1
 91
        4
 64
     7
 65
   257
 75
     1
175
     1
 42
1.0
 92
        0
 66
   257
 43
1.0
 76
     1
 77
     6
 78
     2
 67
     7
 79
     5
170
     0
171
     0
290
     0
174
     0
 93
        1
 44
0.0
173
     0
291
     0
 45
0.0
1001
ACAD
1000
AcDbSavedByObjectVersion
1070
     0
  0
VISUALSTYLE
  5
2A9B
102
{ACAD_REACTORS
330
2A93
102
}
330
2A93
100
AcDbVisualStyle
  2
3D Hidden
 70
     6
 71
     1
 72
     2
 73
     2
 90
        0
 40
-0.6
 41
-30.0
 62
     5
 63
     7
 74
     2
 91
        2
 64
     7
 65
   257
 75
     2
175
     1
 42
40.0
 92
        0
 66
   257
 43
1.0
 76
     1
 77
     6
 78
     2
 67
     7
 79
     3
170
     0
171
     0
290
     0
174
     0
 93
        1
 44
0.0
173
     0
291
     0
 45
0.0
1001
ACAD
1000
AcDbSavedByObjectVersion
1070
     0
  0
VISUALSTYLE
  5
2A9A
102
{ACAD_REACTORS
330
2A93
102
}
330
2A93
100
AcDbVisualStyle
  2
3dWireframe
 70
     5
 71
     0
 72
     2
 73
     0
 90
        0
 40
-0.6
 41
-30.0
 62
     5
 63
     7
 74
     1
 91
        4
 64
     7
 65
   257
 75
     1
175
     1
 42
1.0
 92
        0
 66
   257
 43
1.0
 76
     1
 77
     6
 78
     2
 67
     7
 79
     5
170
     0
171
     0
290
     0
174
     0
 93
        1
 44
0.0
173
     0
291
     0
 45
0.0
1001
ACAD
1000
AcDbSavedByObjectVersion
1070
     0
  0
VISUALSTYLE
  5
2A98
102
{ACAD_REACTORS
330
2A93
102
}
330
2A93
100
AcDbVisualStyle
  2
Basic
 70
     7
 71
     1
 72
     0
 73
     1
 90
        0
 40
-0.6
 41
-30.0
 62
     5
 63
     7
 74
     0
 91
        4
 64
     7
 65
   257
 75
     1
175
     1
 42
1.0
 92
        8
 66
     7
 43
1.0
 76
     1
 77
     6
 78
     2
 67
     7
 79
     5
170
     0
171
     0
290
     0
174
     0
 93
        1
 44
0.0
173
     0
291
     1
 45
0.0
1001
ACAD
1000
AcDbSavedByObjectVersion
1070
     0
  0
VISUALSTYLE
  5
2A9F
102
{ACAD_REACTORS
330
2A93
102
}
330
2A93
100
AcDbVisualStyle
  2
Brighten
 70
    12
 71
     2
 72
     2
 73
     0
 90
        0
 40
-0.6
 41
-30.0
 62
     5
 63
     7
 74
     1
 91
        4
 64
     7
 65
   257
 75
     1
175
     1
 42
1.0
 92
        8
 66
     7
 43
1.0
 76
     1
 77
     6
 78
     2
 67
     7
 79
     5
170
     0
171
     0
290
     0
174
     0
 93
        1
 44
50.0
173
     0
291
     1
 45
0.0
1001
ACAD
1000
AcDbSavedByObjectVersion
1070
     0
  0
VISUALSTYLE
  5
2AA3
102
{ACAD_REACTORS
330
2A93
102
}
330
2A93
100
AcDbVisualStyle
  2
ColorChange
 70
    16
 71
     2
 72
     2
 73
     3
 90
        0
 40
-0.6
 41
-30.0
 62
     5
 63
     8
 74
     1
 91
        4
 64
     7
 65
   257
 75
     1
175
     1
 42
1.0
 92
        8
 66
     8
 43
1.0
 76
     1
 77
     6
 78
     2
 67
     7
 79
     5
170
     0
171
     0
290
     0
174
     0
 93
        1
 44
0.0
173
     0
291
     1
 45
0.0
1001
ACAD
1000
AcDbSavedByObjectVersion
1070
     0
  0
VISUALSTYLE
  5
2A9C
102
{ACAD_REACTORS
330
2A93
102
}
330
2A93
100
AcDbVisualStyle
  2
Conceptual
 70
     9
 71
     3
 72
     2
 73
     0
 90
        0
 40
-0.6
 41
-30.0
 62
     5
 63
     7
 74
     2
 91
        2
 64
     7
 65
   257
 75
     1
175
     1
 42
40.0
 92
        8
 66
     7
 43
1.0
 76
     1
 77
     6
 78
     2
 67
     7
 79
     3
170
     0
171
     0
290
     0
174
     0
 93
        1
 44
0.0
173
     0
291
     0
 45
0.0
1001
ACAD
1000
AcDbSavedByObjectVersion
1070
     0
  0
VISUALSTYLE
  5
2A9E
102
{ACAD_REACTORS
330
2A93
102
}
330
2A93
100
AcDbVisualStyle
  2
Dim
 70
    11
 71
     2
 72
     2
 73
     0
 90
        0
 40
-0.6
 41
-30.0
 62
     5
 63
     7
 74
     1
 91
        4
 64
     7
 65
   257
 75
     1
175
     1
 42
1.0
 92
        8
 66
     7
 43
1.0
 76
     1
 77
     6
 78
     2
 67
     7
 79
     5
170
     0
171
     0
290
     0
174
     0
 93
        1
 44
-50.0
173
     0
291
     1
 45
0.0
1001
ACAD
1000
AcDbSavedByObjectVersion
1070
     0
  0
VISUALSTYLE
  5
2AA2
102
{ACAD_REACTORS
330
2A93
102
}
330
2A93
100
AcDbVisualStyle
  2
Facepattern
 70
    15
 71
     2
 72
     2
 73
     0
 90
        0
 40
-0.6
 41
-30.0
 62
     5
 63
     7
 74
     1
 91
        4
 64
     7
 65
   257
 75
     1
175
     1
 42
1.0
 92
        8
 66
     7
 43
1.0
 76
     1
 77
     6
 78
     2
 67
     7
 79
     5
170
     0
171
     0
290
     0
174
     0
 93
        1
 44
0.0
173
     0
291
     1
 45
0.0
1001
ACAD
1000
AcDbSavedByObjectVersion
1070
     0
  0
VISUALSTYLE
  5
2A94
102
{ACAD_REACTORS
330
2A93
102
}
330
2A93
100
AcDbVisualStyle
  2
Flat
 70
     0
 71
     2
 72
     1
 73
     1
 90
        2
 40
-0.6
 41
30.0
 62
     5
 63
     7
 74
     0
 91
        4
 64
     7
 65
   257
 75
     1
175
     1
 42
1.0
 92
        8
 66
     7
 43
1.0
 76
     1
 77
     6
 78
     2
 67
     7
 79
     5
170
     0
171
     0
290
     0
174
     0
 93
       13
 44
0.0
173
     0
291
     1
 45
0.0
1001
ACAD
1000
AcDbSavedByObjectVersion
1070
     0
  0
VISUALSTYLE
  5
2A95
102
{ACAD_REACTORS
330
2A93
102
}
330
2A93
100
AcDbVisualStyle
  2
FlatWithEdges
 70
     1
 71
     2
 72
     1
 73
     1
 90
        2
 40
-0.6
 41
30.0
 62
     5
 63
     7
 74
     1
 91
        4
 64
     7
 65
   257
 75
     1
175
     1
 42
1.0
 92
        0
 66
   257
 43
1.0
 76
     1
 77
     6
 78
     2
 67
     7
 79
     5
170
     0
171
     0
290
     0
174
     0
 93
       13
 44
0.0
173
     0
291
     1
 45
0.0
1001
ACAD
1000
AcDbSavedByObjectVersion
1070
     0
  0
VISUALSTYLE
  5
2A96
102
{ACAD_REACTORS
330
2A93
102
}
330
2A93
100
AcDbVisualStyle
  2
Gouraud
 70
     2
 71
     2
 72
     2
 73
     1
 90
        2
 40
-0.6
 41
30.0
 62
     5
 63
     7
 74
     0
 91
        4
 64
     7
 65
   257
 75
     1
175
     1
 42
1.0
 92
        0
 66
     7
 43
1.0
 76
     1
 77
     6
 78
     2
 67
     7
 79
     5
170
     0
171
     0
290
     0
174
     0
 93
       13
 44
0.0
173
     0
291
     1
 45
0.0
1001
ACAD
1000
AcDbSavedByObjectVersion
1070
     0
  0
VISUALSTYLE
  5
2A97
102
{ACAD_REACTORS
330
2A93
102
}
330
2A93
100
AcDbVisualStyle
  2
GouraudWithEdges
 70
     3
 71
     2
 72
     2
 73
     1
 90
        2
 40
-0.6
 41
30.0
 62
     5
 63
     7
 74
     1
 91
        4
 64
     7
 65
   257
 75
     1
175
     1
 42
1.0
 92
        0
 66
   257
 43
1.0
 76
     1
 77
     6
 78
     2
 67
     7
 79
     5
170
     0
171
     0
290
     0
174
     0
 93
       13
 44
0.0
173
     0
291
     1
 45
0.0
1001
ACAD
1000
AcDbSavedByObjectVersion
1070
     0
  0
VISUALSTYLE
  5
2AA1
102
{ACAD_REACTORS
330
2A93
102
}
330
2A93
100
AcDbVisualStyle
  2
Linepattern
 70
    14
 71
     2
 72
     2
 73
     0
 90
        0
 40
-0.6
 41
-30.0
 62
     5
 63
     7
 74
     1
 91
        4
 64
     7
 65
   257
 75
     7
175
     7
 42
1.0
 92
        8
 66
     7
 43
1.0
 76
     1
 77
     6
 78
     2
 67
     7
 79
     5
170
     0
171
     0
290
     0
174
     0
 93
        1
 44
0.0
173
     0
291
     1
 45
0.0
1001
ACAD
1000
AcDbSavedByObjectVersion
1070
     0
  0
VISUALSTYLE
  5
2A9D
102
{ACAD_REACTORS
330
2A93
102
}
330
2A93
100
AcDbVisualStyle
  2
Realistic
 70
     8
 71
     2
 72
     2
 73
     0
 90
        0
 40
-0.6
 41
-30.0
 62
     5
 63
     7
 74
     1
 91
        0
 64
     7
 65
   257
 75
     1
175
     1
 42
1.0
 92
        8
 66
     8
 43
1.0
 76
     1
 77
     6
 78
     2
 67
     7
 79
     5
170
     0
171
     0
290
     0
174
     0
 93
       13
 44
0.0
173
     0
291
     0
 45
0.0
1001
ACAD
1000
AcDbSavedByObjectVersion
1070
     0
  0
VISUALSTYLE
  5
2AA0
102
{ACAD_REACTORS
330
2A93
102
}
330
2A93
100
AcDbVisualStyle
  2
Thicken
 70
    13
 71
     2
 72
     2
 73
     0
 90
        0
 40
-0.6
 41
-30.0
 62
     5
 63
     7
 74
     1
 91
        4
 64
     7
 65
   257
 75
     1
175
     1
 42
1.0
 92
       12
 66
     7
 43
1.0
 76
     1
 77
     6
 78
     2
 67
     7
 79
     5
170
     0
171
     0
290
     0
174
     0
 93
        1
 44
0.0
173
     0
291
     1
 45
0.0
1001
ACAD
1000
AcDbSavedByObjectVersion
1070
     0
  0
DICTIONARYVAR
  5
2CBB
102
{ACAD_REACTORS
330
2CB8
102
}
330
2CB8
100
DictionaryVariables
280
     0
  1
1:1
  0
DICTIONARYVAR
  5
2CBA
102
{ACAD_REACTORS
330
2CB8
102
}
330
2CB8
100
DictionaryVariables
280
     0
  1
STANDARD
  0
DICTIONARYVAR
  5
2CB9
102
{ACAD_REACTORS
330
2CB8
102
}
330
2CB8
100
DictionaryVariables
280
     0
  1
STANDARD
  0
DICTIONARYVAR
  5
2CBE
102
{ACAD_REACTORS
330
2CB8
102
}
330
2CB8
100
DictionaryVariables
280
     0
  1
1
  0
DICTIONARYVAR
  5
2CBD
102
{ACAD_REACTORS
330
2CB8
102
}
330
2CB8
100
DictionaryVariables
280
     0
  1
1
  0
DICTIONARYVAR
  5
2CBC
102
{ACAD_REACTORS
330
2CB8
102
}
330
2CB8
100
DictionaryVariables
280
     0
  1
127
  0
DICTIONARY
  5
2C79
102
{ACAD_REACTORS
330
2C6B
102
}
330
2C6B
100
AcDbDictionary
281
     1
  0
DICTIONARY
  5
2BB9
102
{ACAD_REACTORS
330
2BB8
102
}
330
2BB8
100
AcDbDictionary
281
     1
  3
DWGSETTINGS
350
2BBA
  3
TRANSSETTINGS
350
2BBB
  0
LAYER_INDEX
  5
2CAB
102
{ACAD_REACTORS
330
2CAA
102
}
330
2CAA
100
AcDbIndex
 40
2456210.758607778
100
AcDbLayerIndex
  8
0
360
2CAC
 90
        2
  8
OUTLINE
360
2CAD
 90
       17
  8
SIZE
360
2CAE
 90
       24
  8
BASIS
360
2CAF
 90
        1
  8
DETAIL
360
2CB0
 90
       23
  8
ARRANGE
360
2CB1
 90
        2
  8
DEFPOINTS
360
2CB2
 90
        0
  8
ETC
360
2CB3
 90
        3
  8
FIX
360
2CB4
 90
        0
  8
NOTE
360
2CB5
 90
        4
  8
SERVICESPACE
360
2CB6
 90
        0
  8
SYMBOLLINE
360
2CB7
 90
        0
  0
DICTIONARY
  5
2CCE
330
2AE1
100
AcDbDictionary
280
     1
281
     1
  3
ACAD_XREC_ROUNDTRIP
360
2CCF
  0
DICTIONARY
  5
2CCC
330
2ADD
100
AcDbDictionary
280
     1
281
     1
  3
ACAD_XREC_ROUNDTRIP
360
2CCD
  0
DICTIONARY
  5
2A84
330
2A83
100
AcDbDictionary
280
     1
281
     1
  3
ACAD_XREC_ROUNDTRIP
360
2CC9
  3
BUMPTILE
360
2A86
  3
DIFFUSETILE
360
2A85
  3
OPACITYTILE
360
2A89
  3
REFLECTIONTILE
360
2A88
  3
REFRACTIONTILE
360
2A8A
  3
SPECULARTILE
360
2A87
  0
DICTIONARY
  5
2A7C
330
2A7B
100
AcDbDictionary
280
     1
281
     1
  3
ACAD_XREC_ROUNDTRIP
360
2CC8
  3
BUMPTILE
360
2A7E
  3
DIFFUSETILE
360
2A7D
  3
OPACITYTILE
360
2A81
  3
REFLECTIONTILE
360
2A80
  3
REFRACTIONTILE
360
2A82
  3
SPECULARTILE
360
2A7F
  0
DICTIONARY
  5
2A8C
330
2A8B
100
AcDbDictionary
280
     1
281
     1
  3
ACAD_XREC_ROUNDTRIP
360
2CCA
  3
BUMPTILE
360
2A8E
  3
DIFFUSETILE
360
2A8D
  3
OPACITYTILE
360
2A91
  3
REFLECTIONTILE
360
2A90
  3
REFRACTIONTILE
360
2A92
  3
SPECULARTILE
360
2A8F
  0
DICTIONARY
  5
2CBF
330
2AD6
100
AcDbDictionary
280
     1
281
     1
  3
ACAD_ROUNDTRIP_2008_TABLESTYLE_CELLSTYLEMAP
360
2CC0
  3
ACAD_XREC_ROUNDTRIP
360
2CCB
  0
IDBUFFER
  5
2CAC
330
0
100
AcDbIdBuffer
330
2A00
330
2A01
  0
IDBUFFER
  5
2CAD
330
0
100
AcDbIdBuffer
330
2A0D
330
953
330
954
330
955
330
956
330
957
330
958
330
29FC
330
29FF
330
2A04
330
2A05
330
2A06
330
2A07
330
2A08
330
2A09
330
2A0B
330
2A0C
  0
IDBUFFER
  5
2CAE
330
0
100
AcDbIdBuffer
330
2A28
330
2A29
330
2A2A
330
2A2B
330
2A2C
330
2A2D
330
2A2E
330
2A2F
330
2A18
330
2A19
330
2A1A
330
2A1B
330
2A1C
330
2A1D
330
2A1E
330
2A1F
330
2A20
330
2A21
330
2A22
330
2A23
330
2A24
330
2A25
330
2A26
330
2A27
  0
IDBUFFER
  5
2CAF
330
0
100
AcDbIdBuffer
330
29ED
  0
IDBUFFER
  5
2CB0
330
0
100
AcDbIdBuffer
330
2A11
330
2A12
330
2A13
330
2A14
330
2A15
330
2A16
330
2A17
330
29EE
330
29EF
330
29F0
330
29F1
330
29F2
330
29F3
330
29F4
330
29F5
330
29F7
330
29F9
330
29FA
330
29FB
330
29FE
330
2A0E
330
2A0F
330
2A10
  0
IDBUFFER
  5
2CB1
330
0
100
AcDbIdBuffer
330
29EC
330
29FD
  0
IDBUFFER
  5
2CB2
330
0
100
AcDbIdBuffer
  0
IDBUFFER
  5
2CB3
330
0
100
AcDbIdBuffer
330
29EA
330
29EB
330
2A0A
  0
IDBUFFER
  5
2CB4
330
0
100
AcDbIdBuffer
  0
IDBUFFER
  5
2CB5
330
0
100
AcDbIdBuffer
330
29F6
330
29F8
330
2A02
330
2A03
  0
IDBUFFER
  5
2CB6
330
0
100
AcDbIdBuffer
  0
IDBUFFER
  5
2CB7
330
0
100
AcDbIdBuffer
  0
XRECORD
  5
2CCF
102
{ACAD_REACTORS
330
2CCE
102
}
330
2CCE
100
AcDbXrecord
280
     1
102
SHADEPLOT
 70
     0
102
SHADEPLOTRESLEVEL
 70
     2
102
SHADEPLOTCUSTOMDPI
 70
   300
  0
XRECORD
  5
2CCD
102
{ACAD_REACTORS
330
2CCC
102
}
330
2CCC
100
AcDbXrecord
280
     1
102
SHADEPLOT
 70
     0
102
SHADEPLOTRESLEVEL
 70
     2
102
SHADEPLOTCUSTOMDPI
 70
   300
  0
XRECORD
  5
2CC9
102
{ACAD_REACTORS
330
2A84
102
}
330
2A84
100
AcDbXrecord
280
     1
102
MATERIAL
148
0.0
149
0.0
149
0.0
 93
        0
 94
      127
282
     0
 72
     0
 77
     0
171
     0
175
     0
179
     0
273
     0
  0
XRECORD
  5
2A86
102
{ACAD_REACTORS
330
2A84
102
}
330
2A84
100
AcDbXrecord
280
     1
270
     1
271
     1
  0
XRECORD
  5
2A85
102
{ACAD_REACTORS
330
2A84
102
}
330
2A84
100
AcDbXrecord
280
     1
270
     1
271
     1
  0
XRECORD
  5
2A89
102
{ACAD_REACTORS
330
2A84
102
}
330
2A84
100
AcDbXrecord
280
     1
270
     1
271
     1
  0
XRECORD
  5
2A88
102
{ACAD_REACTORS
330
2A84
102
}
330
2A84
100
AcDbXrecord
280
     1
270
     1
271
     1
  0
XRECORD
  5
2A8A
102
{ACAD_REACTORS
330
2A84
102
}
330
2A84
100
AcDbXrecord
280
     1
270
     1
271
     1
  0
XRECORD
  5
2A87
102
{ACAD_REACTORS
330
2A84
102
}
330
2A84
100
AcDbXrecord
280
     1
270
     1
271
     1
  0
XRECORD
  5
2CC8
102
{ACAD_REACTORS
330
2A7C
102
}
330
2A7C
100
AcDbXrecord
280
     1
102
MATERIAL
148
0.0
149
0.0
149
0.0
 93
        0
 94
      127
282
     0
 72
     0
 77
     0
171
     0
175
     0
179
     0
273
     0
  0
XRECORD
  5
2A7E
102
{ACAD_REACTORS
330
2A7C
102
}
330
2A7C
100
AcDbXrecord
280
     1
270
     1
271
     1
  0
XRECORD
  5
2A7D
102
{ACAD_REACTORS
330
2A7C
102
}
330
2A7C
100
AcDbXrecord
280
     1
270
     1
271
     1
  0
XRECORD
  5
2A81
102
{ACAD_REACTORS
330
2A7C
102
}
330
2A7C
100
AcDbXrecord
280
     1
270
     1
271
     1
  0
XRECORD
  5
2A80
102
{ACAD_REACTORS
330
2A7C
102
}
330
2A7C
100
AcDbXrecord
280
     1
270
     1
271
     1
  0
XRECORD
  5
2A82
102
{ACAD_REACTORS
330
2A7C
102
}
330
2A7C
100
AcDbXrecord
280
     1
270
     1
271
     1
  0
XRECORD
  5
2A7F
102
{ACAD_REACTORS
330
2A7C
102
}
330
2A7C
100
AcDbXrecord
280
     1
270
     1
271
     1
  0
XRECORD
  5
2CCA
102
{ACAD_REACTORS
330
2A8C
102
}
330
2A8C
100
AcDbXrecord
280
     1
102
MATERIAL
148
0.0
149
0.0
149
0.0
 93
        0
 94
      127
282
     0
 72
     0
 77
     0
171
     0
175
     0
179
     0
273
     0
  0
XRECORD
  5
2A8E
102
{ACAD_REACTORS
330
2A8C
102
}
330
2A8C
100
AcDbXrecord
280
     1
270
     1
271
     1
  0
XRECORD
  5
2A8D
102
{ACAD_REACTORS
330
2A8C
102
}
330
2A8C
100
AcDbXrecord
280
     1
270
     1
271
     1
  0
XRECORD
  5
2A91
102
{ACAD_REACTORS
330
2A8C
102
}
330
2A8C
100
AcDbXrecord
280
     1
270
     1
271
     1
  0
XRECORD
  5
2A90
102
{ACAD_REACTORS
330
2A8C
102
}
330
2A8C
100
AcDbXrecord
280
     1
270
     1
271
     1
  0
XRECORD
  5
2A92
102
{ACAD_REACTORS
330
2A8C
102
}
330
2A8C
100
AcDbXrecord
280
     1
270
     1
271
     1
  0
XRECORD
  5
2A8F
102
{ACAD_REACTORS
330
2A8C
102
}
330
2A8C
100
AcDbXrecord
280
     1
270
     1
271
     1
  0
CELLSTYLEMAP
  5
2CC0
102
{ACAD_REACTORS
330
2CBF
102
}
330
2CBF
100
AcDbCellStyleMap
 90
        3
300
CELLSTYLE
  1
TABLEFORMAT_BEGIN
 90
        5
170
     1
 91
        0
 92
    32768
 62
   257
 93
        1
300
CONTENTFORMAT
  1
CONTENTFORMAT_BEGIN
 90
        0
 91
        0
 92
      512
 93
        0
300

 40
0.0
140
1.0
 94
        5
 62
     0
340
2AC7
144
0.25
309
CONTENTFORMAT_END
171
     0
 94
        0
309
TABLEFORMAT_END
  1
CELLSTYLE_BEGIN
 90
        1
 91
        1
300
_TITLE
309
CELLSTYLE_END
300
CELLSTYLE
  1
TABLEFORMAT_BEGIN
 90
        5
170
     1
 91
        0
 92
        0
 62
   257
 93
        1
300
CONTENTFORMAT
  1
CONTENTFORMAT_BEGIN
 90
        0
 91
        0
 92
      512
 93
        0
300

 40
0.0
140
1.0
 94
        5
 62
     0
340
2AC7
144
0.18
309
CONTENTFORMAT_END
171
     0
 94
        0
309
TABLEFORMAT_END
  1
CELLSTYLE_BEGIN
 90
        2
 91
        1
300
_HEADER
309
CELLSTYLE_END
300
CELLSTYLE
  1
TABLEFORMAT_BEGIN
 90
        5
170
     1
 91
        0
 92
        0
 62
   257
 93
        1
300
CONTENTFORMAT
  1
CONTENTFORMAT_BEGIN
 90
        0
 91
        0
 92
      512
 93
        0
300

 40
0.0
140
1.0
 94
        2
 62
     0
340
2AC7
144
0.18
309
CONTENTFORMAT_END
171
     0
 94
        0
309
TABLEFORMAT_END
  1
CELLSTYLE_BEGIN
 90
        3
 91
        2
300
_DATA
309
CELLSTYLE_END
  0
XRECORD
  5
2CCB
102
{ACAD_REACTORS
330
2CBF
102
}
330
2CBF
100
AcDbXrecord
280
     1
102
ACAD_ROUNDTRIP_PRE2007_TABLESTYLE
 90
      512
 91
        0
  1

 92
      512
 93
        0
  2

 94
      512
 95
        0
  3

  0
ENDSEC
  0
EOF
