  0
SECTION
  2
HEADER
  9
$ACADVER
  1
AC1015
  9
$ACADMAINTVER
 70
    20
  9
$DWGCODEPAGE
  3
ANSI_932
  9
$INSBASE
 10
0.0
 20
0.0
 30
0.0
  9
$EXTMIN
 10
-1127.595114277967
 20
-1077.822995541721
 30
0.0
  9
$EXTMAX
 10
1362.178775473883
 20
803.7616409610512
 30
50.0
  9
$LIMMIN
 10
-2970.0
 20
-2100.0
  9
$LIMMAX
 10
2970.0
 20
2100.0
  9
$ORTHOMODE
 70
     1
  9
$REGENMODE
 70
     0
  9
$FILLMODE
 70
     1
  9
$QTEXTMODE
 70
     0
  9
$MIRRTEXT
 70
     0
  9
$LTSCALE
 40
20.0
  9
$ATTMODE
 70
     1
  9
$TEXTSIZE
 40
64.0
  9
$TRACEWID
 40
0.05
  9
$TEXTSTYLE
  7
STANDARD
  9
$CLAYER
  8
0
  9
$CELTYPE
  6
ByLayer
  9
$CECOLOR
 62
   256
  9
$CELTSCALE
 40
1.0
  9
$DISPSILH
 70
     0
  9
$DIMSCALE
 40
1.0
  9
$DIMASZ
 40
0.12
  9
$DIMEXO
 40
0.05
  9
$DIMDLI
 40
0.5
  9
$DIMRND
 40
0.0
  9
$DIMDLE
 40
0.0
  9
$DIMEXE
 40
0.1
  9
$DIMTP
 40
0.1
  9
$DIMTM
 40
0.1
  9
$DIMTXT
 40
0.12
  9
$DIMCEN
 40
0.0
  9
$DIMTSZ
 40
0.0
  9
$DIMTOL
 70
     0
  9
$DIMLIM
 70
     0
  9
$DIMTIH
 70
     1
  9
$DIMTOH
 70
     1
  9
$DIMSE1
 70
     0
  9
$DIMSE2
 70
     0
  9
$DIMTAD
 70
     0
  9
$DIMZIN
 70
     7
  9
$DIMBLK
  1

  9
$DIMASO
 70
     1
  9
$DIMSHO
 70
     0
  9
$DIMPOST
  1

  9
$DIMAPOST
  1
mm
  9
$DIMALT
 70
     0
  9
$DIMALTD
 70
     2
  9
$DIMALTF
 40
25.4
  9
$DIMLFAC
 40
1.0
  9
$DIMTOFL
 70
     0
  9
$DIMTVP
 40
0.0
  9
$DIMTIX
 70
     0
  9
$DIMSOXD
 70
     0
  9
$DIMSAH
 70
     0
  9
$DIMBLK1
  1

  9
$DIMBLK2
  1

  9
$DIMSTYLE
  2
AM_ANSI
  9
$DIMCLRD
 70
   256
  9
$DIMCLRE
 70
   256
  9
$DIMCLRT
 70
     2
  9
$DIMTFAC
 40
0.71
  9
$DIMGAP
 40
0.06
  9
$DIMJUST
 70
     0
  9
$DIMSD1
 70
     0
  9
$DIMSD2
 70
     0
  9
$DIMTOLJ
 70
     1
  9
$DIMTZIN
 70
     7
  9
$DIMALTZ
 70
     0
  9
$DIMALTTZ
 70
     0
  9
$DIMUPT
 70
     0
  9
$DIMDEC
 70
     4
  9
$DIMTDEC
 70
     4
  9
$DIMALTU
 70
     2
  9
$DIMALTTD
 70
     4
  9
$DIMTXSTY
  7
STANDARD
  9
$DIMAUNIT
 70
     0
  9
$DIMADEC
 70
     0
  9
$DIMALTRND
 40
0.0
  9
$DIMAZIN
 70
     2
  9
$DIMDSEP
 70
    46
  9
$DIMATFIT
 70
     3
  9
$DIMFRAC
 70
     0
  9
$DIMLDRBLK
  1

  9
$DIMLUNIT
 70
     2
  9
$DIMLWD
 70
    -1
  9
$DIMLWE
 70
    -1
  9
$DIMTMOVE
 70
     0
  9
$LUNITS
 70
     2
  9
$LUPREC
 70
     4
  9
$SKETCHINC
 40
0.1
  9
$FILLETRAD
 40
4.0
  9
$AUNITS
 70
     1
  9
$AUPREC
 70
     3
  9
$MENU
  1
ACAD
  9
$ELEVATION
 40
0.0
  9
$PELEVATION
 40
0.0
  9
$THICKNESS
 40
50.0
  9
$LIMCHECK
 70
     0
  9
$CHAMFERA
 40
0.0
  9
$CHAMFERB
 40
0.0
  9
$CHAMFERC
 40
0.0
  9
$CHAMFERD
 40
0.0
  9
$SKPOLY
 70
     0
  9
$TDCREATE
 40
2452321.396199653
  9
$TDUCREATE
 40
2452321.021199653
  9
$TDUPDATE
 40
2456210.762983634
  9
$TDUUPDATE
 40
2456210.387983635
  9
$TDINDWG
 40
1.0412994792
  9
$TDUSRTIMER
 40
1.0412937269
  9
$USRTIMER
 70
     1
  9
$ANGBASE
 50
0.0
  9
$ANGDIR
 70
     0
  9
$PDMODE
 70
     3
  9
$PDSIZE
 40
-2.0
  9
$PLINEWID
 40
0.0
  9
$SPLFRAME
 70
     0
  9
$SPLINETYPE
 70
     6
  9
$SPLINESEGS
 70
     8
  9
$HANDSEED
  5
2D04
  9
$SURFTAB1
 70
     6
  9
$SURFTAB2
 70
     6
  9
$SURFTYPE
 70
     6
  9
$SURFU
 70
     6
  9
$SURFV
 70
     6
  9
$UCSBASE
  2

  9
$UCSNAME
  2

  9
$UCSORG
 10
0.0
 20
0.0
 30
0.0
  9
$UCSXDIR
 10
1.0
 20
0.0
 30
0.0
  9
$UCSYDIR
 10
0.0
 20
1.0
 30
0.0
  9
$UCSORTHOREF
  2

  9
$UCSORTHOVIEW
 70
     0
  9
$UCSORGTOP
 10
0.0
 20
0.0
 30
0.0
  9
$UCSORGBOTTOM
 10
0.0
 20
0.0
 30
0.0
  9
$UCSORGLEFT
 10
0.0
 20
0.0
 30
0.0
  9
$UCSORGRIGHT
 10
0.0
 20
0.0
 30
0.0
  9
$UCSORGFRONT
 10
0.0
 20
0.0
 30
0.0
  9
$UCSORGBACK
 10
0.0
 20
0.0
 30
0.0
  9
$PUCSBASE
  2

  9
$PUCSNAME
  2

  9
$PUCSORG
 10
0.0
 20
0.0
 30
0.0
  9
$PUCSXDIR
 10
1.0
 20
0.0
 30
0.0
  9
$PUCSYDIR
 10
0.0
 20
1.0
 30
0.0
  9
$PUCSORTHOREF
  2

  9
$PUCSORTHOVIEW
 70
     0
  9
$PUCSORGTOP
 10
0.0
 20
0.0
 30
0.0
  9
$PUCSORGBOTTOM
 10
0.0
 20
0.0
 30
0.0
  9
$PUCSORGLEFT
 10
0.0
 20
0.0
 30
0.0
  9
$PUCSORGRIGHT
 10
0.0
 20
0.0
 30
0.0
  9
$PUCSORGFRONT
 10
0.0
 20
0.0
 30
0.0
  9
$PUCSORGBACK
 10
0.0
 20
0.0
 30
0.0
  9
$USERI1
 70
     0
  9
$USERI2
 70
     0
  9
$USERI3
 70
     0
  9
$USERI4
 70
     0
  9
$USERI5
 70
     0
  9
$USERR1
 40
20.0
  9
$USERR2
 40
0.0
  9
$USERR3
 40
0.0
  9
$USERR4
 40
0.0
  9
$USERR5
 40
0.0
  9
$WORLDVIEW
 70
     1
  9
$SHADEDGE
 70
     3
  9
$SHADEDIF
 70
    70
  9
$TILEMODE
 70
     1
  9
$MAXACTVP
 70
    64
  9
$PINSBASE
 10
0.0
 20
0.0
 30
0.0
  9
$PLIMCHECK
 70
     0
  9
$PEXTMIN
 10
1.000000000000000E+20
 20
1.000000000000000E+20
 30
1.000000000000000E+20
  9
$PEXTMAX
 10
-1.000000000000000E+20
 20
-1.000000000000000E+20
 30
-1.000000000000000E+20
  9
$PLIMMIN
 10
0.0
 20
0.0
  9
$PLIMMAX
 10
12.0
 20
9.0
  9
$UNITMODE
 70
     0
  9
$VISRETAIN
 70
     1
  9
$PLINEGEN
 70
     0
  9
$PSLTSCALE
 70
     1
  9
$TREEDEPTH
 70
  3020
  9
$CMLSTYLE
  2
Standard
  9
$CMLJUST
 70
     0
  9
$CMLSCALE
 40
1.0
  9
$PROXYGRAPHICS
 70
     1
  9
$MEASUREMENT
 70
     0
  9
$CELWEIGHT
370
    -1
  9
$ENDCAPS
280
     0
  9
$JOINSTYLE
280
     0
  9
$LWDISPLAY
290
     0
  9
$INSUNITS
 70
     0
  9
$HYPERLINKBASE
  1

  9
$STYLESHEET
  1

  9
$XEDIT
290
     1
  9
$CEPSNTYPE
380
     0
  9
$PSTYLEMODE
290
     1
  9
$FINGERPRINTGUID
  2
{02C224FD-6D4C-4062-8D0D-1B06C83BB0B4}
  9
$VERSIONGUID
  2
{EBCE15BD-932F-4E63-8D94-ACC305EF510B}
  9
$EXTNAMES
290
     1
  9
$PSVPSCALE
 40
0.0
  9
$OLESTARTUP
290
     0
  0
ENDSEC
  0
SECTION
  2
CLASSES
  0
CLASS
  1
ACDBDICTIONARYWDFLT
  2
AcDbDictionaryWithDefault
  3
ObjectDBX Classes
 90
        0
280
     0
281
     0
  0
CLASS
  1
MATERIAL
  2
AcDbMaterial
  3
ObjectDBX Classes
 90
     1153
280
     0
281
     0
  0
CLASS
  1
VISUALSTYLE
  2
AcDbVisualStyle
  3
ObjectDBX Classes
 90
     4095
280
     0
281
     0
  0
CLASS
  1
SCALE
  2
AcDbScale
  3
ObjectDBX Classes
 90
     1153
280
     0
281
     0
  0
CLASS
  1
TABLESTYLE
  2
AcDbTableStyle
  3
ObjectDBX Classes
 90
     4095
280
     0
281
     0
  0
CLASS
  1
MLEADERSTYLE
  2
AcDbMLeaderStyle
  3
ACDB_MLEADERSTYLE_CLASS
 90
     4095
280
     0
281
     0
  0
CLASS
  1
AMGSETTINGSOBJ
  2
AmgSettingsObj
  3
"AcadM|Product Description: AutoCAD Mechanical|Company: Autodesk, Inc."
 90
     1024
280
     0
281
     0
  0
CLASS
  1
ACME_DOCUMENT
  2
AcMeDbDoc
  3
AcMeServices
 90
     1024
280
     0
281
     0
  0
CLASS
  1
ACMESCOPE
  2
AcMeScope
  3
AcMeServices
 90
     1024
280
     0
281
     0
  0
CLASS
  1
ACMECOMMANDHISTORY
  2
AcMeCommandHistory
  3
AcMeServices
 90
     1024
280
     0
281
     0
  0
CLASS
  1
ACIMSYSVARMAN
  2
AcImSysVarManager
  3
AcMeServices
 90
     1024
280
     0
281
     0
  0
CLASS
  1
ACIMREALSYSVAR
  2
AcImRealSysVar
  3
AcMeServices
 90
     1024
280
     0
281
     0
  0
CLASS
  1
ACIMINTSYSVAR
  2
AcImIntSysVar
  3
AcMeServices
 90
     1024
280
     0
281
     0
  0
CLASS
  1
ACMEDRAWINGMAN
  2
AcMeDrawingMan
  3
AcMeServices
 90
     1024
280
     0
281
     0
  0
CLASS
  1
ACMEVIEW
  2
AcMeView
  3
AcMeServices
 90
     1024
280
     0
281
     0
  0
CLASS
  1
ACDBENTITYCACHE
  2
AcMeEntityCache
  3
AcMeServices
 90
     1024
280
     0
281
     0
  0
CLASS
  1
GSMANAGER
  2
AcMeGSManager
  3
AcMeServices
 90
     1024
280
     0
281
     0
  0
CLASS
  1
AMDTINTERNALREACTOR
  2
AmdtInternalReactor
  3
AcMeServices
 90
     1024
280
     0
281
     0
  0
CLASS
  1
ACMESTATEMGR
  2
AcMeStateMgr
  3
AcMeServices
 90
     1024
280
     0
281
     0
  0
CLASS
  1
ACGREFMASTER
  2
AcGrefMaster
  3
AcAttribServices
 90
     1024
280
     0
281
     0
  0
CLASS
  1
AM_DRAWING_MGR
  2
AcDmDwgMgr
  3
AcMechDwgViewMgmt
 90
     1024
280
     0
281
     0
  0
CLASS
  1
AM_DWG_DOCUMENT
  2
AcDmDwgDocument
  3
AcMechDwgViewMgmt
 90
     1024
280
     0
281
     0
  0
CLASS
  1
AM_DWG_SHEET
  2
AcDmSheet
  3
AcMechDwgViewMgmt
 90
     1024
280
     0
281
     0
  0
CLASS
  1
AM_VIEWDIMPARMAP
  2
AcDmViewDimParMap
  3
AcMechDwgViewMgmt
 90
     1024
280
     0
281
     0
  0
CLASS
  1
AM_DWGMGR_NAME
  2
AcDmDwgMgrName
  3
AcMechDwgViewMgmt
 90
     1024
280
     0
281
     0
  0
CLASS
  1
ACME_DATABASE
  2
AcMeDbDatabase
  3
AcMeServices
 90
     1024
280
     0
281
     0
  0
CLASS
  1
ACRFINSADJUSTERMGR
  2
AcRfInsAdjusterMgr
  3
AcMeServices
 90
     1024
280
     0
281
     0
  0
CLASS
  1
ACGREFACADMASTER
  2
AcGrefacadMaster
  3
AcGrefServices
 90
     1024
280
     0
281
     0
  0
CLASS
  1
AMDTMENUSTATEMGR
  2
AmdtMenuStateMgr
  3
McadcomServices
 90
     1024
280
     0
281
     0
  0
CLASS
  1
AMDTMCOMMENUSTATE
  2
AmdtMcomMenuState
  3
McadcomServices
 90
     1024
280
     0
281
     0
  0
CLASS
  1
AMIMASTER
  2
AmiMaster
  3
AmiServices
 90
     1024
280
     0
281
     0
  0
CLASS
  1
ASAPP
  2
AcAsAppObject
  3
AutoSurfServices
 90
     1024
280
     0
281
     0
  0
CLASS
  1
IM_STATIC_MAN
  2
AcImStaticVarManager
  3
AcMeServices
 90
     1024
280
     0
281
     0
  0
CLASS
  1
ACIMSTRSYSVAR
  2
AcImStrSysVar
  3
AcMeServices
 90
     1024
280
     0
281
     0
  0
CLASS
  1
ACIMDBLSTATICVAR
  2
AcImDblStaticVar
  3
AcMeServices
 90
     1024
280
     0
281
     0
  0
CLASS
  1
ACIMSTRSTATICVAR
  2
AcImStrStaticVar
  3
AcMeServices
 90
     1024
280
     0
281
     0
  0
CLASS
  1
ACIMINTSTATICVAR
  2
AcImIntStaticVar
  3
AcMeServices
 90
     1024
280
     0
281
     0
  0
CLASS
  1
ACASGREFMASTER
  2
AcAsGrefMaster
  3
AutoSurfResolverServices
 90
     1024
280
     0
281
     0
  0
CLASS
  1
ACADGREFMODULE
  2
AcAdGrefModule
  3
AdGrefServices
 90
     1024
280
     0
281
     0
  0
CLASS
  1
AMDTMAPISURFMOUDULE
  2
AmdtMApiSurfModule
  3
MApiSurfServices
 90
     1024
280
     0
281
     0
  0
CLASS
  1
MAPIAMMOUDLE
  2
MApiAmModule
  3
MApiAmServices
 90
     1024
280
     0
281
     0
  0
CLASS
  1
AMDTADMENUSTATE
  2
AmdtAdMenuState
  3
DesignerServices
 90
     1024
280
     0
281
     0
  0
CLASS
  1
ADAPPL
  2
AcAdAppl
  3
DesignerServices
 90
     1024
280
     0
281
     0
  0
CLASS
  1
DEPMGR
  2
AcAdDepMgr
  3
DesignerServices
 90
     1024
280
     0
281
     0
  0
CLASS
  1
PARAMMGR
  2
AcAdParamMgr
  3
DesignerServices
 90
     1024
280
     0
281
     0
  0
CLASS
  1
PARAMSCOPE
  2
AcAdParamScope
  3
DesignerServices
 90
     1024
280
     0
281
     0
  0
CLASS
  1
NAMEDAPPL
  2
AcAdNamedAppl
  3
DesignerServices
 90
     1024
280
     0
281
     0
  0
CLASS
  1
AMDTDMMENUSTATE
  2
AmdtDmMenuState
  3
AcMechDwgViewMgmt
 90
     1024
280
     0
281
     0
  0
CLASS
  1
MAPIADMODULE
  2
MApiAdModule
  3
MApiAdServices
 90
     1024
280
     0
281
     0
  0
CLASS
  1
AMDTAMMENUSTATE
  2
AmdtAmMenuState
  3
DesignerAssemblies
 90
     1024
280
     0
281
     0
  0
CLASS
  1
ACAMPROJECT
  2
AcAmProject
  3
DesignerAssemblies
 90
     1024
280
     0
281
     0
  0
CLASS
  1
ACAMGRCOMPDEF
  2
AcAmGrCompDef
  3
DesignerAssemblies
 90
     1024
280
     0
281
     0
  0
CLASS
  1
ACCMCONTEXT
  2
AcCmContext
  3
DesignerAssemblies
 90
     1024
280
     0
281
     0
  0
CLASS
  1
ACAMCOMPDEF
  2
AcAmCompDef
  3
DesignerAssemblies
 90
     1024
280
     0
281
     0
  0
CLASS
  1
ACAMCOMPDEFMGR
  2
AcAmCompDefMgr
  3
DesignerAssemblies
 90
     1024
280
     0
281
     0
  0
CLASS
  1
AMCONTEXTMGR
  2
AcAmContextMgr
  3
DesignerAssemblies
 90
     1024
280
     0
281
     0
  0
CLASS
  1
ACAMCONTEXTMODELER
  2
AcAmContextModeler
  3
DesignerAssemblies
 90
     1024
280
     0
281
     0
  0
CLASS
  1
ACMDATADICTIONARY
  2
AcmDataDictionary
  3
"AcmSymBB|Product Description: AutoCAD Mechanical|Company: Autodesk, Inc."
 90
     1024
280
     0
281
     0
  0
CLASS
  1
ACMDATAENTRYBLOCK
  2
AcmDataEntryBlock
  3
AcmSymBB|Product Description: AutoCAD Mechanical|Company: Autodesk, Inc.
 90
     1024
280
     0
281
     0
  0
CLASS
  1
ACRFATTGENMGR
  2
AcRfAttGeneralMgr
  3
AcAttribServices
 90
     1024
280
     0
281
     0
  0
CLASS
  1
ACRFOBJATTMGR
  2
AcRfObjAttGroupMgr
  3
AcAttribServices
 90
     1024
280
     0
281
     0
  0
CLASS
  1
ACRFMCADAPIATTHOLDER
  2
AcRfMCADAPIAttHolder
  3
AcAttribServices
 90
     1024
280
     0
281
     0
  0
CLASS
  1
AMDTSYSATTR
  2
AmdtSystemAttribute
  3
AcAttribServices
 90
     1024
280
     0
281
     0
  0
CLASS
  1
CATALOGSTATE
  2
AcAmCatalogState
  3
DesignerAssemblies
 90
     1024
280
     0
281
     0
  0
CLASS
  1
ACAMGRCOMPDEFSET
  2
AcAmGrCompDefSet
  3
DesignerAssemblies
 90
     1024
280
     0
281
     0
  0
CLASS
  1
AMDTBROWSERDBTAB
  2
AmdtBrowserDbTab
  3
McadcomServices
 90
     1024
280
     0
281
     0
  0
CLASS
  1
CBROWSERAPPOBJECT
  2
CBrowserAppObject
  3
McadcomServices
 90
     1024
280
     0
281
     0
  0
CLASS
  1
DM_PLACEHOLDER
  2
AcDmSelsetPlaceholder
  3
AcMechDwgViewMgmt
 90
     1024
280
     0
281
     0
  0
CLASS
  1
ACMSTANDARDANSI
  2
AcmStandardANSI
  3
"Amdt_StdImp|Product Description: AutoCAD Mechanical|Company: Autodesk, Inc."
 90
     1024
280
     0
281
     0
  0
CLASS
  1
ACMSURFSTANDARDANSI
  2
AcmSurfTextStdANSI
  3
"Amdt_StdImp|Product Description: AutoCAD Mechanical|Company: Autodesk, Inc."
 90
     1024
280
     0
281
     0
  0
CLASS
  1
ACMFCFSTANDARDANSI
  2
AcmFCFStdANSI
  3
"Amdt_StdImp|Product Description: AutoCAD Mechanical|Company: Autodesk, Inc."
 90
     1024
280
     0
281
     0
  0
CLASS
  1
ACMWELDSTANDARDANSI
  2
AcmWeldingStdANSI
  3
"Amdt_StdImp|Product Description: AutoCAD Mechanical|Company: Autodesk, Inc."
 90
     1024
280
     0
281
     0
  0
CLASS
  1
ACMIDSTANDARDANSI
  2
AcmIdStdANSI
  3
"Amdt_StdImp|Product Description: AutoCAD Mechanical|Company: Autodesk, Inc."
 90
     1024
280
     0
281
     0
  0
CLASS
  1
ACMDATUMSTANDARDANSI
  2
AcmDatumStdANSI
  3
"Amdt_StdImp|Product Description: AutoCAD Mechanical|Company: Autodesk, Inc."
 90
     1024
280
     0
281
     0
  0
CLASS
  1
ACMBOMSTANDARDANSI
  2
AcmBOMStdANSI
  3
"Amdt_StdImp|Product Description: AutoCAD Mechanical|Company: Autodesk, Inc."
 90
     1024
280
     0
281
     0
  0
CLASS
  1
ACMDETAILSTANDARDANSI
  2
AmdtDetailSymStdANSI
  3
"Amdt_StdImp|Product Description: AutoCAD Mechanical|Company: Autodesk, Inc."
 90
     1024
280
     0
281
     0
  0
CLASS
  1
ACMSECTIONSTANDARDANSI
  2
AmdtSectionSymStdANSI
  3
"Amdt_StdImp|Product Description: AutoCAD Mechanical|Company: Autodesk, Inc."
 90
     1024
280
     0
281
     0
  0
CLASS
  1
ACMCENTERLINESTANDARDANSI
  2
AmdtCenterLineStdANSI
  3
"Amdt_StdImp|Product Description: AutoCAD Mechanical|Company: Autodesk, Inc."
 90
     1024
280
     0
281
     0
  0
CLASS
  1
ACMTHREADLINESTANDARDANSI
  2
AmdtThreadLineStdANSI
  3
"Amdt_StdImp|Product Description: AutoCAD Mechanical|Company: Autodesk, Inc."
 90
     1024
280
     0
281
     0
  0
CLASS
  1
ACMNOTESTANDARDANSI
  2
AmdtNoteStdANSI
  3
"Amdt_StdImp|Product Description: AutoCAD Mechanical|Company: Autodesk, Inc."
 90
     1024
280
     0
281
     0
  0
CLASS
  1
ACMTAPERSTANDARDANSI
  2
AcmTaperStdANSI
  3
"Amdt_StdImp|Product Description: AutoCAD Mechanical|Company: Autodesk, Inc."
 90
     1024
280
     0
281
     0
  0
CLASS
  1
ACMANOOTATIONVIEWSTANDARDANSI
  2
AmdtAnViewStdANSI
  3
"Amdt_StdImp|Product Description: AutoCAD Mechanical|Company: Autodesk, Inc."
 90
     1024
280
     0
281
     0
  0
CLASS
  1
ACAMGLAYSTD
  2
AcAmgLayStd
  3
"AmgLay|Product Description: AutoCAD Mechanical|Company: Autodesk, Inc."
 90
     1024
280
     0
281
     0
  0
CLASS
  1
ACAMGDIMSTD
  2
AcAmgDimStd
  3
"AmgDim|Product Description: AutoCAD Mechanical|Company: Autodesk, Inc."
 90
     1024
280
     0
281
     0
  0
CLASS
  1
ACAMGHOLECHARTSTDANSI
  2
AcAmgHoleChartStdANSI
  3
AmgDim|Product Description: AutoCAD Mechanical|Company: Autodesk, Inc.
 90
     1024
280
     0
281
     0
  0
CLASS
  1
AMGOBJPROPCFG
  2
AmgObjPropCfg
  3
"AmgLay|Product Description: AutoCAD Mechanical|Company: Autodesk, Inc."
 90
     1025
280
     0
281
     0
  0
CLASS
  1
ACAMGTITLESTD
  2
AcAmgTitleStd
  3
"AmgTitle|Product Description: AutoCAD Mechanical|Company: Autodesk, Inc."
 90
     4095
280
     0
281
     0
  0
CLASS
  1
AMDTNOTETEMPLATEDB
  2
AmdtNoteTemplateDB
  3
AcmSymBB|Product Description: AutoCAD Mechanical|Company: Autodesk, Inc.
 90
     1024
280
     0
281
     0
  0
CLASS
  1
LAYER_INDEX
  2
AcDbLayerIndex
  3
ObjectDBX Classes
 90
        0
280
     0
281
     0
  0
CLASS
  1
IDBUFFER
  2
AcDbIdBuffer
  3
ObjectDBX Classes
 90
        0
280
     0
281
     0
  0
CLASS
  1
DICTIONARYVAR
  2
AcDbDictionaryVar
  3
ObjectDBX Classes
 90
        0
280
     0
281
     0
  0
CLASS
  1
CELLSTYLEMAP
  2
AcDbCellStyleMap
  3
ObjectDBX Classes
 90
     1152
280
     0
281
     0
  0
CLASS
  1
ACDBPLACEHOLDER
  2
AcDbPlaceHolder
  3
ObjectDBX Classes
 90
        0
280
     0
281
     0
  0
CLASS
  1
LAYOUT
  2
AcDbLayout
  3
ObjectDBX Classes
 90
        0
280
     0
281
     0
  0
ENDSEC
  0
SECTION
  2
TABLES
  0
TABLE
  2
VPORT
  5
2AA2
330
0
100
AcDbSymbolTable
 70
     1
  0
VPORT
  5
2B12
330
2AA2
100
AcDbSymbolTableRecord
100
AcDbViewportTableRecord
  2
*ACTIVE
 70
     0
 10
0.0
 20
0.0
 11
1.0
 21
1.0
 12
0.0
 22
0.0
 13
0.0
 23
0.0
 14
1.0
 24
1.0
 15
0.0
 25
0.0
 16
0.0
 26
0.0
 36
1.0
 17
117.1486040544088
 27
-136.9857691891793
 37
0.0
 40
1894.334091642721
 41
1.712555066079295
 42
50.0
 43
0.0
 44
0.0
 50
0.0
 51
0.0
 71
     0
 72
   100
 73
     1
 74
     0
 75
     0
 76
     0
 77
     0
 78
     0
281
     0
 65
     0
110
0.0
120
0.0
130
0.0
111
1.0
121
0.0
131
0.0
112
0.0
122
1.0
132
0.0
 79
     0
146
0.0
  0
ENDTAB
  0
TABLE
  2
LTYPE
  5
2A9F
330
0
100
AcDbSymbolTable
 70
    19
  0
LTYPE
  5
2AFC
330
2A9F
100
AcDbSymbolTableRecord
100
AcDbLinetypeTableRecord
  2
ByBlock
 70
     0
  3

 72
    65
 73
     0
 40
0.0
  0
LTYPE
  5
2AFD
330
2A9F
100
AcDbSymbolTableRecord
100
AcDbLinetypeTableRecord
  2
ByLayer
 70
     0
  3

 72
    65
 73
     0
 40
0.0
  0
LTYPE
  5
2AFE
330
2A9F
100
AcDbSymbolTableRecord
100
AcDbLinetypeTableRecord
  2
CONTINUOUS
 70
     0
  3
実線
 72
    65
 73
     0
 40
0.0
  0
LTYPE
  5
2B13
330
2A9F
100
AcDbSymbolTableRecord
100
AcDbLinetypeTableRecord
  2
DASHDOT
 70
     0
  3
____ _ ____ _ ____ _ ____ _ ____ _ ____ _ ____
 72
    65
 73
     4
 40
5.5
 49
4.0
 74
     0
 49
-0.6
 74
     0
 49
0.3
 74
     0
 49
-0.6
 74
     0
  0
LTYPE
  5
2B14
330
2A9F
100
AcDbSymbolTableRecord
100
AcDbLinetypeTableRecord
  2
HIDDEN
 70
     0
  3
Hidden __ __ __ __ __ __ __ __ __ __ __ __ __ _
 72
    65
 73
     2
 40
0.375
 49
0.25
 74
     0
 49
-0.125
 74
     0
  0
LTYPE
  5
2B15
330
2A9F
100
AcDbSymbolTableRecord
100
AcDbLinetypeTableRecord
  2
PHANTOM2
 70
     0
  3
Phantom (.5x) ___ _ _ ___ _ _ ___ _ _ ___ _ _
 72
    65
 73
     6
 40
1.25
 49
0.625
 74
     0
 49
-0.125
 74
     0
 49
0.125
 74
     0
 49
-0.125
 74
     0
 49
0.125
 74
     0
 49
-0.125
 74
     0
  0
LTYPE
  5
2B16
330
2A9F
100
AcDbSymbolTableRecord
100
AcDbLinetypeTableRecord
  2
CENTER
 70
     0
  3
Center ____ _ ____ _ ____ _ ____ _ ____ _ ____
 72
    65
 73
     4
 40
2.0
 49
1.25
 74
     0
 49
-0.25
 74
     0
 49
0.25
 74
     0
 49
-0.25
 74
     0
  0
LTYPE
  5
2B17
330
2A9F
100
AcDbSymbolTableRecord
100
AcDbLinetypeTableRecord
  2
ASULTYPE
 70
     0
  3
実線
 72
    65
 73
     2
 40
3.0
 49
2.5
 74
     0
 49
0.5
 74
     0
  0
LTYPE
  5
2B18
330
2A9F
100
AcDbSymbolTableRecord
100
AcDbLinetypeTableRecord
  2
ASVLTYPE
 70
     0
  3
__ __ __ __ __ __ __ __ __ __ __ __ __ __ __ __ __ __ __ __ __
 72
    65
 73
     2
 40
0.75
 49
0.5
 74
     0
 49
-0.25
 74
     0
  0
LTYPE
  5
2B19
330
2A9F
100
AcDbSymbolTableRecord
100
AcDbLinetypeTableRecord
  2
AM_ISO02W050
 70
     0
  3
__ __ __ __ __ __ __ __ __ __ __ __ __ __ __
 72
    65
 73
     2
 40
7.5
 49
6.0
 74
     0
 49
-1.5
 74
     0
  0
LTYPE
  5
2B1A
330
2A9F
100
AcDbSymbolTableRecord
100
AcDbLinetypeTableRecord
  2
AM_ISO08W050
 70
     0
  3
____ . ____ . ____ . ____ . ____ . ____ . ____
 72
    65
 73
     4
 40
18.0
 49
12.0
 74
     0
 49
-1.5
 74
     0
 49
3.0
 74
     0
 49
-1.5
 74
     0
  0
LTYPE
  5
2B1B
330
2A9F
100
AcDbSymbolTableRecord
100
AcDbLinetypeTableRecord
  2
AM_ISO09W050
 70
     0
  3
_____ . . _____ . . _____ . . ____ .. ____
 72
    65
 73
     6
 40
22.5
 49
12.0
 74
     0
 49
-1.5
 74
     0
 49
3.0
 74
     0
 49
-1.5
 74
     0
 49
3.0
 74
     0
 49
-1.5
 74
     0
  0
LTYPE
  5
2B1C
330
2A9F
100
AcDbSymbolTableRecord
100
AcDbLinetypeTableRecord
  2
AMCONSTR
 70
     0
  3
_______________________
 72
    65
 73
     2
 40
9999.0
 49
9999.0
 74
     0
 49
0.0
 74
     0
  0
LTYPE
  5
2B1D
330
2A9F
100
AcDbSymbolTableRecord
100
AcDbLinetypeTableRecord
  2
AM_ISO08W050X2
 70
     0
  3
__ . __ . __ . __ . __ . __
 72
    65
 73
     4
 40
9.0
 49
6.0
 74
     0
 49
-0.75
 74
     0
 49
1.5
 74
     0
 49
-0.75
 74
     0
  0
LTYPE
  5
2B1E
330
2A9F
100
AcDbSymbolTableRecord
100
AcDbLinetypeTableRecord
  2
AM_ISO02W050X2
 70
     0
  3
 _ _ _ _ _ _ _ _ _ _ _ _
 72
    65
 73
     2
 40
3.75
 49
3.0
 74
     0
 49
-0.75
 74
     0
  0
LTYPE
  5
2B1F
330
2A9F
100
AcDbSymbolTableRecord
100
AcDbLinetypeTableRecord
  2
AMZIGZAG
 70
     0
  3
/\/-/\/-/\/-/\/-/\/-/\/
 72
    65
 73
     2
 40
11.0001
 49
0.0001
 74
     0
 49
-11.0
 74
     0
  0
LTYPE
  5
2B20
330
2A9F
100
AcDbSymbolTableRecord
100
AcDbLinetypeTableRecord
  2
CENTER2
 70
     0
  3
Center (.5x) ___ _ ___ _ ___ _ ___ _ ___ _ ___
 72
    65
 73
     4
 40
1.125
 49
0.75
 74
     0
 49
-0.125
 74
     0
 49
0.125
 74
     0
 49
-0.125
 74
     0
  0
LTYPE
  5
2B21
330
2A9F
100
AcDbSymbolTableRecord
100
AcDbLinetypeTableRecord
  2
HIDDEN2
 70
     0
  3
Hidden (.5x) _ _ _ _ _ _ _ _ _ _ _ _ _ _ _ _ _
 72
    65
 73
     2
 40
0.1875
 49
0.125
 74
     0
 49
-0.0625
 74
     0
  0
LTYPE
  5
2B22
330
2A9F
100
AcDbSymbolTableRecord
100
AcDbLinetypeTableRecord
  2
AMZIGZAG2
 70
     0
  3
/\/-/\/-/\/-/\/-/\/-/\/
 72
    65
 73
     2
 40
0.4401
 49
0.0001
 74
     0
 49
-0.4400000000000003
 74
     0
  0
LTYPE
  5
2B23
330
2A9F
100
AcDbSymbolTableRecord
100
AcDbLinetypeTableRecord
  2
ACANSTGB
 70
     0
  3
__ . . __ . .
 72
    65
 73
     6
 40
0.35433070866
 49
0.15748031496
 74
     0
 49
-0.03937007874
 74
     0
 49
0.03937007874
 74
     0
 49
-0.03937007874
 74
     0
 49
0.03937007874
 74
     0
 49
-0.03937007874
 74
     0
  0
LTYPE
  5
2B24
330
2A9F
100
AcDbSymbolTableRecord
100
AcDbLinetypeTableRecord
  2
ACANSTGL
 70
     0
  3
_ _ _ _ _
 72
    65
 73
     2
 40
0.11811023622
 49
0.07874015748
 74
     0
 49
-0.03937007874
 74
     0
  0
ENDTAB
  0
TABLE
  2
LAYER
  5
2A9C
330
0
100
AcDbSymbolTable
 70
    12
  0
LAYER
  5
2AF6
102
{ACAD_XDICTIONARY
360
2CC3
102
}
330
2A9C
100
AcDbSymbolTableRecord
100
AcDbLayerTableRecord
  2
0
 70
     0
 62
     7
  6
CONTINUOUS
370
    -3
390
2AA9
  0
LAYER
  5
2B25
102
{ACAD_XDICTIONARY
360
2CC5
102
}
330
2A9C
100
AcDbSymbolTableRecord
100
AcDbLayerTableRecord
  2
OUTLINE
 70
     0
 62
     3
  6
CONTINUOUS
370
    -3
390
2AA9
  0
LAYER
  5
2B26
102
{ACAD_XDICTIONARY
360
2CC7
102
}
330
2A9C
100
AcDbSymbolTableRecord
100
AcDbLayerTableRecord
  2
SIZE
 70
     0
 62
    30
  6
CONTINUOUS
370
    -3
390
2AA9
  0
LAYER
  5
2B27
102
{ACAD_XDICTIONARY
360
2CC9
102
}
330
2A9C
100
AcDbSymbolTableRecord
100
AcDbLayerTableRecord
  2
BASIS
 70
     0
 62
     6
  6
DASHDOT
370
    -3
390
2AA9
  0
LAYER
  5
2B28
102
{ACAD_XDICTIONARY
360
2CCB
102
}
330
2A9C
100
AcDbSymbolTableRecord
100
AcDbLayerTableRecord
  2
DETAIL
 70
     0
 62
     5
  6
CONTINUOUS
370
    -3
390
2AA9
  0
LAYER
  5
2B29
102
{ACAD_XDICTIONARY
360
2CCD
102
}
330
2A9C
100
AcDbSymbolTableRecord
100
AcDbLayerTableRecord
  2
ARRANGE
 70
     0
 62
     1
  6
CONTINUOUS
370
    -3
390
2AA9
  0
LAYER
  5
2B2A
330
2A9C
100
AcDbSymbolTableRecord
100
AcDbLayerTableRecord
  2
DEFPOINTS
 70
     0
 62
     7
  6
CONTINUOUS
290
     0
370
    -3
390
2AA9
  0
LAYER
  5
2B2B
102
{ACAD_XDICTIONARY
360
2CCF
102
}
330
2A9C
100
AcDbSymbolTableRecord
100
AcDbLayerTableRecord
  2
ETC
 70
     0
 62
    61
  6
CONTINUOUS
370
    -3
390
2AA9
  0
LAYER
  5
2B2C
102
{ACAD_XDICTIONARY
360
2CD1
102
}
330
2A9C
100
AcDbSymbolTableRecord
100
AcDbLayerTableRecord
  2
FIX
 70
     0
 62
    11
  6
CONTINUOUS
370
    -3
390
2AA9
  0
LAYER
  5
2B2D
102
{ACAD_XDICTIONARY
360
2CD3
102
}
330
2A9C
100
AcDbSymbolTableRecord
100
AcDbLayerTableRecord
  2
NOTE
 70
     0
 62
     4
  6
CONTINUOUS
370
    -3
390
2AA9
  0
LAYER
  5
2B2E
102
{ACAD_XDICTIONARY
360
2CD5
102
}
330
2A9C
100
AcDbSymbolTableRecord
100
AcDbLayerTableRecord
  2
SERVICESPACE
 70
     0
 62
     2
  6
DASHDOT
370
    -3
390
2AA9
  0
LAYER
  5
2B2F
102
{ACAD_XDICTIONARY
360
2CD7
102
}
330
2A9C
100
AcDbSymbolTableRecord
100
AcDbLayerTableRecord
  2
SYMBOLLINE
 70
     0
 62
    15
  6
CONTINUOUS
370
    -3
390
2AA9
  0
ENDTAB
  0
TABLE
  2
STYLE
  5
2A9D
330
0
100
AcDbSymbolTable
 70
     5
  0
STYLE
  5
2AF7
330
2A9D
100
AcDbSymbolTableRecord
100
AcDbTextStyleTableRecord
  2
STANDARD
 70
     0
 40
64.0
 41
0.9
 50
0.0
 71
     0
 42
64.0
  3
SIMPLEX.shx
  4
BIGFONT.shx
  0
STYLE
  5
2AFB
330
2A9D
100
AcDbSymbolTableRecord
100
AcDbTextStyleTableRecord
  2
ANNOTATIVE
 70
     0
 40
0.0
 41
1.0
 50
0.0
 71
     0
 42
0.2
  3
txt
  4

1001
ACADANNOTATIVE
1000
AnnotativeData
1002
{
1070
     1
1070
     1
1002
}
  0
STYLE
  5
2B30
330
2A9D
100
AcDbSymbolTableRecord
100
AcDbTextStyleTableRecord
  2

 70
     1
 40
0.0
 41
1.0
 50
0.0
 71
     0
 42
64.0
  3
genltshp.shx
  4

  0
STYLE
  5
2B31
330
2A9D
100
AcDbSymbolTableRecord
100
AcDbTextStyleTableRecord
  2
ACANSTS
 70
     0
 40
1.0
 41
1.0
 50
0.0
 71
     0
 42
64.0
  3
romans.shx
  4
extfont.shx
  0
STYLE
  5
2B32
330
2A9D
100
AcDbSymbolTableRecord
100
AcDbTextStyleTableRecord
  2
ACANSGDT
 70
     0
 40
0.0
 41
1.0
 50
0.0
 71
     0
 42
64.0
  3
amgdt.shx
  4

  0
ENDTAB
  0
TABLE
  2
VIEW
  5
2AA0
330
0
100
AcDbSymbolTable
 70
     1
  0
VIEW
  5
2B33
330
2AA0
100
AcDbSymbolTableRecord
100
AcDbViewTableRecord
  2
ALL
 70
     0
 40
4282.619807999997
 10
0.0
 20
41.30990399999999
 41
5940.0
 11
0.0
 21
0.0
 31
1.0
 12
0.0
 22
0.0
 32
0.0
 42
50.0
 43
0.0
 44
0.0
 50
0.0
 71
     0
281
     0
 72
     1
110
0.0
120
0.0
130
0.0
111
1.0
121
0.0
131
0.0
112
0.0
122
1.0
132
0.0
 79
     0
146
0.0
  0
ENDTAB
  0
TABLE
  2
UCS
  5
2AA1
330
0
100
AcDbSymbolTable
 70
     0
  0
ENDTAB
  0
TABLE
  2
APPID
  5
2AA3
330
0
100
AcDbSymbolTable
 70
    29
  0
APPID
  5
2AF8
330
2AA3
100
AcDbSymbolTableRecord
100
AcDbRegAppTableRecord
  2
ACAD
 70
     0
  0
APPID
  5
2AFF
330
2AA3
100
AcDbSymbolTableRecord
100
AcDbRegAppTableRecord
  2
ACADANNOTATIVE
 70
     0
  0
APPID
  5
2B09
330
2AA3
100
AcDbSymbolTableRecord
100
AcDbRegAppTableRecord
  2
ACAD_MLEADERVER
 70
     0
  0
APPID
  5
2B34
330
2AA3
100
AcDbSymbolTableRecord
100
AcDbRegAppTableRecord
  2
GENIUS_GENDIM_13
 70
     0
  0
APPID
  5
2B35
330
2AA3
100
AcDbSymbolTableRecord
100
AcDbRegAppTableRecord
  2
GENIUS_GENDTOL_13
 70
     0
  0
APPID
  5
2B36
330
2AA3
100
AcDbSymbolTableRecord
100
AcDbRegAppTableRecord
  2
GENIUS_GE3DTOL_13
 70
     0
  0
APPID
  5
2B37
330
2AA3
100
AcDbSymbolTableRecord
100
AcDbRegAppTableRecord
  2
MCAD_NO_VIS
 70
     0
  0
APPID
  5
2B38
330
2AA3
100
AcDbSymbolTableRecord
100
AcDbRegAppTableRecord
  2
ACAD_TEMP_GRAPHIC
 70
     0
  0
APPID
  5
2B39
330
2AA3
100
AcDbSymbolTableRecord
100
AcDbRegAppTableRecord
  2
AD_DRAW
 70
     0
  0
APPID
  5
2B3A
330
2AA3
100
AcDbSymbolTableRecord
100
AcDbRegAppTableRecord
  2
ACATTRIBSERVICES
 70
     0
  0
APPID
  5
2B3B
330
2AA3
100
AcDbSymbolTableRecord
100
AcDbRegAppTableRecord
  2
ASURF_PCURVE_APPNAME
 70
     0
  0
APPID
  5
2B3C
330
2AA3
100
AcDbSymbolTableRecord
100
AcDbRegAppTableRecord
  2
AMG_3D2D_5_0
 70
     0
  0
APPID
  5
2B3D
330
2AA3
100
AcDbSymbolTableRecord
100
AcDbRegAppTableRecord
  2
DESIGNERASSEMBLIES
 70
     0
  0
APPID
  5
2B3E
330
2AA3
100
AcDbSymbolTableRecord
100
AcDbRegAppTableRecord
  2
ACADM_DIM_EDIT
 70
     0
  0
APPID
  5
2B3F
330
2AA3
100
AcDbSymbolTableRecord
100
AcDbRegAppTableRecord
  2
AMDT_DM_ADJ
 70
     0
  0
APPID
  5
2B40
330
2AA3
100
AcDbSymbolTableRecord
100
AcDbRegAppTableRecord
  2
ACAD_DSTYLE_DIMARC_LENGTH_
 70
     0
  0
APPID
  5
2B41
330
2AA3
100
AcDbSymbolTableRecord
100
AcDbRegAppTableRecord
  2
ACAD_DSTYLE_DIMJOGGED_JOGA
 70
     0
  0
APPID
  5
2B42
330
2AA3
100
AcDbSymbolTableRecord
100
AcDbRegAppTableRecord
  2
ACAD_PSEXT
 70
     0
  0
APPID
  5
2B43
330
2AA3
100
AcDbSymbolTableRecord
100
AcDbRegAppTableRecord
  2
ACAD_EXEMPT_FROM_CAD_STANDARDS
 70
     0
  0
APPID
  5
2B44
330
2AA3
100
AcDbSymbolTableRecord
100
AcDbRegAppTableRecord
  2
ACAD_DSTYLE_DIMJAG
 70
     0
  0
APPID
  5
2B45
330
2AA3
100
AcDbSymbolTableRecord
100
AcDbRegAppTableRecord
  2
ACAD_DSTYLE_DIMTALN
 70
     0
  0
APPID
  5
2B46
330
2AA3
100
AcDbSymbolTableRecord
100
AcDbRegAppTableRecord
  2
AMG_3D2D_5_00
 70
     0
  0
APPID
  5
2B47
330
2AA3
100
AcDbSymbolTableRecord
100
AcDbRegAppTableRecord
  2
AMG_3D2D_5_01
 70
     0
  0
APPID
  5
2B48
330
2AA3
100
AcDbSymbolTableRecord
100
AcDbRegAppTableRecord
  2
AMG_3D2D_5_02
 70
     0
  0
APPID
  5
2C6A
330
2AA3
100
AcDbSymbolTableRecord
100
AcDbRegAppTableRecord
  2
AMG_3D2D_5.0
 70
     0
  0
APPID
  5
2D00
330
2AA3
100
AcDbSymbolTableRecord
100
AcDbRegAppTableRecord
  2
ACAD_DSTYLE_DIMARC_LENGTH_SYMBOL
 70
     0
  0
APPID
  5
2D01
330
2AA3
100
AcDbSymbolTableRecord
100
AcDbRegAppTableRecord
  2
ACAD_DSTYLE_DIM_LINETYPE
 70
     0
  0
APPID
  5
2D02
330
2AA3
100
AcDbSymbolTableRecord
100
AcDbRegAppTableRecord
  2
ACAD_DSTYLE_DIM_EXT1_LINETYPE
 70
     0
  0
APPID
  5
2D03
330
2AA3
100
AcDbSymbolTableRecord
100
AcDbRegAppTableRecord
  2
ACAD_DSTYLE_DIM_EXT2_LINETYPE
 70
     0
  0
ENDTAB
  0
TABLE
  2
DIMSTYLE
  5
2AA4
330
0
100
AcDbSymbolTable
 70
    10
100
AcDbDimStyleTable
 71
     1
340
2B49
  0
DIMSTYLE
105
2AF9
330
2AA4
100
AcDbSymbolTableRecord
100
AcDbDimStyleTableRecord
  2
STANDARD
 70
     0
 41
12.0
 42
20.0
 44
20.0
 77
     1
 78
     8
140
64.0
141
0.0
147
10.0
275
     1
279
     2
284
     7
285
     7
286
     7
340
2AF7
  0
DIMSTYLE
105
2AFA
330
2AA4
100
AcDbSymbolTableRecord
100
AcDbDimStyleTableRecord
  2
ANNOTATIVE
 70
     0
275
     1
279
     2
284
     7
285
     7
286
     7
340
2AF7
1001
ACADANNOTATIVE
1000
AnnotativeData
1002
{
1070
     1
1070
     1
1002
}
  0
DIMSTYLE
105
2B49
330
2AA4
100
AcDbSymbolTableRecord
100
AcDbDimStyleTableRecord
  2
AM_ANSI
 70
     0
  4
mm
 41
0.12
 42
0.05
 43
0.5
 44
0.1
 47
0.1
 48
0.1
 78
     7
 79
     2
140
0.12
141
0.0
146
0.71
147
0.06
176
   256
177
   256
178
     2
274
     4
284
     7
340
2AF7
371
    -1
372
    -1
1001
ACAD_DSTYLE_DIMARC_LENGTH_SYMBOL
1070
   379
1070
     1
1001
ACAD_DSTYLE_DIM_LINETYPE
1070
   380
1005
2AFC
1001
ACAD_DSTYLE_DIM_EXT1_LINETYPE
1070
   381
1005
2AFC
1001
ACAD_DSTYLE_DIM_EXT2_LINETYPE
1070
   382
1005
2AFC
  0
DIMSTYLE
105
2B4A
330
2AA4
100
AcDbSymbolTableRecord
100
AcDbDimStyleTableRecord
  2
AM_ANSI$3
 70
     0
  4
mm
 41
0.12
 42
0.05
 43
0.5
 44
0.1
 47
0.1
 48
0.1
 78
     7
 79
     2
140
0.12
141
0.0
146
0.71
147
0.06
176
   256
177
   256
178
     2
274
     4
284
     7
288
     1
289
     0
340
2AF7
371
    -1
372
    -1
1001
ACAD_DSTYLE_DIMARC_LENGTH_SYMBOL
1070
   379
1070
     1
1001
ACAD_DSTYLE_DIM_LINETYPE
1070
   380
1005
2AFC
1001
ACAD_DSTYLE_DIM_EXT1_LINETYPE
1070
   381
1005
2AFC
1001
ACAD_DSTYLE_DIM_EXT2_LINETYPE
1070
   382
1005
2AFC
  0
DIMSTYLE
105
2B4B
330
2AA4
100
AcDbSymbolTableRecord
100
AcDbDimStyleTableRecord
  2
AM_ANSI$4
 70
     0
  4
mm
 41
0.12
 42
0.05
 43
0.5
 44
0.1
 47
0.1
 48
0.1
 78
     7
 79
     2
140
0.12
141
0.0
146
0.71
147
0.06
176
   256
177
   256
178
     2
274
     4
284
     7
340
2AF7
371
    -1
372
    -1
1001
ACAD_DSTYLE_DIMARC_LENGTH_SYMBOL
1070
   379
1070
     1
1001
ACAD_DSTYLE_DIM_LINETYPE
1070
   380
1005
2AFC
1001
ACAD_DSTYLE_DIM_EXT1_LINETYPE
1070
   381
1005
2AFC
1001
ACAD_DSTYLE_DIM_EXT2_LINETYPE
1070
   382
1005
2AFC
  0
DIMSTYLE
105
2B4C
330
2AA4
100
AcDbSymbolTableRecord
100
AcDbDimStyleTableRecord
  2
AM_ANSI$7
 70
     0
  4
mm
 41
0.12
 42
0.05
 43
0.5
 44
0.1
 47
0.1
 48
0.1
 78
     7
 79
     2
140
0.12
141
0.0
146
0.71
147
0.06
176
   256
177
   256
178
     2
274
     4
284
     7
340
2AF7
371
    -1
372
    -1
1001
ACAD_DSTYLE_DIMARC_LENGTH_SYMBOL
1070
   379
1070
     1
1001
ACAD_DSTYLE_DIM_LINETYPE
1070
   380
1005
2AFC
1001
ACAD_DSTYLE_DIM_EXT1_LINETYPE
1070
   381
1005
2AFC
1001
ACAD_DSTYLE_DIM_EXT2_LINETYPE
1070
   382
1005
2AFC
  0
DIMSTYLE
105
2B4D
330
2AA4
100
AcDbSymbolTableRecord
100
AcDbDimStyleTableRecord
  2
AM_ANSI$SF
 70
     0
  4
mm
 41
0.12
 42
0.05
 43
0.5
 44
0.1
 47
0.1
 48
0.1
 75
     1
 76
     1
 78
     7
 79
     2
140
0.12
141
0.0
146
0.71
147
0.06
176
   256
177
   256
178
     2
274
     4
284
     7
340
2AF7
371
    -1
372
    -1
1001
ACAD_DSTYLE_DIMARC_LENGTH_SYMBOL
1070
   379
1070
     1
1001
ACAD_DSTYLE_DIM_LINETYPE
1070
   380
1005
2AFC
1001
ACAD_DSTYLE_DIM_EXT1_LINETYPE
1070
   381
1005
2AFC
1001
ACAD_DSTYLE_DIM_EXT2_LINETYPE
1070
   382
1005
2AFC
  0
DIMSTYLE
105
2B4E
330
2AA4
100
AcDbSymbolTableRecord
100
AcDbDimStyleTableRecord
  2
AM_ANSI$SH
 70
     0
  4
mm
 41
0.12
 42
0.05
 43
0.5
 44
0.1
 47
0.1
 48
0.1
 75
     1
 76
     1
 78
     7
 79
     2
140
0.12
141
0.0
146
0.71
147
0.06
173
     1
176
   256
177
   256
178
     2
274
     4
284
     7
340
2AF7
343
2B6E
371
    -1
372
    -1
1001
ACAD_DSTYLE_DIMARC_LENGTH_SYMBOL
1070
   379
1070
     1
1001
ACAD_DSTYLE_DIM_LINETYPE
1070
   380
1005
2AFC
1001
ACAD_DSTYLE_DIM_EXT1_LINETYPE
1070
   381
1005
2AFC
1001
ACAD_DSTYLE_DIM_EXT2_LINETYPE
1070
   382
1005
2AFC
  0
DIMSTYLE
105
2B4F
330
2AA4
100
AcDbSymbolTableRecord
100
AcDbDimStyleTableRecord
  2
STANDARD1
 70
     0
 40
6.0
 41
2.5
 42
0.625
 43
6.0
 44
1.25
 47
1.0
 48
0.5
 77
     1
 78
     8
140
2.5
141
0.0
146
0.6
147
1.0
173
     1
275
     1
279
     2
284
     7
285
     7
286
     7
340
2AF7
  0
DIMSTYLE
105
2B50
330
2AA4
100
AcDbSymbolTableRecord
100
AcDbDimStyleTableRecord
  2
STANDARD$0
 70
     0
 41
12.0
 42
20.0
 44
20.0
 73
     0
 74
     0
 77
     1
 78
     8
140
64.0
141
0.0
147
10.0
275
     1
279
     2
284
     7
285
     7
286
     7
340
2AF7
  0
ENDTAB
  0
TABLE
  2
BLOCK_RECORD
  5
2A9B
330
0
100
AcDbSymbolTable
 70
    73
  0
BLOCK_RECORD
  5
2B0E
102
{ACAD_XDICTIONARY
360
2CD9
102
}
330
2A9B
100
AcDbSymbolTableRecord
100
AcDbBlockTableRecord
  2
*Model_Space
340
2B11
  0
BLOCK_RECORD
  5
2B0A
330
2A9B
100
AcDbSymbolTableRecord
100
AcDbBlockTableRecord
  2
*Paper_Space
340
2B0D
  0
BLOCK_RECORD
  5
2B58
330
2A9B
100
AcDbSymbolTableRecord
100
AcDbBlockTableRecord
  2
$MODEL_SPACE
340
0
  0
BLOCK_RECORD
  5
2B5A
330
2A9B
100
AcDbSymbolTableRecord
100
AcDbBlockTableRecord
  2
$PAPER_SPACE
340
0
  0
BLOCK_RECORD
  5
2B5C
330
2A9B
100
AcDbSymbolTableRecord
100
AcDbBlockTableRecord
  2
_ORIGIN
340
0
  0
BLOCK_RECORD
  5
2B5E
330
2A9B
100
AcDbSymbolTableRecord
100
AcDbBlockTableRecord
  2
_DOTBLANK
340
0
102
{BLKREFS
331
1299
331
129A
331
11AA
331
11AB
331
E80
331
E81
331
1123
331
1124
331
11C2
331
11C3
331
11EC
331
11ED
331
11F9
331
11FA
331
1287
331
1288
331
1417
331
1418
331
1423
331
1424
331
142F
331
1430
331
143B
331
143C
331
166E
331
166F
331
1677
331
1678
331
1680
331
1681
331
1689
331
168A
331
1696
331
1697
331
16A3
331
16A4
331
16AF
331
16B0
331
16BB
331
16BC
331
16C7
331
16C8
331
16D3
331
16D4
331
1D86
331
1D87
331
1D8F
331
1D90
331
1D98
331
1D99
331
1DA1
331
1DA2
331
1DAB
331
1DAC
331
1DB5
331
1DB6
331
2A4B
331
2A4C
331
2A50
331
2A51
331
2A55
331
2A56
331
2A5A
331
2A5B
102
}
  0
BLOCK_RECORD
  5
2B60
330
2A9B
100
AcDbSymbolTableRecord
100
AcDbBlockTableRecord
  2
_OPEN30
340
0
102
{BLKREFS
331
2088
331
25A0
331
28A0
102
}
  0
BLOCK_RECORD
  5
2B62
330
2A9B
100
AcDbSymbolTableRecord
100
AcDbBlockTableRecord
  2
*D5
340
0
  0
BLOCK_RECORD
  5
2B64
330
2A9B
100
AcDbSymbolTableRecord
100
AcDbBlockTableRecord
  2
*U6
340
0
102
{BLKREFS
331
129B
102
}
  0
BLOCK_RECORD
  5
2B66
330
2A9B
100
AcDbSymbolTableRecord
100
AcDbBlockTableRecord
  2
*D7
340
0
  0
BLOCK_RECORD
  5
2B68
330
2A9B
100
AcDbSymbolTableRecord
100
AcDbBlockTableRecord
  2
*U8
340
0
102
{BLKREFS
331
11AC
102
}
  0
BLOCK_RECORD
  5
2B6A
330
2A9B
100
AcDbSymbolTableRecord
100
AcDbBlockTableRecord
  2
*D9
340
0
  0
BLOCK_RECORD
  5
2B6C
330
2A9B
100
AcDbSymbolTableRecord
100
AcDbBlockTableRecord
  2
*U10
340
0
102
{BLKREFS
331
E82
102
}
  0
BLOCK_RECORD
  5
2B6E
330
2A9B
100
AcDbSymbolTableRecord
100
AcDbBlockTableRecord
  2
GENAXEH
340
0
  0
BLOCK_RECORD
  5
2B70
330
2A9B
100
AcDbSymbolTableRecord
100
AcDbBlockTableRecord
  2
*D12
340
0
  0
BLOCK_RECORD
  5
2B72
330
2A9B
100
AcDbSymbolTableRecord
100
AcDbBlockTableRecord
  2
*U13
340
0
102
{BLKREFS
331
1125
102
}
  0
BLOCK_RECORD
  5
2B74
330
2A9B
100
AcDbSymbolTableRecord
100
AcDbBlockTableRecord
  2
*D14
340
0
  0
BLOCK_RECORD
  5
2B76
330
2A9B
100
AcDbSymbolTableRecord
100
AcDbBlockTableRecord
  2
*U15
340
0
102
{BLKREFS
331
11C4
102
}
  0
BLOCK_RECORD
  5
2B78
330
2A9B
100
AcDbSymbolTableRecord
100
AcDbBlockTableRecord
  2
*D16
340
0
  0
BLOCK_RECORD
  5
2B7A
330
2A9B
100
AcDbSymbolTableRecord
100
AcDbBlockTableRecord
  2
*U17
340
0
102
{BLKREFS
331
11EE
102
}
  0
BLOCK_RECORD
  5
2B7C
330
2A9B
100
AcDbSymbolTableRecord
100
AcDbBlockTableRecord
  2
*D18
340
0
  0
BLOCK_RECORD
  5
2B7E
330
2A9B
100
AcDbSymbolTableRecord
100
AcDbBlockTableRecord
  2
*U19
340
0
102
{BLKREFS
331
11FB
102
}
  0
BLOCK_RECORD
  5
2B80
330
2A9B
100
AcDbSymbolTableRecord
100
AcDbBlockTableRecord
  2
*D20
340
0
  0
BLOCK_RECORD
  5
2B82
330
2A9B
100
AcDbSymbolTableRecord
100
AcDbBlockTableRecord
  2
*U21
340
0
102
{BLKREFS
331
1289
102
}
  0
BLOCK_RECORD
  5
2B84
330
2A9B
100
AcDbSymbolTableRecord
100
AcDbBlockTableRecord
  2
*D22
340
0
  0
BLOCK_RECORD
  5
2B86
330
2A9B
100
AcDbSymbolTableRecord
100
AcDbBlockTableRecord
  2
*U23
340
0
102
{BLKREFS
331
1419
102
}
  0
BLOCK_RECORD
  5
2B88
330
2A9B
100
AcDbSymbolTableRecord
100
AcDbBlockTableRecord
  2
*D24
340
0
  0
BLOCK_RECORD
  5
2B8A
330
2A9B
100
AcDbSymbolTableRecord
100
AcDbBlockTableRecord
  2
*U25
340
0
102
{BLKREFS
331
1425
102
}
  0
BLOCK_RECORD
  5
2B8C
330
2A9B
100
AcDbSymbolTableRecord
100
AcDbBlockTableRecord
  2
*D26
340
0
  0
BLOCK_RECORD
  5
2B8E
330
2A9B
100
AcDbSymbolTableRecord
100
AcDbBlockTableRecord
  2
*U27
340
0
102
{BLKREFS
331
1431
102
}
  0
BLOCK_RECORD
  5
2B90
330
2A9B
100
AcDbSymbolTableRecord
100
AcDbBlockTableRecord
  2
*D28
340
0
  0
BLOCK_RECORD
  5
2B92
330
2A9B
100
AcDbSymbolTableRecord
100
AcDbBlockTableRecord
  2
*U29
340
0
102
{BLKREFS
331
143D
102
}
  0
BLOCK_RECORD
  5
2B94
330
2A9B
100
AcDbSymbolTableRecord
100
AcDbBlockTableRecord
  2
*D30
340
0
  0
BLOCK_RECORD
  5
2B96
330
2A9B
100
AcDbSymbolTableRecord
100
AcDbBlockTableRecord
  2
*U31
340
0
102
{BLKREFS
331
1670
102
}
  0
BLOCK_RECORD
  5
2B98
330
2A9B
100
AcDbSymbolTableRecord
100
AcDbBlockTableRecord
  2
*D32
340
0
  0
BLOCK_RECORD
  5
2B9A
330
2A9B
100
AcDbSymbolTableRecord
100
AcDbBlockTableRecord
  2
*U33
340
0
102
{BLKREFS
331
1679
102
}
  0
BLOCK_RECORD
  5
2B9C
330
2A9B
100
AcDbSymbolTableRecord
100
AcDbBlockTableRecord
  2
*D34
340
0
  0
BLOCK_RECORD
  5
2B9E
330
2A9B
100
AcDbSymbolTableRecord
100
AcDbBlockTableRecord
  2
*U35
340
0
102
{BLKREFS
331
1682
102
}
  0
BLOCK_RECORD
  5
2BA0
330
2A9B
100
AcDbSymbolTableRecord
100
AcDbBlockTableRecord
  2
*D36
340
0
  0
BLOCK_RECORD
  5
2BA2
330
2A9B
100
AcDbSymbolTableRecord
100
AcDbBlockTableRecord
  2
*U37
340
0
102
{BLKREFS
331
168B
102
}
  0
BLOCK_RECORD
  5
2BA4
330
2A9B
100
AcDbSymbolTableRecord
100
AcDbBlockTableRecord
  2
*U38
340
0
  0
BLOCK_RECORD
  5
2BA6
330
2A9B
100
AcDbSymbolTableRecord
100
AcDbBlockTableRecord
  2
*D39
340
0
  0
BLOCK_RECORD
  5
2BA8
330
2A9B
100
AcDbSymbolTableRecord
100
AcDbBlockTableRecord
  2
*U40
340
0
102
{BLKREFS
331
1698
102
}
  0
BLOCK_RECORD
  5
2BAA
330
2A9B
100
AcDbSymbolTableRecord
100
AcDbBlockTableRecord
  2
*D41
340
0
  0
BLOCK_RECORD
  5
2BAC
330
2A9B
100
AcDbSymbolTableRecord
100
AcDbBlockTableRecord
  2
*U42
340
0
102
{BLKREFS
331
16A5
102
}
  0
BLOCK_RECORD
  5
2BAE
330
2A9B
100
AcDbSymbolTableRecord
100
AcDbBlockTableRecord
  2
*D43
340
0
  0
BLOCK_RECORD
  5
2BB0
330
2A9B
100
AcDbSymbolTableRecord
100
AcDbBlockTableRecord
  2
*U44
340
0
102
{BLKREFS
331
16B1
102
}
  0
BLOCK_RECORD
  5
2BB2
330
2A9B
100
AcDbSymbolTableRecord
100
AcDbBlockTableRecord
  2
*D45
340
0
  0
BLOCK_RECORD
  5
2BB4
330
2A9B
100
AcDbSymbolTableRecord
100
AcDbBlockTableRecord
  2
*U46
340
0
102
{BLKREFS
331
16BD
102
}
  0
BLOCK_RECORD
  5
2BB6
330
2A9B
100
AcDbSymbolTableRecord
100
AcDbBlockTableRecord
  2
*D47
340
0
  0
BLOCK_RECORD
  5
2BB8
330
2A9B
100
AcDbSymbolTableRecord
100
AcDbBlockTableRecord
  2
*U48
340
0
102
{BLKREFS
331
16C9
102
}
  0
BLOCK_RECORD
  5
2BBA
330
2A9B
100
AcDbSymbolTableRecord
100
AcDbBlockTableRecord
  2
*D49
340
0
  0
BLOCK_RECORD
  5
2BBC
330
2A9B
100
AcDbSymbolTableRecord
100
AcDbBlockTableRecord
  2
*U50
340
0
102
{BLKREFS
331
16D5
102
}
  0
BLOCK_RECORD
  5
2BBE
330
2A9B
100
AcDbSymbolTableRecord
100
AcDbBlockTableRecord
  2
*D51
340
0
  0
BLOCK_RECORD
  5
2BC0
330
2A9B
100
AcDbSymbolTableRecord
100
AcDbBlockTableRecord
  2
*U52
340
0
102
{BLKREFS
331
1D88
102
}
  0
BLOCK_RECORD
  5
2BC2
330
2A9B
100
AcDbSymbolTableRecord
100
AcDbBlockTableRecord
  2
*D53
340
0
  0
BLOCK_RECORD
  5
2BC4
330
2A9B
100
AcDbSymbolTableRecord
100
AcDbBlockTableRecord
  2
*U54
340
0
102
{BLKREFS
331
1D91
102
}
  0
BLOCK_RECORD
  5
2BC6
330
2A9B
100
AcDbSymbolTableRecord
100
AcDbBlockTableRecord
  2
*D55
340
0
  0
BLOCK_RECORD
  5
2BC8
330
2A9B
100
AcDbSymbolTableRecord
100
AcDbBlockTableRecord
  2
*U56
340
0
102
{BLKREFS
331
1D9A
102
}
  0
BLOCK_RECORD
  5
2BCA
330
2A9B
100
AcDbSymbolTableRecord
100
AcDbBlockTableRecord
  2
*D57
340
0
  0
BLOCK_RECORD
  5
2BCC
330
2A9B
100
AcDbSymbolTableRecord
100
AcDbBlockTableRecord
  2
*U58
340
0
102
{BLKREFS
331
1DA3
102
}
  0
BLOCK_RECORD
  5
2BCE
330
2A9B
100
AcDbSymbolTableRecord
100
AcDbBlockTableRecord
  2
*D59
340
0
  0
BLOCK_RECORD
  5
2BD0
330
2A9B
100
AcDbSymbolTableRecord
100
AcDbBlockTableRecord
  2
*U60
340
0
102
{BLKREFS
331
1DAD
102
}
  0
BLOCK_RECORD
  5
2BD2
330
2A9B
100
AcDbSymbolTableRecord
100
AcDbBlockTableRecord
  2
*D61
340
0
  0
BLOCK_RECORD
  5
2BD4
330
2A9B
100
AcDbSymbolTableRecord
100
AcDbBlockTableRecord
  2
*U62
340
0
102
{BLKREFS
331
1DB7
102
}
  0
BLOCK_RECORD
  5
2BD6
330
2A9B
100
AcDbSymbolTableRecord
100
AcDbBlockTableRecord
  2
*U63
340
0
  0
BLOCK_RECORD
  5
2BD8
330
2A9B
100
AcDbSymbolTableRecord
100
AcDbBlockTableRecord
  2
*U64
340
0
  0
BLOCK_RECORD
  5
2BDA
330
2A9B
100
AcDbSymbolTableRecord
100
AcDbBlockTableRecord
  2
*U65
340
0
  0
BLOCK_RECORD
  5
2BDC
330
2A9B
100
AcDbSymbolTableRecord
100
AcDbBlockTableRecord
  2
*U66
340
0
  0
BLOCK_RECORD
  5
2BDE
330
2A9B
100
AcDbSymbolTableRecord
100
AcDbBlockTableRecord
  2
*U67
340
0
  0
BLOCK_RECORD
  5
2BE0
330
2A9B
100
AcDbSymbolTableRecord
100
AcDbBlockTableRecord
  2
*U68
340
0
102
{BLKREFS
331
2A2F
102
}
  0
BLOCK_RECORD
  5
2BE2
330
2A9B
100
AcDbSymbolTableRecord
100
AcDbBlockTableRecord
  2
*U69
340
0
102
{BLKREFS
331
2A30
102
}
  0
BLOCK_RECORD
  5
2BE4
330
2A9B
100
AcDbSymbolTableRecord
100
AcDbBlockTableRecord
  2
*X70
340
0
102
{BLKREFS
331
2A42
102
}
  0
BLOCK_RECORD
  5
2BE6
330
2A9B
100
AcDbSymbolTableRecord
100
AcDbBlockTableRecord
  2
*X71
340
0
102
{BLKREFS
331
2A43
102
}
  0
ENDTAB
  0
ENDSEC
  0
SECTION
  2
BLOCKS
  0
BLOCK
  5
2B0F
330
2B0E
100
AcDbEntity
  8
0
100
AcDbBlockBegin
  2
*Model_Space
 70
     0
 10
0.0
 20
0.0
 30
0.0
  3
*Model_Space
  1

  0
ENDBLK
  5
2B10
330
2B0E
100
AcDbEntity
  8
0
100
AcDbBlockEnd
  0
BLOCK
  5
2B0B
330
2B0A
100
AcDbEntity
 67
     1
  8
0
100
AcDbBlockBegin
  2
*Paper_Space
 70
     0
 10
0.0
 20
0.0
 30
0.0
  3
*Paper_Space
  1

  0
ENDBLK
  5
2B0C
330
2B0A
100
AcDbEntity
 67
     1
  8
0
100
AcDbBlockEnd
  0
BLOCK
  5
2B59
330
2B58
100
AcDbEntity
  8
0
100
AcDbBlockBegin
  2
$MODEL_SPACE
 70
     0
 10
0.0
 20
0.0
 30
0.0
  3
$MODEL_SPACE
  1

  0
ENDBLK
  5
26F3
330
2B58
100
AcDbEntity
  8
0
100
AcDbBlockEnd
  0
BLOCK
  5
2B5B
330
2B5A
100
AcDbEntity
  8
0
100
AcDbBlockBegin
  2
$PAPER_SPACE
 70
     0
 10
0.0
 20
0.0
 30
0.0
  3
$PAPER_SPACE
  1

  0
ENDBLK
  5
26EF
330
2B5A
100
AcDbEntity
  8
0
100
AcDbBlockEnd
  0
BLOCK
  5
2B5D
330
2B5C
100
AcDbEntity
  8
0
100
AcDbBlockBegin
  2
_ORIGIN
 70
     0
 10
0.0
 20
0.0
 30
0.0
  3
_ORIGIN
  1

  0
CIRCLE
  5
880
330
2B5C
100
AcDbEntity
  8
0
  6
Continuous
 62
     7
100
AcDbCircle
 10
0.0
 20
0.0
 30
0.0
 40
0.5
  0
LINE
  5
881
330
2B5C
100
AcDbEntity
  8
0
  6
Continuous
 62
     7
100
AcDbLine
 10
0.0
 20
0.0
 30
0.0
 11
-1.0
 21
0.0
 31
0.0
  0
ENDBLK
  5
882
330
2B5C
100
AcDbEntity
  8
0
100
AcDbBlockEnd
  0
BLOCK
  5
2B5F
330
2B5E
100
AcDbEntity
  8
0
 62
     1
100
AcDbBlockBegin
  2
_DOTBLANK
 70
     0
 10
0.0
 20
0.0
 30
0.0
  3
_DOTBLANK
  1

  0
CIRCLE
  5
AB3
330
2B5E
100
AcDbEntity
  8
0
  6
ByBlock
 62
     0
100
AcDbCircle
 10
0.0
 20
0.0
 30
0.0
 40
0.5
  0
LINE
  5
AB4
330
2B5E
100
AcDbEntity
  8
0
  6
ByBlock
 62
     0
100
AcDbLine
 10
-0.5
 20
0.0
 30
0.0
 11
-1.0
 21
0.0
 31
0.0
  0
ENDBLK
  5
AB6
330
2B5E
100
AcDbEntity
  8
0
 62
     1
100
AcDbBlockEnd
  0
BLOCK
  5
2B61
330
2B60
100
AcDbEntity
  8
0
 62
     1
100
AcDbBlockBegin
  2
_OPEN30
 70
     0
 10
0.0
 20
0.0
 30
0.0
  3
_OPEN30
  1

  0
LINE
  5
AB8
330
2B60
100
AcDbEntity
  8
0
  6
ByBlock
 62
     0
100
AcDbLine
 10
-1.0
 20
0.26794919
 30
0.0
 11
0.0
 21
0.0
 31
0.0
  0
LINE
  5
AB9
330
2B60
100
AcDbEntity
  8
0
  6
ByBlock
 62
     0
100
AcDbLine
 10
0.0
 20
0.0
 30
0.0
 11
-1.0
 21
-0.26794919
 31
0.0
  0
LINE
  5
ABA
330
2B60
100
AcDbEntity
  8
0
  6
ByBlock
 62
     0
100
AcDbLine
 10
0.0
 20
0.0
 30
0.0
 11
-1.0
 21
0.0
 31
0.0
  0
ENDBLK
  5
ABC
330
2B60
100
AcDbEntity
  8
0
 62
     1
100
AcDbBlockEnd
  0
BLOCK
  5
2B63
330
2B62
100
AcDbEntity
  8
0
100
AcDbBlockBegin
  2
*D5
 70
     1
 10
0.0
 20
0.0
 30
0.0
  3
*D5
  1

  0
LINE
  5
1296
330
2B62
100
AcDbEntity
  8
SIZE
 62
     0
100
AcDbLine
 10
-134.5
 20
-320.0
 30
0.0
 11
-134.5
 21
-468.0173952306001
 31
0.0
  0
LINE
  5
1297
330
2B62
100
AcDbEntity
  8
SIZE
 62
     0
100
AcDbLine
 10
134.5
 20
-320.0
 30
0.0
 11
134.5
 21
-468.0173952306001
 31
0.0
  0
LINE
  5
1298
330
2B62
100
AcDbEntity
  8
SIZE
 62
     0
100
AcDbLine
 10
-122.5
 20
-448.0173952306
 30
0.0
 11
122.5
 21
-448.0173952306
 31
0.0
  0
INSERT
  5
1299
330
2B62
100
AcDbEntity
  8
SIZE
 62
     0
100
AcDbBlockReference
  2
_DOTBLANK
 10
-134.5
 20
-448.0173952306
 30
0.0
 41
12.0
 42
12.0
 43
12.0
 50
180.0
  0
INSERT
  5
129A
330
2B62
100
AcDbEntity
  8
SIZE
 62
     0
100
AcDbBlockReference
  2
_DOTBLANK
 10
134.5
 20
-448.0173952306
 30
0.0
 41
12.0
 42
12.0
 43
12.0
  0
INSERT
  5
129B
330
2B62
100
AcDbEntity
  8
0
100
AcDbBlockReference
  2
*U6
 10
0.0
 20
0.0
 30
0.0
  0
POINT
  5
129C
330
2B62
100
AcDbEntity
  8
DEFPOINTS
 62
     0
100
AcDbPoint
 10
-134.5
 20
-300.0
 30
0.0
  0
POINT
  5
129D
330
2B62
100
AcDbEntity
  8
DEFPOINTS
 62
     0
100
AcDbPoint
 10
134.5
 20
-300.0
 30
0.0
  0
POINT
  5
129E
330
2B62
100
AcDbEntity
  8
DEFPOINTS
 62
     0
100
AcDbPoint
 10
134.5
 20
-448.0173952306
 30
0.0
  0
ENDBLK
  5
D72
330
2B62
100
AcDbEntity
  8
0
100
AcDbBlockEnd
  0
BLOCK
  5
2B65
330
2B64
100
AcDbEntity
  8
0
100
AcDbBlockBegin
  2
*U6
 70
     1
 10
0.0
 20
0.0
 30
0.0
  3
*U6
  1

  0
TEXT
  5
1EF5
330
2B64
100
AcDbEntity
  8
SIZE
 62
     0
100
AcDbText
 10
-72.68571428571426
 20
-438.0173952305999
 30
0.0
 40
64.0
  1
269
 41
0.9
100
AcDbText
  0
ENDBLK
  5
1EF7
330
2B64
100
AcDbEntity
  8
0
100
AcDbBlockEnd
  0
BLOCK
  5
2B67
330
2B66
100
AcDbEntity
  8
0
100
AcDbBlockBegin
  2
*D7
 70
     1
 10
0.0
 20
0.0
 30
0.0
  3
*D7
  1

  0
LINE
  5
11A7
330
2B66
100
AcDbEntity
  8
SIZE
  6
Continuous
 62
     0
100
AcDbLine
 10
143.5
 20
-300.0
 30
0.0
 11
304.6432844803791
 21
-300.0
 31
0.0
  0
LINE
  5
11A8
330
2B66
100
AcDbEntity
  8
SIZE
  6
Continuous
 62
     0
100
AcDbLine
 10
177.5
 20
-0.0000000000000057
 30
0.0
 11
304.6432844803792
 21
-0.0000000000000417
 31
0.0
  0
LINE
  5
11A9
330
2B66
100
AcDbEntity
  8
SIZE
  6
Continuous
 62
     0
100
AcDbLine
 10
284.6432844803791
 20
-288.0000000000001
 30
0.0
 11
284.6432844803792
 21
-12.00000000000003
 31
0.0
  0
INSERT
  5
11AA
330
2B66
100
AcDbEntity
  8
SIZE
  6
Continuous
 62
     0
100
AcDbBlockReference
  2
_DOTBLANK
 10
284.6432844803791
 20
-300.0
 30
0.0
 41
12.0
 42
12.0
 43
12.0
 50
270.0
  0
INSERT
  5
11AB
330
2B66
100
AcDbEntity
  8
SIZE
  6
Continuous
 62
     0
100
AcDbBlockReference
  2
_DOTBLANK
 10
284.6432844803792
 20
-0.000000000000036
 30
0.0
 41
12.0
 42
12.0
 43
12.0
 50
90.0
  0
INSERT
  5
11AC
330
2B66
100
AcDbEntity
  8
0
100
AcDbBlockReference
  2
*U8
 10
0.0
 20
0.0
 30
0.0
  0
POINT
  5
11AD
330
2B66
100
AcDbEntity
  8
DEFPOINTS
  6
Continuous
 62
     0
100
AcDbPoint
 10
123.5
 20
-300.0
 30
0.0
  0
POINT
  5
11AE
330
2B66
100
AcDbEntity
  8
DEFPOINTS
  6
Continuous
 62
     0
100
AcDbPoint
 10
157.5
 20
0.0
 30
0.0
  0
POINT
  5
11AF
330
2B66
100
AcDbEntity
  8
DEFPOINTS
  6
Continuous
 62
     0
100
AcDbPoint
 10
284.6432844803792
 20
-0.000000000000036
 30
0.0
  0
ENDBLK
  5
E11
330
2B66
100
AcDbEntity
  8
0
100
AcDbBlockEnd
  0
BLOCK
  5
2B69
330
2B68
100
AcDbEntity
  8
0
100
AcDbBlockBegin
  2
*U8
 70
     1
 10
0.0
 20
0.0
 30
0.0
  3
*U8
  1

  0
TEXT
  5
1EE1
330
2B68
100
AcDbEntity
  8
SIZE
 62
     0
100
AcDbText
 10
274.6432844803792
 20
-224.0571428571429
 30
0.0
 40
64.0
  1
300
 50
90.0
 41
0.9
100
AcDbText
  0
ENDBLK
  5
1EE3
330
2B68
100
AcDbEntity
  8
0
100
AcDbBlockEnd
  0
BLOCK
  5
2B6B
330
2B6A
100
AcDbEntity
  8
0
100
AcDbBlockBegin
  2
*D9
 70
     1
 10
0.0
 20
0.0
 30
0.0
  3
*D9
  1

  0
LINE
  5
E7D
330
2B6A
100
AcDbEntity
  8
SIZE
 62
     0
100
AcDbLine
 10
-139.9999999999998
 20
32.46448280219375
 30
0.0
 11
-139.9999999999998
 21
136.4516878685508
 31
0.0
  0
LINE
  5
E7E
330
2B6A
100
AcDbEntity
  8
SIZE
 62
     0
100
AcDbLine
 10
140.0
 20
32.46448280219375
 30
0.0
 11
140.0
 21
136.4516878685508
 31
0.0
  0
LINE
  5
E7F
330
2B6A
100
AcDbEntity
  8
SIZE
 62
     0
100
AcDbLine
 10
-128.0
 20
116.4516878685508
 30
0.0
 11
128.0
 21
116.4516878685508
 31
0.0
  0
INSERT
  5
E80
330
2B6A
100
AcDbEntity
  8
SIZE
 62
     0
100
AcDbBlockReference
  2
_DOTBLANK
 10
-139.9999999999998
 20
116.4516878685508
 30
0.0
 41
12.0
 42
12.0
 43
12.0
 50
180.0
  0
INSERT
  5
E81
330
2B6A
100
AcDbEntity
  8
SIZE
 62
     0
100
AcDbBlockReference
  2
_DOTBLANK
 10
140.0
 20
116.4516878685508
 30
0.0
 41
12.0
 42
12.0
 43
12.0
  0
INSERT
  5
E82
330
2B6A
100
AcDbEntity
  8
0
100
AcDbBlockReference
  2
*U10
 10
0.0
 20
0.0
 30
0.0
  0
POINT
  5
E83
330
2B6A
100
AcDbEntity
  8
DEFPOINTS
 62
     0
100
AcDbPoint
 10
-139.9999999999998
 20
12.46448280219374
 30
0.0
  0
POINT
  5
E84
330
2B6A
100
AcDbEntity
  8
DEFPOINTS
 62
     0
100
AcDbPoint
 10
140.0
 20
12.46448280219374
 30
0.0
  0
POINT
  5
E85
330
2B6A
100
AcDbEntity
  8
DEFPOINTS
 62
     0
100
AcDbPoint
 10
140.0
 20
116.4516878685508
 30
0.0
  0
ENDBLK
  5
E7C
330
2B6A
100
AcDbEntity
  8
0
100
AcDbBlockEnd
  0
BLOCK
  5
2B6D
330
2B6C
100
AcDbEntity
  8
0
100
AcDbBlockBegin
  2
*U10
 70
     1
 10
0.0
 20
0.0
 30
0.0
  3
*U10
  1

  0
TEXT
  5
1ED8
330
2B6C
100
AcDbEntity
  8
SIZE
 62
     0
100
AcDbText
 10
-74.05714285714281
 20
126.4516878685508
 30
0.0
 40
64.0
  1
280
 41
0.9
100
AcDbText
  0
ENDBLK
  5
1EDA
330
2B6C
100
AcDbEntity
  8
0
100
AcDbBlockEnd
  0
BLOCK
  5
2B6F
330
2B6E
100
AcDbEntity
  8
0
100
AcDbBlockBegin
  2
GENAXEH
 70
     0
 10
0.0
 20
0.0
 30
0.0
  3
GENAXEH
  1

  0
LINE
  5
FDB
330
2B6E
100
AcDbEntity
  8
0
100
AcDbLine
 10
-1.0
 20
0.0
 30
0.0
 11
1.0
 21
0.0
 31
0.0
  0
ENDBLK
  5
FDD
330
2B6E
100
AcDbEntity
  8
0
100
AcDbBlockEnd
  0
BLOCK
  5
2B71
330
2B70
100
AcDbEntity
  8
0
100
AcDbBlockBegin
  2
*D12
 70
     1
 10
0.0
 20
0.0
 30
0.0
  3
*D12
  1

  0
LINE
  5
1120
330
2B70
100
AcDbEntity
  8
SIZE
 62
     0
100
AcDbLine
 10
-157.5
 20
20.0
 30
0.0
 11
-157.5
 21
245.5794621189598
 31
0.0
  0
LINE
  5
1121
330
2B70
100
AcDbEntity
  8
SIZE
 62
     0
100
AcDbLine
 10
157.5
 20
20.0
 30
0.0
 11
157.5
 21
245.5794621189598
 31
0.0
  0
LINE
  5
1122
330
2B70
100
AcDbEntity
  8
SIZE
 62
     0
100
AcDbLine
 10
-145.5
 20
225.5794621189598
 30
0.0
 11
145.5
 21
225.5794621189598
 31
0.0
  0
INSERT
  5
1123
330
2B70
100
AcDbEntity
  8
SIZE
 62
     0
100
AcDbBlockReference
  2
_DOTBLANK
 10
-157.5
 20
225.5794621189598
 30
0.0
 41
12.0
 42
12.0
 43
12.0
 50
180.0
  0
INSERT
  5
1124
330
2B70
100
AcDbEntity
  8
SIZE
 62
     0
100
AcDbBlockReference
  2
_DOTBLANK
 10
157.5
 20
225.5794621189598
 30
0.0
 41
12.0
 42
12.0
 43
12.0
  0
INSERT
  5
1125
330
2B70
100
AcDbEntity
  8
0
100
AcDbBlockReference
  2
*U13
 10
0.0
 20
0.0
 30
0.0
  0
POINT
  5
1126
330
2B70
100
AcDbEntity
  8
DEFPOINTS
 62
     0
100
AcDbPoint
 10
-157.5
 20
0.0
 30
0.0
  0
POINT
  5
1127
330
2B70
100
AcDbEntity
  8
DEFPOINTS
 62
     0
100
AcDbPoint
 10
157.5
 20
0.0
 30
0.0
  0
POINT
  5
1128
330
2B70
100
AcDbEntity
  8
DEFPOINTS
 62
     0
100
AcDbPoint
 10
157.5
 20
225.5794621189598
 30
0.0
  0
ENDBLK
  5
111F
330
2B70
100
AcDbEntity
  8
0
100
AcDbBlockEnd
  0
BLOCK
  5
2B73
330
2B72
100
AcDbEntity
  8
0
100
AcDbBlockBegin
  2
*U13
 70
     1
 10
0.0
 20
0.0
 30
0.0
  3
*U13
  1

  0
TEXT
  5
1EDD
330
2B72
100
AcDbEntity
  8
SIZE
 62
     0
100
AcDbText
 10
-68.57142857142857
 20
235.5794621189599
 30
0.0
 40
64.0
  1
315
 41
0.9
100
AcDbText
  0
ENDBLK
  5
1EDF
330
2B72
100
AcDbEntity
  8
0
100
AcDbBlockEnd
  0
BLOCK
  5
2B75
330
2B74
100
AcDbEntity
  8
0
100
AcDbBlockBegin
  2
*D14
 70
     1
 10
0.0
 20
0.0
 30
0.0
  3
*D14
  1

  0
LINE
  5
11BD
330
2B74
100
AcDbEntity
  8
NOTE
 62
     0
100
AcDbLine
 10
-123.4999999999999
 20
-320.0
 30
0.0
 11
-123.4999999999999
 21
-354.9529861856111
 31
0.0
  0
LINE
  5
11BE
330
2B74
100
AcDbEntity
  8
NOTE
 62
     0
100
AcDbLine
 10
-133.4999999999998
 20
-331.2126909923287
 30
0.0
 11
-133.4999999999998
 21
-354.9529861856111
 31
0.0
  0
LINE
  5
11BF
330
2B74
100
AcDbEntity
  8
NOTE
 62
     0
100
AcDbLine
 10
-111.4999999999999
 20
-334.9529861856112
 30
0.0
 11
-99.4999999999999
 21
-334.9529861856112
 31
0.0
  0
LINE
  5
11C0
330
2B74
100
AcDbEntity
  8
NOTE
 62
     0
100
AcDbLine
 10
-145.4999999999998
 20
-334.9529861856112
 30
0.0
 11
-157.4999999999998
 21
-334.9529861856112
 31
0.0
  0
LINE
  5
11C1
330
2B74
100
AcDbEntity
  8
NOTE
 62
     0
100
AcDbLine
 10
-123.4999999999999
 20
-334.9529861856112
 30
0.0
 11
-133.4999999999998
 21
-334.9529861856112
 31
0.0
  0
INSERT
  5
11C2
330
2B74
100
AcDbEntity
  8
NOTE
 62
     0
100
AcDbBlockReference
  2
_DOTBLANK
 10
-123.4999999999999
 20
-334.9529861856112
 30
0.0
 41
12.0
 42
12.0
 43
12.0
 50
180.0
  0
INSERT
  5
11C3
330
2B74
100
AcDbEntity
  8
NOTE
 62
     0
100
AcDbBlockReference
  2
_DOTBLANK
 10
-133.4999999999998
 20
-334.9529861856112
 30
0.0
 41
12.0
 42
12.0
 43
12.0
  0
INSERT
  5
11C4
330
2B74
100
AcDbEntity
  8
0
100
AcDbBlockReference
  2
*U15
 10
0.0
 20
0.0
 30
0.0
  0
POINT
  5
11C5
330
2B74
100
AcDbEntity
  8
DEFPOINTS
 62
     0
100
AcDbPoint
 10
-123.4999999999999
 20
-300.0
 30
0.0
  0
POINT
  5
11C6
330
2B74
100
AcDbEntity
  8
DEFPOINTS
 62
     0
100
AcDbPoint
 10
-133.4999999999998
 20
-311.2126909923287
 30
0.0
  0
POINT
  5
11C7
330
2B74
100
AcDbEntity
  8
DEFPOINTS
 62
     0
100
AcDbPoint
 10
-133.4999999999998
 20
-334.9529861856112
 30
0.0
  0
ENDBLK
  5
11BC
330
2B74
100
AcDbEntity
  8
0
100
AcDbBlockEnd
  0
BLOCK
  5
2B77
330
2B76
100
AcDbEntity
  8
0
100
AcDbBlockBegin
  2
*U15
 70
     1
 10
0.0
 20
0.0
 30
0.0
  3
*U15
  1

  0
TEXT
  5
1EE5
330
2B76
100
AcDbEntity
  8
NOTE
 62
     0
100
AcDbText
 10
-169.642857142857
 20
-324.9529861856112
 30
0.0
 40
64.0
  1
10
 41
0.9
100
AcDbText
  0
ENDBLK
  5
1EE7
330
2B76
100
AcDbEntity
  8
0
100
AcDbBlockEnd
  0
BLOCK
  5
2B79
330
2B78
100
AcDbEntity
  8
0
100
AcDbBlockBegin
  2
*D16
 70
     1
 10
0.0
 20
0.0
 30
0.0
  3
*D16
  1

  0
LINE
  5
11E7
330
2B78
100
AcDbEntity
  8
NOTE
 62
     0
100
AcDbLine
 10
-135.5
 20
-333.2126909923287
 30
0.0
 11
-135.5
 21
-386.2569421441843
 31
0.0
  0
LINE
  5
11E8
330
2B78
100
AcDbEntity
  8
NOTE
 62
     0
100
AcDbLine
 10
-123.4999999999999
 20
-320.0
 30
0.0
 11
-123.4999999999999
 21
-386.2569421441843
 31
0.0
  0
LINE
  5
11E9
330
2B78
100
AcDbEntity
  8
NOTE
 62
     0
100
AcDbLine
 10
-147.5
 20
-366.2569421441844
 30
0.0
 11
-159.5
 21
-366.2569421441844
 31
0.0
  0
LINE
  5
11EA
330
2B78
100
AcDbEntity
  8
NOTE
 62
     0
100
AcDbLine
 10
-111.4999999999999
 20
-366.2569421441844
 30
0.0
 11
-99.4999999999999
 21
-366.2569421441844
 31
0.0
  0
LINE
  5
11EB
330
2B78
100
AcDbEntity
  8
NOTE
 62
     0
100
AcDbLine
 10
-135.5
 20
-366.2569421441844
 30
0.0
 11
-123.4999999999999
 21
-366.2569421441844
 31
0.0
  0
INSERT
  5
11EC
330
2B78
100
AcDbEntity
  8
NOTE
 62
     0
100
AcDbBlockReference
  2
_DOTBLANK
 10
-135.5
 20
-366.2569421441844
 30
0.0
 41
12.0
 42
12.0
 43
12.0
  0
INSERT
  5
11ED
330
2B78
100
AcDbEntity
  8
NOTE
 62
     0
100
AcDbBlockReference
  2
_DOTBLANK
 10
-123.4999999999999
 20
-366.2569421441844
 30
0.0
 41
12.0
 42
12.0
 43
12.0
 50
180.0
  0
INSERT
  5
11EE
330
2B78
100
AcDbEntity
  8
0
100
AcDbBlockReference
  2
*U17
 10
0.0
 20
0.0
 30
0.0
  0
POINT
  5
11EF
330
2B78
100
AcDbEntity
  8
DEFPOINTS
 62
     0
100
AcDbPoint
 10
-135.5
 20
-313.2126909923287
 30
0.0
  0
POINT
  5
11F0
330
2B78
100
AcDbEntity
  8
DEFPOINTS
 62
     0
100
AcDbPoint
 10
-123.4999999999999
 20
-300.0
 30
0.0
  0
POINT
  5
11F1
330
2B78
100
AcDbEntity
  8
DEFPOINTS
 62
     0
100
AcDbPoint
 10
-123.4999999999999
 20
-366.2569421441844
 30
0.0
  0
ENDBLK
  5
11E6
330
2B78
100
AcDbEntity
  8
0
100
AcDbBlockEnd
  0
BLOCK
  5
2B7B
330
2B7A
100
AcDbEntity
  8
0
100
AcDbBlockBegin
  2
*U17
 70
     1
 10
0.0
 20
0.0
 30
0.0
  3
*U17
  1

  0
TEXT
  5
1EE9
330
2B7A
100
AcDbEntity
  8
NOTE
 62
     0
100
AcDbText
 10
-170.642857142857
 20
-356.2569421441843
 30
0.0
 40
64.0
  1
12
 41
0.9
100
AcDbText
  0
ENDBLK
  5
1EEB
330
2B7A
100
AcDbEntity
  8
0
100
AcDbBlockEnd
  0
BLOCK
  5
2B7D
330
2B7C
100
AcDbEntity
  8
0
100
AcDbBlockBegin
  2
*D18
 70
     1
 10
0.0
 20
0.0
 30
0.0
  3
*D18
  1

  0
LINE
  5
11F6
330
2B7C
100
AcDbEntity
  8
NOTE
 62
     0
100
AcDbLine
 10
-123.4999999999999
 20
-320.0
 30
0.0
 11
-123.4999999999999
 21
-583.8286022818904
 31
0.0
  0
LINE
  5
11F7
330
2B7C
100
AcDbEntity
  8
NOTE
 62
     0
100
AcDbLine
 10
123.5
 20
-320.0
 30
0.0
 11
123.5
 21
-583.8286022818904
 31
0.0
  0
LINE
  5
11F8
330
2B7C
100
AcDbEntity
  8
NOTE
 62
     0
100
AcDbLine
 10
-111.4999999999999
 20
-563.8286022818904
 30
0.0
 11
111.5
 21
-563.8286022818904
 31
0.0
  0
INSERT
  5
11F9
330
2B7C
100
AcDbEntity
  8
NOTE
 62
     0
100
AcDbBlockReference
  2
_DOTBLANK
 10
-123.4999999999999
 20
-563.8286022818904
 30
0.0
 41
12.0
 42
12.0
 43
12.0
 50
180.0
  0
INSERT
  5
11FA
330
2B7C
100
AcDbEntity
  8
NOTE
 62
     0
100
AcDbBlockReference
  2
_DOTBLANK
 10
123.5
 20
-563.8286022818904
 30
0.0
 41
12.0
 42
12.0
 43
12.0
  0
INSERT
  5
11FB
330
2B7C
100
AcDbEntity
  8
0
100
AcDbBlockReference
  2
*U19
 10
0.0
 20
0.0
 30
0.0
  0
POINT
  5
11FC
330
2B7C
100
AcDbEntity
  8
DEFPOINTS
 62
     0
100
AcDbPoint
 10
-123.4999999999999
 20
-300.0
 30
0.0
  0
POINT
  5
11FD
330
2B7C
100
AcDbEntity
  8
DEFPOINTS
 62
     0
100
AcDbPoint
 10
123.5
 20
-300.0
 30
0.0
  0
POINT
  5
11FE
330
2B7C
100
AcDbEntity
  8
DEFPOINTS
 62
     0
100
AcDbPoint
 10
123.5
 20
-563.8286022818904
 30
0.0
  0
ENDBLK
  5
11F5
330
2B7C
100
AcDbEntity
  8
0
100
AcDbBlockEnd
  0
BLOCK
  5
2B7F
330
2B7E
100
AcDbEntity
  8
0
100
AcDbBlockBegin
  2
*U19
 70
     1
 10
0.0
 20
0.0
 30
0.0
  3
*U19
  1

  0
TEXT
  5
1EED
330
2B7E
100
AcDbEntity
  8
NOTE
 62
     0
100
AcDbText
 10
-74.05714285714281
 20
-553.8286022818904
 30
0.0
 40
64.0
  1
247
 41
0.9
100
AcDbText
  0
ENDBLK
  5
1EEF
330
2B7E
100
AcDbEntity
  8
0
100
AcDbBlockEnd
  0
BLOCK
  5
2B81
330
2B80
100
AcDbEntity
  8
0
100
AcDbBlockBegin
  2
*D20
 70
     1
 10
0.0
 20
0.0
 30
0.0
  3
*D20
  1

  0
LINE
  5
1284
330
2B80
100
AcDbEntity
  8
NOTE
 62
     0
100
AcDbLine
 10
-123.5
 20
12.0
 30
0.0
 11
-123.5
 21
71.83630134534229
 31
0.0
  0
LINE
  5
1285
330
2B80
100
AcDbEntity
  8
NOTE
 62
     0
100
AcDbLine
 10
123.5
 20
12.0
 30
0.0
 11
123.5
 21
71.83630134534229
 31
0.0
  0
LINE
  5
1286
330
2B80
100
AcDbEntity
  8
NOTE
 62
     0
100
AcDbLine
 10
-111.5
 20
51.83630134534229
 30
0.0
 11
111.5
 21
51.83630134534229
 31
0.0
  0
INSERT
  5
1287
330
2B80
100
AcDbEntity
  8
NOTE
 62
     0
100
AcDbBlockReference
  2
_DOTBLANK
 10
-123.5
 20
51.83630134534229
 30
0.0
 41
12.0
 42
12.0
 43
12.0
 50
180.0
  0
INSERT
  5
1288
330
2B80
100
AcDbEntity
  8
NOTE
 62
     0
100
AcDbBlockReference
  2
_DOTBLANK
 10
123.5
 20
51.83630134534229
 30
0.0
 41
12.0
 42
12.0
 43
12.0
  0
INSERT
  5
1289
330
2B80
100
AcDbEntity
  8
0
100
AcDbBlockReference
  2
*U21
 10
0.0
 20
0.0
 30
0.0
  0
POINT
  5
128A
330
2B80
100
AcDbEntity
  8
DEFPOINTS
 62
     0
100
AcDbPoint
 10
-123.5
 20
-8.0
 30
0.0
  0
POINT
  5
128B
330
2B80
100
AcDbEntity
  8
DEFPOINTS
 62
     0
100
AcDbPoint
 10
123.5
 20
-8.0
 30
0.0
  0
POINT
  5
128C
330
2B80
100
AcDbEntity
  8
DEFPOINTS
 62
     0
100
AcDbPoint
 10
123.5
 20
51.83630134534229
 30
0.0
  0
ENDBLK
  5
1283
330
2B80
100
AcDbEntity
  8
0
100
AcDbBlockEnd
  0
BLOCK
  5
2B83
330
2B82
100
AcDbEntity
  8
0
100
AcDbBlockBegin
  2
*U21
 70
     1
 10
0.0
 20
0.0
 30
0.0
  3
*U21
  1

  0
TEXT
  5
1EF1
330
2B82
100
AcDbEntity
  8
NOTE
 62
     0
100
AcDbText
 10
-74.05714285714283
 20
61.83630134534229
 30
0.0
 40
64.0
  1
247
 41
0.9
100
AcDbText
  0
ENDBLK
  5
1EF3
330
2B82
100
AcDbEntity
  8
0
100
AcDbBlockEnd
  0
BLOCK
  5
2B85
330
2B84
100
AcDbEntity
  8
0
100
AcDbBlockBegin
  2
*D22
 70
     1
 10
0.0
 20
0.0
 30
0.0
  3
*D22
  1

  0
LINE
  5
1414
330
2B84
100
AcDbEntity
  8
SIZE
 62
     0
100
AcDbLine
 10
-22313.11521613997
 20
7365.702971374808
 30
0.0
 11
-22313.11521613997
 21
7217.685576144207
 31
0.0
  0
LINE
  5
1415
330
2B84
100
AcDbEntity
  8
SIZE
 62
     0
100
AcDbLine
 10
-22044.11521613997
 20
7365.702971374808
 30
0.0
 11
-22044.11521613997
 21
7217.685576144207
 31
0.0
  0
LINE
  5
1416
330
2B84
100
AcDbEntity
  8
SIZE
 62
     0
100
AcDbLine
 10
-22301.11521613997
 20
7237.685576144207
 30
0.0
 11
-22056.11521613997
 21
7237.685576144207
 31
0.0
  0
INSERT
  5
1417
330
2B84
100
AcDbEntity
  8
SIZE
 62
     0
100
AcDbBlockReference
  2
_DOTBLANK
 10
-22313.11521613997
 20
7237.685576144207
 30
0.0
 41
12.0
 42
12.0
 43
12.0
 50
180.0
  0
INSERT
  5
1418
330
2B84
100
AcDbEntity
  8
SIZE
 62
     0
100
AcDbBlockReference
  2
_DOTBLANK
 10
-22044.11521613997
 20
7237.685576144207
 30
0.0
 41
12.0
 42
12.0
 43
12.0
  0
INSERT
  5
1419
330
2B84
100
AcDbEntity
  8
0
100
AcDbBlockReference
  2
*U23
 10
0.0
 20
0.0
 30
0.0
  0
POINT
  5
141A
330
2B84
100
AcDbEntity
  8
DEFPOINTS
 62
     0
100
AcDbPoint
 10
-22313.11521613997
 20
7385.702971374808
 30
0.0
  0
POINT
  5
141B
330
2B84
100
AcDbEntity
  8
DEFPOINTS
 62
     0
100
AcDbPoint
 10
-22044.11521613997
 20
7385.702971374808
 30
0.0
  0
POINT
  5
141C
330
2B84
100
AcDbEntity
  8
DEFPOINTS
 62
     0
100
AcDbPoint
 10
-22044.11521613997
 20
7237.685576144207
 30
0.0
  0
ENDBLK
  5
141D
330
2B84
100
AcDbEntity
  8
0
100
AcDbBlockEnd
  0
BLOCK
  5
2B87
330
2B86
100
AcDbEntity
  8
0
100
AcDbBlockBegin
  2
*U23
 70
     1
 10
0.0
 20
0.0
 30
0.0
  3
*U23
  1

  0
TEXT
  5
1EF9
330
2B86
100
AcDbEntity
  8
SIZE
 62
     0
100
AcDbText
 10
-22251.30093042568
 20
7247.685576144205
 30
0.0
 40
64.0
  1
269
 41
0.9
100
AcDbText
  0
ENDBLK
  5
1EFB
330
2B86
100
AcDbEntity
  8
0
100
AcDbBlockEnd
  0
BLOCK
  5
2B89
330
2B88
100
AcDbEntity
  8
0
100
AcDbBlockBegin
  2
*D24
 70
     1
 10
0.0
 20
0.0
 30
0.0
  3
*D24
  1

  0
LINE
  5
1420
330
2B88
100
AcDbEntity
  8
SIZE
  6
Continuous
 62
     0
100
AcDbLine
 10
-22035.11521613997
 20
7385.702971374808
 30
0.0
 11
-21873.97193165959
 21
7385.702971374808
 31
0.0
  0
LINE
  5
1421
330
2B88
100
AcDbEntity
  8
SIZE
  6
Continuous
 62
     0
100
AcDbLine
 10
-22001.11521613997
 20
7685.702971374808
 30
0.0
 11
-21873.97193165959
 21
7685.702971374808
 31
0.0
  0
LINE
  5
1422
330
2B88
100
AcDbEntity
  8
SIZE
  6
Continuous
 62
     0
100
AcDbLine
 10
-21893.97193165959
 20
7397.702971374808
 30
0.0
 11
-21893.97193165959
 21
7673.702971374808
 31
0.0
  0
INSERT
  5
1423
330
2B88
100
AcDbEntity
  8
SIZE
  6
Continuous
 62
     0
100
AcDbBlockReference
  2
_DOTBLANK
 10
-21893.97193165959
 20
7385.702971374808
 30
0.0
 41
12.0
 42
12.0
 43
12.0
 50
270.0
  0
INSERT
  5
1424
330
2B88
100
AcDbEntity
  8
SIZE
  6
Continuous
 62
     0
100
AcDbBlockReference
  2
_DOTBLANK
 10
-21893.97193165959
 20
7685.702971374808
 30
0.0
 41
12.0
 42
12.0
 43
12.0
 50
90.0
  0
INSERT
  5
1425
330
2B88
100
AcDbEntity
  8
0
100
AcDbBlockReference
  2
*U25
 10
0.0
 20
0.0
 30
0.0
  0
POINT
  5
1426
330
2B88
100
AcDbEntity
  8
DEFPOINTS
  6
Continuous
 62
     0
100
AcDbPoint
 10
-22055.11521613997
 20
7385.702971374808
 30
0.0
  0
POINT
  5
1427
330
2B88
100
AcDbEntity
  8
DEFPOINTS
  6
Continuous
 62
     0
100
AcDbPoint
 10
-22021.11521613997
 20
7685.702971374808
 30
0.0
  0
POINT
  5
1428
330
2B88
100
AcDbEntity
  8
DEFPOINTS
  6
Continuous
 62
     0
100
AcDbPoint
 10
-21893.97193165959
 20
7685.702971374808
 30
0.0
  0
ENDBLK
  5
1429
330
2B88
100
AcDbEntity
  8
0
100
AcDbBlockEnd
  0
BLOCK
  5
2B8B
330
2B8A
100
AcDbEntity
  8
0
100
AcDbBlockBegin
  2
*U25
 70
     1
 10
0.0
 20
0.0
 30
0.0
  3
*U25
  1

  0
TEXT
  5
1EFD
330
2B8A
100
AcDbEntity
  8
SIZE
 62
     0
100
AcDbText
 10
-21903.97193165959
 20
7461.645828517662
 30
0.0
 40
64.0
  1
300
 50
90.0
 41
0.9
100
AcDbText
  0
ENDBLK
  5
1EFF
330
2B8A
100
AcDbEntity
  8
0
100
AcDbBlockEnd
  0
BLOCK
  5
2B8D
330
2B8C
100
AcDbEntity
  8
0
100
AcDbBlockBegin
  2
*D26
 70
     1
 10
0.0
 20
0.0
 30
0.0
  3
*D26
  1

  0
LINE
  5
142C
330
2B8C
100
AcDbEntity
  8
SIZE
 62
     0
100
AcDbLine
 10
-22318.61521613997
 20
7718.167454177002
 30
0.0
 11
-22318.61521613997
 21
7822.154659243358
 31
0.0
  0
LINE
  5
142D
330
2B8C
100
AcDbEntity
  8
SIZE
 62
     0
100
AcDbLine
 10
-22038.61521613997
 20
7718.167454177002
 30
0.0
 11
-22038.61521613997
 21
7822.154659243358
 31
0.0
  0
LINE
  5
142E
330
2B8C
100
AcDbEntity
  8
SIZE
 62
     0
100
AcDbLine
 10
-22306.61521613997
 20
7802.154659243358
 30
0.0
 11
-22050.61521613997
 21
7802.154659243358
 31
0.0
  0
INSERT
  5
142F
330
2B8C
100
AcDbEntity
  8
SIZE
 62
     0
100
AcDbBlockReference
  2
_DOTBLANK
 10
-22318.61521613997
 20
7802.154659243358
 30
0.0
 41
12.0
 42
12.0
 43
12.0
 50
180.0
  0
INSERT
  5
1430
330
2B8C
100
AcDbEntity
  8
SIZE
 62
     0
100
AcDbBlockReference
  2
_DOTBLANK
 10
-22038.61521613997
 20
7802.154659243358
 30
0.0
 41
12.0
 42
12.0
 43
12.0
  0
INSERT
  5
1431
330
2B8C
100
AcDbEntity
  8
0
100
AcDbBlockReference
  2
*U27
 10
0.0
 20
0.0
 30
0.0
  0
POINT
  5
1432
330
2B8C
100
AcDbEntity
  8
DEFPOINTS
 62
     0
100
AcDbPoint
 10
-22318.61521613997
 20
7698.167454177002
 30
0.0
  0
POINT
  5
1433
330
2B8C
100
AcDbEntity
  8
DEFPOINTS
 62
     0
100
AcDbPoint
 10
-22038.61521613997
 20
7698.167454177002
 30
0.0
  0
POINT
  5
1434
330
2B8C
100
AcDbEntity
  8
DEFPOINTS
 62
     0
100
AcDbPoint
 10
-22038.61521613997
 20
7802.154659243358
 30
0.0
  0
ENDBLK
  5
1435
330
2B8C
100
AcDbEntity
  8
0
100
AcDbBlockEnd
  0
BLOCK
  5
2B8F
330
2B8E
100
AcDbEntity
  8
0
100
AcDbBlockBegin
  2
*U27
 70
     1
 10
0.0
 20
0.0
 30
0.0
  3
*U27
  1

  0
TEXT
  5
1F01
330
2B8E
100
AcDbEntity
  8
SIZE
 62
     0
100
AcDbText
 10
-22252.6723589971
 20
7812.154659243358
 30
0.0
 40
64.0
  1
280
 41
0.9
100
AcDbText
  0
ENDBLK
  5
1F03
330
2B8E
100
AcDbEntity
  8
0
100
AcDbBlockEnd
  0
BLOCK
  5
2B91
330
2B90
100
AcDbEntity
  8
0
100
AcDbBlockBegin
  2
*D28
 70
     1
 10
0.0
 20
0.0
 30
0.0
  3
*D28
  1

  0
LINE
  5
1438
330
2B90
100
AcDbEntity
  8
SIZE
 62
     0
100
AcDbLine
 10
-22336.11521613997
 20
7705.702971374808
 30
0.0
 11
-22336.11521613997
 21
7931.282433493766
 31
0.0
  0
LINE
  5
1439
330
2B90
100
AcDbEntity
  8
SIZE
 62
     0
100
AcDbLine
 10
-22021.11521613997
 20
7705.702971374808
 30
0.0
 11
-22021.11521613997
 21
7931.282433493766
 31
0.0
  0
LINE
  5
143A
330
2B90
100
AcDbEntity
  8
SIZE
 62
     0
100
AcDbLine
 10
-22324.11521613997
 20
7911.282433493766
 30
0.0
 11
-22033.11521613997
 21
7911.282433493766
 31
0.0
  0
INSERT
  5
143B
330
2B90
100
AcDbEntity
  8
SIZE
 62
     0
100
AcDbBlockReference
  2
_DOTBLANK
 10
-22336.11521613997
 20
7911.282433493766
 30
0.0
 41
12.0
 42
12.0
 43
12.0
 50
180.0
  0
INSERT
  5
143C
330
2B90
100
AcDbEntity
  8
SIZE
 62
     0
100
AcDbBlockReference
  2
_DOTBLANK
 10
-22021.11521613997
 20
7911.282433493766
 30
0.0
 41
12.0
 42
12.0
 43
12.0
  0
INSERT
  5
143D
330
2B90
100
AcDbEntity
  8
0
100
AcDbBlockReference
  2
*U29
 10
0.0
 20
0.0
 30
0.0
  0
POINT
  5
143E
330
2B90
100
AcDbEntity
  8
DEFPOINTS
 62
     0
100
AcDbPoint
 10
-22336.11521613997
 20
7685.702971374808
 30
0.0
  0
POINT
  5
143F
330
2B90
100
AcDbEntity
  8
DEFPOINTS
 62
     0
100
AcDbPoint
 10
-22021.11521613997
 20
7685.702971374808
 30
0.0
  0
POINT
  5
1440
330
2B90
100
AcDbEntity
  8
DEFPOINTS
 62
     0
100
AcDbPoint
 10
-22021.11521613997
 20
7911.282433493766
 30
0.0
  0
ENDBLK
  5
1441
330
2B90
100
AcDbEntity
  8
0
100
AcDbBlockEnd
  0
BLOCK
  5
2B93
330
2B92
100
AcDbEntity
  8
0
100
AcDbBlockBegin
  2
*U29
 70
     1
 10
0.0
 20
0.0
 30
0.0
  3
*U29
  1

  0
TEXT
  5
1F05
330
2B92
100
AcDbEntity
  8
SIZE
 62
     0
100
AcDbText
 10
-22247.18664471139
 20
7921.282433493766
 30
0.0
 40
64.0
  1
315
 41
0.9
100
AcDbText
  0
ENDBLK
  5
1F07
330
2B92
100
AcDbEntity
  8
0
100
AcDbBlockEnd
  0
BLOCK
  5
2B95
330
2B94
100
AcDbEntity
  8
0
100
AcDbBlockBegin
  2
*D30
 70
     1
 10
0.0
 20
0.0
 30
0.0
  3
*D30
  1

  0
LINE
  5
166B
330
2B94
100
AcDbEntity
  8
SIZE
 62
     0
100
AcDbLine
 10
-134.5
 20
-320.0
 30
0.0
 11
-134.5
 21
-468.0173952306001
 31
0.0
  0
LINE
  5
166C
330
2B94
100
AcDbEntity
  8
SIZE
 62
     0
100
AcDbLine
 10
134.5
 20
-320.0
 30
0.0
 11
134.5
 21
-468.0173952306001
 31
0.0
  0
LINE
  5
166D
330
2B94
100
AcDbEntity
  8
SIZE
 62
     0
100
AcDbLine
 10
-122.5
 20
-448.0173952306
 30
0.0
 11
122.5
 21
-448.0173952306
 31
0.0
  0
INSERT
  5
166E
330
2B94
100
AcDbEntity
  8
SIZE
 62
     0
100
AcDbBlockReference
  2
_DOTBLANK
 10
-134.5
 20
-448.0173952306
 30
0.0
 41
12.0
 42
12.0
 43
12.0
 50
180.0
  0
INSERT
  5
166F
330
2B94
100
AcDbEntity
  8
SIZE
 62
     0
100
AcDbBlockReference
  2
_DOTBLANK
 10
134.5
 20
-448.0173952306
 30
0.0
 41
12.0
 42
12.0
 43
12.0
  0
INSERT
  5
1670
330
2B94
100
AcDbEntity
  8
0
100
AcDbBlockReference
  2
*U31
 10
0.0
 20
0.0
 30
0.0
  0
POINT
  5
1671
330
2B94
100
AcDbEntity
  8
DEFPOINTS
 62
     0
100
AcDbPoint
 10
-134.5
 20
-300.0
 30
0.0
  0
POINT
  5
1672
330
2B94
100
AcDbEntity
  8
DEFPOINTS
 62
     0
100
AcDbPoint
 10
134.5
 20
-300.0
 30
0.0
  0
POINT
  5
1673
330
2B94
100
AcDbEntity
  8
DEFPOINTS
 62
     0
100
AcDbPoint
 10
134.5
 20
-448.0173952306
 30
0.0
  0
ENDBLK
  5
14A7
330
2B94
100
AcDbEntity
  8
0
100
AcDbBlockEnd
  0
BLOCK
  5
2B97
330
2B96
100
AcDbEntity
  8
0
100
AcDbBlockBegin
  2
*U31
 70
     1
 10
0.0
 20
0.0
 30
0.0
  3
*U31
  1

  0
TEXT
  5
1F09
330
2B96
100
AcDbEntity
  8
SIZE
 62
     0
100
AcDbText
 10
-72.68571428571426
 20
-438.0173952306002
 30
0.0
 40
64.0
  1
269
 41
0.9
100
AcDbText
  0
ENDBLK
  5
1F0B
330
2B96
100
AcDbEntity
  8
0
100
AcDbBlockEnd
  0
BLOCK
  5
2B99
330
2B98
100
AcDbEntity
  8
0
100
AcDbBlockBegin
  2
*D32
 70
     1
 10
0.0
 20
0.0
 30
0.0
  3
*D32
  1

  0
LINE
  5
1674
330
2B98
100
AcDbEntity
  8
SIZE
  6
Continuous
 62
     0
100
AcDbLine
 10
143.5
 20
-300.0
 30
0.0
 11
304.6432844803784
 21
-300.0
 31
0.0
  0
LINE
  5
1675
330
2B98
100
AcDbEntity
  8
SIZE
  6
Continuous
 62
     0
100
AcDbLine
 10
177.5
 20
-0.0000000000000057
 30
0.0
 11
304.6432844803785
 21
-0.0000000000000417
 31
0.0
  0
LINE
  5
1676
330
2B98
100
AcDbEntity
  8
SIZE
  6
Continuous
 62
     0
100
AcDbLine
 10
284.6432844803784
 20
-288.0000000000001
 30
0.0
 11
284.6432844803785
 21
-12.00000000000003
 31
0.0
  0
INSERT
  5
1677
330
2B98
100
AcDbEntity
  8
SIZE
  6
Continuous
 62
     0
100
AcDbBlockReference
  2
_DOTBLANK
 10
284.6432844803784
 20
-300.0
 30
0.0
 41
12.0
 42
12.0
 43
12.0
 50
270.0
  0
INSERT
  5
1678
330
2B98
100
AcDbEntity
  8
SIZE
  6
Continuous
 62
     0
100
AcDbBlockReference
  2
_DOTBLANK
 10
284.6432844803785
 20
-0.000000000000036
 30
0.0
 41
12.0
 42
12.0
 43
12.0
 50
90.0
  0
INSERT
  5
1679
330
2B98
100
AcDbEntity
  8
0
100
AcDbBlockReference
  2
*U33
 10
0.0
 20
0.0
 30
0.0
  0
POINT
  5
167A
330
2B98
100
AcDbEntity
  8
DEFPOINTS
  6
Continuous
 62
     0
100
AcDbPoint
 10
123.5
 20
-300.0
 30
0.0
  0
POINT
  5
167B
330
2B98
100
AcDbEntity
  8
DEFPOINTS
  6
Continuous
 62
     0
100
AcDbPoint
 10
157.5
 20
0.0
 30
0.0
  0
POINT
  5
167C
330
2B98
100
AcDbEntity
  8
DEFPOINTS
  6
Continuous
 62
     0
100
AcDbPoint
 10
284.6432844803785
 20
-0.000000000000036
 30
0.0
  0
ENDBLK
  5
14B3
330
2B98
100
AcDbEntity
  8
0
100
AcDbBlockEnd
  0
BLOCK
  5
2B9B
330
2B9A
100
AcDbEntity
  8
0
100
AcDbBlockBegin
  2
*U33
 70
     1
 10
0.0
 20
0.0
 30
0.0
  3
*U33
  1

  0
TEXT
  5
1F0D
330
2B9A
100
AcDbEntity
  8
SIZE
 62
     0
100
AcDbText
 10
274.6432844803785
 20
-224.0571428571429
 30
0.0
 40
64.0
  1
300
 50
90.0
 41
0.9
100
AcDbText
  0
ENDBLK
  5
1F0F
330
2B9A
100
AcDbEntity
  8
0
100
AcDbBlockEnd
  0
BLOCK
  5
2B9D
330
2B9C
100
AcDbEntity
  8
0
100
AcDbBlockBegin
  2
*D34
 70
     1
 10
0.0
 20
0.0
 30
0.0
  3
*D34
  1

  0
LINE
  5
167D
330
2B9C
100
AcDbEntity
  8
SIZE
 62
     0
100
AcDbLine
 10
-140.0
 20
32.46448280219375
 30
0.0
 11
-140.0
 21
136.4516878685507
 31
0.0
  0
LINE
  5
167E
330
2B9C
100
AcDbEntity
  8
SIZE
 62
     0
100
AcDbLine
 10
140.0
 20
32.46448280219375
 30
0.0
 11
140.0
 21
136.4516878685507
 31
0.0
  0
LINE
  5
167F
330
2B9C
100
AcDbEntity
  8
SIZE
 62
     0
100
AcDbLine
 10
-128.0
 20
116.4516878685508
 30
0.0
 11
128.0
 21
116.4516878685508
 31
0.0
  0
INSERT
  5
1680
330
2B9C
100
AcDbEntity
  8
SIZE
 62
     0
100
AcDbBlockReference
  2
_DOTBLANK
 10
-140.0
 20
116.4516878685508
 30
0.0
 41
12.0
 42
12.0
 43
12.0
 50
180.0
  0
INSERT
  5
1681
330
2B9C
100
AcDbEntity
  8
SIZE
 62
     0
100
AcDbBlockReference
  2
_DOTBLANK
 10
140.0
 20
116.4516878685508
 30
0.0
 41
12.0
 42
12.0
 43
12.0
  0
INSERT
  5
1682
330
2B9C
100
AcDbEntity
  8
0
100
AcDbBlockReference
  2
*U35
 10
0.0
 20
0.0
 30
0.0
  0
POINT
  5
1683
330
2B9C
100
AcDbEntity
  8
DEFPOINTS
 62
     0
100
AcDbPoint
 10
-140.0
 20
12.46448280219374
 30
0.0
  0
POINT
  5
1684
330
2B9C
100
AcDbEntity
  8
DEFPOINTS
 62
     0
100
AcDbPoint
 10
140.0
 20
12.46448280219374
 30
0.0
  0
POINT
  5
1685
330
2B9C
100
AcDbEntity
  8
DEFPOINTS
 62
     0
100
AcDbPoint
 10
140.0
 20
116.4516878685508
 30
0.0
  0
ENDBLK
  5
14BF
330
2B9C
100
AcDbEntity
  8
0
100
AcDbBlockEnd
  0
BLOCK
  5
2B9F
330
2B9E
100
AcDbEntity
  8
0
100
AcDbBlockBegin
  2
*U35
 70
     1
 10
0.0
 20
0.0
 30
0.0
  3
*U35
  1

  0
TEXT
  5
1F11
330
2B9E
100
AcDbEntity
  8
SIZE
 62
     0
100
AcDbText
 10
-74.05714285714283
 20
126.4516878685507
 30
0.0
 40
64.0
  1
280
 41
0.9
100
AcDbText
  0
ENDBLK
  5
1F13
330
2B9E
100
AcDbEntity
  8
0
100
AcDbBlockEnd
  0
BLOCK
  5
2BA1
330
2BA0
100
AcDbEntity
  8
0
100
AcDbBlockBegin
  2
*D36
 70
     1
 10
0.0
 20
0.0
 30
0.0
  3
*D36
  1

  0
LINE
  5
1686
330
2BA0
100
AcDbEntity
  8
SIZE
 62
     0
100
AcDbLine
 10
-157.5
 20
20.0
 30
0.0
 11
-157.5
 21
245.5794621189598
 31
0.0
  0
LINE
  5
1687
330
2BA0
100
AcDbEntity
  8
SIZE
 62
     0
100
AcDbLine
 10
157.5
 20
20.0
 30
0.0
 11
157.5
 21
245.5794621189598
 31
0.0
  0
LINE
  5
1688
330
2BA0
100
AcDbEntity
  8
SIZE
 62
     0
100
AcDbLine
 10
-145.5
 20
225.5794621189598
 30
0.0
 11
145.5
 21
225.5794621189598
 31
0.0
  0
INSERT
  5
1689
330
2BA0
100
AcDbEntity
  8
SIZE
 62
     0
100
AcDbBlockReference
  2
_DOTBLANK
 10
-157.5
 20
225.5794621189598
 30
0.0
 41
12.0
 42
12.0
 43
12.0
 50
180.0
  0
INSERT
  5
168A
330
2BA0
100
AcDbEntity
  8
SIZE
 62
     0
100
AcDbBlockReference
  2
_DOTBLANK
 10
157.5
 20
225.5794621189598
 30
0.0
 41
12.0
 42
12.0
 43
12.0
  0
INSERT
  5
168B
330
2BA0
100
AcDbEntity
  8
0
100
AcDbBlockReference
  2
*U37
 10
0.0
 20
0.0
 30
0.0
  0
POINT
  5
168C
330
2BA0
100
AcDbEntity
  8
DEFPOINTS
 62
     0
100
AcDbPoint
 10
-157.5
 20
0.0
 30
0.0
  0
POINT
  5
168D
330
2BA0
100
AcDbEntity
  8
DEFPOINTS
 62
     0
100
AcDbPoint
 10
157.5
 20
0.0
 30
0.0
  0
POINT
  5
168E
330
2BA0
100
AcDbEntity
  8
DEFPOINTS
 62
     0
100
AcDbPoint
 10
157.5
 20
225.5794621189598
 30
0.0
  0
ENDBLK
  5
14CB
330
2BA0
100
AcDbEntity
  8
0
100
AcDbBlockEnd
  0
BLOCK
  5
2BA3
330
2BA2
100
AcDbEntity
  8
0
100
AcDbBlockBegin
  2
*U37
 70
     1
 10
0.0
 20
0.0
 30
0.0
  3
*U37
  1

  0
TEXT
  5
1F15
330
2BA2
100
AcDbEntity
  8
SIZE
 62
     0
100
AcDbText
 10
-68.57142857142857
 20
235.5794621189598
 30
0.0
 40
64.0
  1
315
 41
0.9
100
AcDbText
  0
ENDBLK
  5
1F17
330
2BA2
100
AcDbEntity
  8
0
100
AcDbBlockEnd
  0
BLOCK
  5
2BA5
330
2BA4
100
AcDbEntity
  8
0
100
AcDbBlockBegin
  2
*U38
 70
     1
 10
0.0
 20
0.0
 30
0.0
  3
*U38
  1

  0
ENDBLK
  5
15CF
330
2BA4
100
AcDbEntity
  8
0
100
AcDbBlockEnd
  0
BLOCK
  5
2BA7
330
2BA6
100
AcDbEntity
  8
0
100
AcDbBlockBegin
  2
*D39
 70
     1
 10
0.0
 20
0.0
 30
0.0
  3
*D39
  1

  0
LINE
  5
1692
330
2BA6
100
AcDbEntity
  8
SIZE
 62
     0
100
AcDbLine
 10
-25844.51823276502
 20
7685.702971374808
 30
0.0
 11
-25981.04465488371
 21
7685.702971374808
 31
0.0
  0
LINE
  5
1693
330
2BA6
100
AcDbEntity
  8
SIZE
 62
     0
100
AcDbLine
 10
-25844.51823276502
 20
7677.702971374808
 30
0.0
 11
-25981.04465488371
 21
7677.702971374808
 31
0.0
  0
LINE
  5
1694
330
2BA6
100
AcDbEntity
  8
SIZE
 62
     0
100
AcDbLine
 10
-25961.04465488371
 20
7697.702971374808
 30
0.0
 11
-25961.04465488371
 21
7709.702971374809
 31
0.0
  0
LINE
  5
1695
330
2BA6
100
AcDbEntity
  8
SIZE
 62
     0
100
AcDbLine
 10
-25961.04465488371
 20
7665.70297137481
 30
0.0
 11
-25961.04465488371
 21
7595.302971374808
 31
0.0
  0
INSERT
  5
1696
330
2BA6
100
AcDbEntity
  8
SIZE
 62
     0
100
AcDbBlockReference
  2
_DOTBLANK
 10
-25961.04465488371
 20
7685.702971374808
 30
0.0
 41
12.0
 42
12.0
 43
12.0
 50
270.0
  0
INSERT
  5
1697
330
2BA6
100
AcDbEntity
  8
SIZE
 62
     0
100
AcDbBlockReference
  2
_DOTBLANK
 10
-25961.04465488371
 20
7677.702971374808
 30
0.0
 41
12.0
 42
12.0
 43
12.0
 50
90.0
  0
INSERT
  5
1698
330
2BA6
100
AcDbEntity
  8
0
100
AcDbBlockReference
  2
*U40
 10
0.0
 20
0.0
 30
0.0
  0
POINT
  5
1699
330
2BA6
100
AcDbEntity
  8
DEFPOINTS
 62
     0
100
AcDbPoint
 10
-25824.51823276501
 20
7685.702971374808
 30
0.0
  0
POINT
  5
169A
330
2BA6
100
AcDbEntity
  8
DEFPOINTS
 62
     0
100
AcDbPoint
 10
-25824.51823276501
 20
7677.702971374808
 30
0.0
  0
POINT
  5
169B
330
2BA6
100
AcDbEntity
  8
DEFPOINTS
 62
     0
100
AcDbPoint
 10
-25961.04465488371
 20
7677.702971374808
 30
0.0
  0
ENDBLK
  5
169C
330
2BA6
100
AcDbEntity
  8
0
100
AcDbBlockEnd
  0
BLOCK
  5
2BA9
330
2BA8
100
AcDbEntity
  8
0
100
AcDbBlockBegin
  2
*U40
 70
     1
 10
0.0
 20
0.0
 30
0.0
  3
*U40
  1

  0
TEXT
  5
1F19
330
2BA8
100
AcDbEntity
  8
SIZE
 62
     0
100
AcDbText
 10
-25971.04465488371
 20
7605.302971374804
 30
0.0
 40
64.0
  1
8
 50
90.0
 41
0.9
100
AcDbText
  0
ENDBLK
  5
1F1B
330
2BA8
100
AcDbEntity
  8
0
100
AcDbBlockEnd
  0
BLOCK
  5
2BAB
330
2BAA
100
AcDbEntity
  8
0
100
AcDbBlockBegin
  2
*D41
 70
     1
 10
0.0
 20
0.0
 30
0.0
  3
*D41
  1

  0
LINE
  5
169F
330
2BAA
100
AcDbEntity
  8
SIZE
 62
     0
100
AcDbLine
 10
-25512.51823276502
 20
7385.702971374808
 30
0.0
 11
-25362.37494828464
 21
7385.702971374808
 31
0.0
  0
LINE
  5
16A0
330
2BAA
100
AcDbEntity
  8
SIZE
 62
     0
100
AcDbLine
 10
-25523.51823276501
 20
7373.702971374808
 30
0.0
 11
-25362.37494828464
 21
7373.702971374808
 31
0.0
  0
LINE
  5
16A1
330
2BAA
100
AcDbEntity
  8
SIZE
 62
     0
100
AcDbLine
 10
-25382.37494828464
 20
7397.702971374808
 30
0.0
 11
-25382.37494828464
 21
7409.70297137481
 31
0.0
  0
LINE
  5
16A2
330
2BAA
100
AcDbEntity
  8
SIZE
 62
     0
100
AcDbLine
 10
-25382.37494828464
 20
7361.702971374808
 30
0.0
 11
-25382.37494828464
 21
7244.674399946238
 31
0.0
  0
INSERT
  5
16A3
330
2BAA
100
AcDbEntity
  8
SIZE
 62
     0
100
AcDbBlockReference
  2
_DOTBLANK
 10
-25382.37494828464
 20
7385.702971374808
 30
0.0
 41
12.0
 42
12.0
 43
12.0
 50
270.0
  0
INSERT
  5
16A4
330
2BAA
100
AcDbEntity
  8
SIZE
 62
     0
100
AcDbBlockReference
  2
_DOTBLANK
 10
-25382.37494828464
 20
7373.702971374808
 30
0.0
 41
12.0
 42
12.0
 43
12.0
 50
90.0
  0
INSERT
  5
16A5
330
2BAA
100
AcDbEntity
  8
0
100
AcDbBlockReference
  2
*U42
 10
0.0
 20
0.0
 30
0.0
  0
POINT
  5
16A6
330
2BAA
100
AcDbEntity
  8
DEFPOINTS
 62
     0
100
AcDbPoint
 10
-25532.51823276502
 20
7385.702971374808
 30
0.0
  0
POINT
  5
16A7
330
2BAA
100
AcDbEntity
  8
DEFPOINTS
 62
     0
100
AcDbPoint
 10
-25543.51823276502
 20
7373.702971374808
 30
0.0
  0
POINT
  5
16A8
330
2BAA
100
AcDbEntity
  8
DEFPOINTS
 62
     0
100
AcDbPoint
 10
-25382.37494828464
 20
7373.702971374808
 30
0.0
  0
ENDBLK
  5
16A9
330
2BAA
100
AcDbEntity
  8
0
100
AcDbBlockEnd
  0
BLOCK
  5
2BAD
330
2BAC
100
AcDbEntity
  8
0
100
AcDbBlockBegin
  2
*U42
 70
     1
 10
0.0
 20
0.0
 30
0.0
  3
*U42
  1

  0
TEXT
  5
1F1D
330
2BAC
100
AcDbEntity
  8
SIZE
 62
     0
100
AcDbText
 10
-25392.37494828464
 20
7256.045828517662
 30
0.0
 40
64.0
  1
12
 50
90.0
 41
0.9
100
AcDbText
  0
ENDBLK
  5
1F1F
330
2BAC
100
AcDbEntity
  8
0
100
AcDbBlockEnd
  0
BLOCK
  5
2BAF
330
2BAE
100
AcDbEntity
  8
0
100
AcDbBlockBegin
  2
*D43
 70
     1
 10
0.0
 20
0.0
 30
0.0
  3
*D43
  1

  0
LINE
  5
16AC
330
2BAE
100
AcDbEntity
  8
SIZE
 62
     0
100
AcDbLine
 10
-25801.51823276501
 20
7365.702971374808
 30
0.0
 11
-25801.51823276501
 21
7217.685576144207
 31
0.0
  0
LINE
  5
16AD
330
2BAE
100
AcDbEntity
  8
SIZE
 62
     0
100
AcDbLine
 10
-25532.51823276502
 20
7365.702971374808
 30
0.0
 11
-25532.51823276502
 21
7217.685576144207
 31
0.0
  0
LINE
  5
16AE
330
2BAE
100
AcDbEntity
  8
SIZE
 62
     0
100
AcDbLine
 10
-25789.51823276502
 20
7237.685576144207
 30
0.0
 11
-25544.51823276501
 21
7237.685576144207
 31
0.0
  0
INSERT
  5
16AF
330
2BAE
100
AcDbEntity
  8
SIZE
 62
     0
100
AcDbBlockReference
  2
_DOTBLANK
 10
-25801.51823276501
 20
7237.685576144207
 30
0.0
 41
12.0
 42
12.0
 43
12.0
 50
180.0
  0
INSERT
  5
16B0
330
2BAE
100
AcDbEntity
  8
SIZE
 62
     0
100
AcDbBlockReference
  2
_DOTBLANK
 10
-25532.51823276502
 20
7237.685576144207
 30
0.0
 41
12.0
 42
12.0
 43
12.0
  0
INSERT
  5
16B1
330
2BAE
100
AcDbEntity
  8
0
100
AcDbBlockReference
  2
*U44
 10
0.0
 20
0.0
 30
0.0
  0
POINT
  5
16B2
330
2BAE
100
AcDbEntity
  8
DEFPOINTS
 62
     0
100
AcDbPoint
 10
-25801.51823276501
 20
7385.702971374808
 30
0.0
  0
POINT
  5
16B3
330
2BAE
100
AcDbEntity
  8
DEFPOINTS
 62
     0
100
AcDbPoint
 10
-25532.51823276502
 20
7385.702971374808
 30
0.0
  0
POINT
  5
16B4
330
2BAE
100
AcDbEntity
  8
DEFPOINTS
 62
     0
100
AcDbPoint
 10
-25532.51823276502
 20
7237.685576144207
 30
0.0
  0
ENDBLK
  5
16B5
330
2BAE
100
AcDbEntity
  8
0
100
AcDbBlockEnd
  0
BLOCK
  5
2BB1
330
2BB0
100
AcDbEntity
  8
0
100
AcDbBlockBegin
  2
*U44
 70
     1
 10
0.0
 20
0.0
 30
0.0
  3
*U44
  1

  0
TEXT
  5
1F21
330
2BB0
100
AcDbEntity
  8
SIZE
 62
     0
100
AcDbText
 10
-25739.70394705074
 20
7247.685576144205
 30
0.0
 40
64.0
  1
269
 41
0.9
100
AcDbText
  0
ENDBLK
  5
1F23
330
2BB0
100
AcDbEntity
  8
0
100
AcDbBlockEnd
  0
BLOCK
  5
2BB3
330
2BB2
100
AcDbEntity
  8
0
100
AcDbBlockBegin
  2
*D45
 70
     1
 10
0.0
 20
0.0
 30
0.0
  3
*D45
  1

  0
LINE
  5
16B8
330
2BB2
100
AcDbEntity
  8
SIZE
 62
     0
100
AcDbLine
 10
-25512.51823276502
 20
7385.702971374808
 30
0.0
 11
-25362.37494828464
 21
7385.702971374808
 31
0.0
  0
LINE
  5
16B9
330
2BB2
100
AcDbEntity
  8
SIZE
 62
     0
100
AcDbLine
 10
-25489.51823276501
 20
7685.702971374808
 30
0.0
 11
-25362.37494828464
 21
7685.702971374808
 31
0.0
  0
LINE
  5
16BA
330
2BB2
100
AcDbEntity
  8
SIZE
 62
     0
100
AcDbLine
 10
-25382.37494828464
 20
7397.702971374808
 30
0.0
 11
-25382.37494828464
 21
7673.702971374808
 31
0.0
  0
INSERT
  5
16BB
330
2BB2
100
AcDbEntity
  8
SIZE
 62
     0
100
AcDbBlockReference
  2
_DOTBLANK
 10
-25382.37494828464
 20
7385.702971374808
 30
0.0
 41
12.0
 42
12.0
 43
12.0
 50
270.0
  0
INSERT
  5
16BC
330
2BB2
100
AcDbEntity
  8
SIZE
 62
     0
100
AcDbBlockReference
  2
_DOTBLANK
 10
-25382.37494828464
 20
7685.702971374808
 30
0.0
 41
12.0
 42
12.0
 43
12.0
 50
90.0
  0
INSERT
  5
16BD
330
2BB2
100
AcDbEntity
  8
0
100
AcDbBlockReference
  2
*U46
 10
0.0
 20
0.0
 30
0.0
  0
POINT
  5
16BE
330
2BB2
100
AcDbEntity
  8
DEFPOINTS
 62
     0
100
AcDbPoint
 10
-25532.51823276502
 20
7385.702971374808
 30
0.0
  0
POINT
  5
16BF
330
2BB2
100
AcDbEntity
  8
DEFPOINTS
 62
     0
100
AcDbPoint
 10
-25509.51823276502
 20
7685.702971374808
 30
0.0
  0
POINT
  5
16C0
330
2BB2
100
AcDbEntity
  8
DEFPOINTS
 62
     0
100
AcDbPoint
 10
-25382.37494828464
 20
7685.702971374808
 30
0.0
  0
ENDBLK
  5
16C1
330
2BB2
100
AcDbEntity
  8
0
100
AcDbBlockEnd
  0
BLOCK
  5
2BB5
330
2BB4
100
AcDbEntity
  8
0
100
AcDbBlockBegin
  2
*U46
 70
     1
 10
0.0
 20
0.0
 30
0.0
  3
*U46
  1

  0
TEXT
  5
1F25
330
2BB4
100
AcDbEntity
  8
SIZE
 62
     0
100
AcDbText
 10
-25392.37494828464
 20
7461.645828517662
 30
0.0
 40
64.0
  1
300
 50
90.0
 41
0.9
100
AcDbText
  0
ENDBLK
  5
1F27
330
2BB4
100
AcDbEntity
  8
0
100
AcDbBlockEnd
  0
BLOCK
  5
2BB7
330
2BB6
100
AcDbEntity
  8
0
100
AcDbBlockBegin
  2
*D47
 70
     1
 10
0.0
 20
0.0
 30
0.0
  3
*D47
  1

  0
LINE
  5
16C4
330
2BB6
100
AcDbEntity
  8
SIZE
 62
     0
100
AcDbLine
 10
-25807.01823276501
 20
7718.167454177002
 30
0.0
 11
-25807.01823276501
 21
7822.154659243358
 31
0.0
  0
LINE
  5
16C5
330
2BB6
100
AcDbEntity
  8
SIZE
 62
     0
100
AcDbLine
 10
-25527.01823276501
 20
7718.167454177002
 30
0.0
 11
-25527.01823276501
 21
7822.154659243358
 31
0.0
  0
LINE
  5
16C6
330
2BB6
100
AcDbEntity
  8
SIZE
 62
     0
100
AcDbLine
 10
-25795.01823276502
 20
7802.154659243358
 30
0.0
 11
-25539.01823276501
 21
7802.154659243358
 31
0.0
  0
INSERT
  5
16C7
330
2BB6
100
AcDbEntity
  8
SIZE
 62
     0
100
AcDbBlockReference
  2
_DOTBLANK
 10
-25807.01823276501
 20
7802.154659243358
 30
0.0
 41
12.0
 42
12.0
 43
12.0
 50
180.0
  0
INSERT
  5
16C8
330
2BB6
100
AcDbEntity
  8
SIZE
 62
     0
100
AcDbBlockReference
  2
_DOTBLANK
 10
-25527.01823276501
 20
7802.154659243358
 30
0.0
 41
12.0
 42
12.0
 43
12.0
  0
INSERT
  5
16C9
330
2BB6
100
AcDbEntity
  8
0
100
AcDbBlockReference
  2
*U48
 10
0.0
 20
0.0
 30
0.0
  0
POINT
  5
16CA
330
2BB6
100
AcDbEntity
  8
DEFPOINTS
 62
     0
100
AcDbPoint
 10
-25807.01823276501
 20
7698.167454177002
 30
0.0
  0
POINT
  5
16CB
330
2BB6
100
AcDbEntity
  8
DEFPOINTS
 62
     0
100
AcDbPoint
 10
-25527.01823276501
 20
7698.167454177002
 30
0.0
  0
POINT
  5
16CC
330
2BB6
100
AcDbEntity
  8
DEFPOINTS
 62
     0
100
AcDbPoint
 10
-25527.01823276501
 20
7802.154659243358
 30
0.0
  0
ENDBLK
  5
16CD
330
2BB6
100
AcDbEntity
  8
0
100
AcDbBlockEnd
  0
BLOCK
  5
2BB9
330
2BB8
100
AcDbEntity
  8
0
100
AcDbBlockBegin
  2
*U48
 70
     1
 10
0.0
 20
0.0
 30
0.0
  3
*U48
  1

  0
TEXT
  5
1F29
330
2BB8
100
AcDbEntity
  8
SIZE
 62
     0
100
AcDbText
 10
-25741.07537562216
 20
7812.154659243358
 30
0.0
 40
64.0
  1
280
 41
0.9
100
AcDbText
  0
ENDBLK
  5
1F2B
330
2BB8
100
AcDbEntity
  8
0
100
AcDbBlockEnd
  0
BLOCK
  5
2BBB
330
2BBA
100
AcDbEntity
  8
0
100
AcDbBlockBegin
  2
*D49
 70
     1
 10
0.0
 20
0.0
 30
0.0
  3
*D49
  1

  0
LINE
  5
16D0
330
2BBA
100
AcDbEntity
  8
SIZE
 62
     0
100
AcDbLine
 10
-25824.51823276501
 20
7705.702971374808
 30
0.0
 11
-25824.51823276501
 21
7931.282433493766
 31
0.0
  0
LINE
  5
16D1
330
2BBA
100
AcDbEntity
  8
SIZE
 62
     0
100
AcDbLine
 10
-25509.51823276502
 20
7705.702971374808
 30
0.0
 11
-25509.51823276502
 21
7931.282433493766
 31
0.0
  0
LINE
  5
16D2
330
2BBA
100
AcDbEntity
  8
SIZE
 62
     0
100
AcDbLine
 10
-25812.51823276502
 20
7911.282433493766
 30
0.0
 11
-25521.51823276501
 21
7911.282433493766
 31
0.0
  0
INSERT
  5
16D3
330
2BBA
100
AcDbEntity
  8
SIZE
 62
     0
100
AcDbBlockReference
  2
_DOTBLANK
 10
-25824.51823276501
 20
7911.282433493766
 30
0.0
 41
12.0
 42
12.0
 43
12.0
 50
180.0
  0
INSERT
  5
16D4
330
2BBA
100
AcDbEntity
  8
SIZE
 62
     0
100
AcDbBlockReference
  2
_DOTBLANK
 10
-25509.51823276502
 20
7911.282433493766
 30
0.0
 41
12.0
 42
12.0
 43
12.0
  0
INSERT
  5
16D5
330
2BBA
100
AcDbEntity
  8
0
100
AcDbBlockReference
  2
*U50
 10
0.0
 20
0.0
 30
0.0
  0
POINT
  5
16D6
330
2BBA
100
AcDbEntity
  8
DEFPOINTS
 62
     0
100
AcDbPoint
 10
-25824.51823276501
 20
7685.702971374808
 30
0.0
  0
POINT
  5
16D7
330
2BBA
100
AcDbEntity
  8
DEFPOINTS
 62
     0
100
AcDbPoint
 10
-25509.51823276502
 20
7685.702971374808
 30
0.0
  0
POINT
  5
16D8
330
2BBA
100
AcDbEntity
  8
DEFPOINTS
 62
     0
100
AcDbPoint
 10
-25509.51823276502
 20
7911.282433493766
 30
0.0
  0
ENDBLK
  5
16D9
330
2BBA
100
AcDbEntity
  8
0
100
AcDbBlockEnd
  0
BLOCK
  5
2BBD
330
2BBC
100
AcDbEntity
  8
0
100
AcDbBlockBegin
  2
*U50
 70
     1
 10
0.0
 20
0.0
 30
0.0
  3
*U50
  1

  0
TEXT
  5
1F2D
330
2BBC
100
AcDbEntity
  8
SIZE
 62
     0
100
AcDbText
 10
-25735.58966133645
 20
7921.282433493766
 30
0.0
 40
64.0
  1
315
 41
0.9
100
AcDbText
  0
ENDBLK
  5
1F2F
330
2BBC
100
AcDbEntity
  8
0
100
AcDbBlockEnd
  0
BLOCK
  5
2BBF
330
2BBE
100
AcDbEntity
  8
0
100
AcDbBlockBegin
  2
*D51
 70
     1
 10
0.0
 20
0.0
 30
0.0
  3
*D51
  1

  0
LINE
  5
1D83
330
2BBE
100
AcDbEntity
  8
SIZE
 62
     0
100
AcDbLine
 10
-134.5
 20
-320.0
 30
0.0
 11
-134.5
 21
-468.0173952306001
 31
0.0
  0
LINE
  5
1D84
330
2BBE
100
AcDbEntity
  8
SIZE
 62
     0
100
AcDbLine
 10
134.5
 20
-320.0
 30
0.0
 11
134.5
 21
-468.0173952306001
 31
0.0
  0
LINE
  5
1D85
330
2BBE
100
AcDbEntity
  8
SIZE
 62
     0
100
AcDbLine
 10
-122.5
 20
-448.0173952306
 30
0.0
 11
122.5
 21
-448.0173952306
 31
0.0
  0
INSERT
  5
1D86
330
2BBE
100
AcDbEntity
  8
SIZE
 62
     0
100
AcDbBlockReference
  2
_DOTBLANK
 10
-134.5
 20
-448.0173952306
 30
0.0
 41
12.0
 42
12.0
 43
12.0
 50
180.0
  0
INSERT
  5
1D87
330
2BBE
100
AcDbEntity
  8
SIZE
 62
     0
100
AcDbBlockReference
  2
_DOTBLANK
 10
134.5
 20
-448.0173952306
 30
0.0
 41
12.0
 42
12.0
 43
12.0
  0
INSERT
  5
1D88
330
2BBE
100
AcDbEntity
  8
0
100
AcDbBlockReference
  2
*U52
 10
0.0
 20
0.0
 30
0.0
  0
POINT
  5
1D89
330
2BBE
100
AcDbEntity
  8
DEFPOINTS
 62
     0
100
AcDbPoint
 10
-134.5
 20
-300.0
 30
0.0
  0
POINT
  5
1D8A
330
2BBE
100
AcDbEntity
  8
DEFPOINTS
 62
     0
100
AcDbPoint
 10
134.5
 20
-300.0
 30
0.0
  0
POINT
  5
1D8B
330
2BBE
100
AcDbEntity
  8
DEFPOINTS
 62
     0
100
AcDbPoint
 10
134.5
 20
-448.0173952306
 30
0.0
  0
ENDBLK
  5
173D
330
2BBE
100
AcDbEntity
  8
0
100
AcDbBlockEnd
  0
BLOCK
  5
2BC1
330
2BC0
100
AcDbEntity
  8
0
100
AcDbBlockBegin
  2
*U52
 70
     1
 10
0.0
 20
0.0
 30
0.0
  3
*U52
  1

  0
TEXT
  5
1F31
330
2BC0
100
AcDbEntity
  8
SIZE
 62
     0
100
AcDbText
 10
-72.68571428571426
 20
-438.0173952306003
 30
0.0
 40
64.0
  1
269
 41
0.9
100
AcDbText
  0
ENDBLK
  5
1F33
330
2BC0
100
AcDbEntity
  8
0
100
AcDbBlockEnd
  0
BLOCK
  5
2BC3
330
2BC2
100
AcDbEntity
  8
0
100
AcDbBlockBegin
  2
*D53
 70
     1
 10
0.0
 20
0.0
 30
0.0
  3
*D53
  1

  0
LINE
  5
1D8C
330
2BC2
100
AcDbEntity
  8
SIZE
 62
     0
100
AcDbLine
 10
154.5
 20
-300.0
 30
0.0
 11
304.6432844803784
 21
-300.0
 31
0.0
  0
LINE
  5
1D8D
330
2BC2
100
AcDbEntity
  8
SIZE
 62
     0
100
AcDbLine
 10
177.5
 20
-0.0000000000000057
 30
0.0
 11
304.6432844803785
 21
-0.0000000000000417
 31
0.0
  0
LINE
  5
1D8E
330
2BC2
100
AcDbEntity
  8
SIZE
 62
     0
100
AcDbLine
 10
284.6432844803784
 20
-288.0
 30
0.0
 11
284.6432844803785
 21
-12.00000000000003
 31
0.0
  0
INSERT
  5
1D8F
330
2BC2
100
AcDbEntity
  8
SIZE
 62
     0
100
AcDbBlockReference
  2
_DOTBLANK
 10
284.6432844803784
 20
-300.0
 30
0.0
 41
12.0
 42
12.0
 43
12.0
 50
270.0
  0
INSERT
  5
1D90
330
2BC2
100
AcDbEntity
  8
SIZE
 62
     0
100
AcDbBlockReference
  2
_DOTBLANK
 10
284.6432844803785
 20
-0.000000000000036
 30
0.0
 41
12.0
 42
12.0
 43
12.0
 50
90.0
  0
INSERT
  5
1D91
330
2BC2
100
AcDbEntity
  8
0
100
AcDbBlockReference
  2
*U54
 10
0.0
 20
0.0
 30
0.0
  0
POINT
  5
1D92
330
2BC2
100
AcDbEntity
  8
DEFPOINTS
 62
     0
100
AcDbPoint
 10
134.5
 20
-300.0
 30
0.0
  0
POINT
  5
1D93
330
2BC2
100
AcDbEntity
  8
DEFPOINTS
 62
     0
100
AcDbPoint
 10
157.5
 20
0.0
 30
0.0
  0
POINT
  5
1D94
330
2BC2
100
AcDbEntity
  8
DEFPOINTS
 62
     0
100
AcDbPoint
 10
284.6432844803785
 20
-0.000000000000036
 30
0.0
  0
ENDBLK
  5
1749
330
2BC2
100
AcDbEntity
  8
0
100
AcDbBlockEnd
  0
BLOCK
  5
2BC5
330
2BC4
100
AcDbEntity
  8
0
100
AcDbBlockBegin
  2
*U54
 70
     1
 10
0.0
 20
0.0
 30
0.0
  3
*U54
  1

  0
TEXT
  5
1F35
330
2BC4
100
AcDbEntity
  8
SIZE
 62
     0
100
AcDbText
 10
274.6432844803785
 20
-224.0571428571429
 30
0.0
 40
64.0
  1
300
 50
90.0
 41
0.9
100
AcDbText
  0
ENDBLK
  5
1F37
330
2BC4
100
AcDbEntity
  8
0
100
AcDbBlockEnd
  0
BLOCK
  5
2BC7
330
2BC6
100
AcDbEntity
  8
0
100
AcDbBlockBegin
  2
*D55
 70
     1
 10
0.0
 20
0.0
 30
0.0
  3
*D55
  1

  0
LINE
  5
1D95
330
2BC6
100
AcDbEntity
  8
SIZE
 62
     0
100
AcDbLine
 10
-140.0
 20
32.46448280219375
 30
0.0
 11
-140.0
 21
136.4516878685508
 31
0.0
  0
LINE
  5
1D96
330
2BC6
100
AcDbEntity
  8
SIZE
 62
     0
100
AcDbLine
 10
140.0
 20
32.46448280219375
 30
0.0
 11
140.0
 21
136.4516878685508
 31
0.0
  0
LINE
  5
1D97
330
2BC6
100
AcDbEntity
  8
SIZE
 62
     0
100
AcDbLine
 10
-128.0
 20
116.4516878685508
 30
0.0
 11
128.0
 21
116.4516878685508
 31
0.0
  0
INSERT
  5
1D98
330
2BC6
100
AcDbEntity
  8
SIZE
 62
     0
100
AcDbBlockReference
  2
_DOTBLANK
 10
-140.0
 20
116.4516878685508
 30
0.0
 41
12.0
 42
12.0
 43
12.0
 50
180.0
  0
INSERT
  5
1D99
330
2BC6
100
AcDbEntity
  8
SIZE
 62
     0
100
AcDbBlockReference
  2
_DOTBLANK
 10
140.0
 20
116.4516878685508
 30
0.0
 41
12.0
 42
12.0
 43
12.0
  0
INSERT
  5
1D9A
330
2BC6
100
AcDbEntity
  8
0
100
AcDbBlockReference
  2
*U56
 10
0.0
 20
0.0
 30
0.0
  0
POINT
  5
1D9B
330
2BC6
100
AcDbEntity
  8
DEFPOINTS
 62
     0
100
AcDbPoint
 10
-140.0
 20
12.46448280219374
 30
0.0
  0
POINT
  5
1D9C
330
2BC6
100
AcDbEntity
  8
DEFPOINTS
 62
     0
100
AcDbPoint
 10
140.0
 20
12.46448280219374
 30
0.0
  0
POINT
  5
1D9D
330
2BC6
100
AcDbEntity
  8
DEFPOINTS
 62
     0
100
AcDbPoint
 10
140.0
 20
116.4516878685508
 30
0.0
  0
ENDBLK
  5
1755
330
2BC6
100
AcDbEntity
  8
0
100
AcDbBlockEnd
  0
BLOCK
  5
2BC9
330
2BC8
100
AcDbEntity
  8
0
100
AcDbBlockBegin
  2
*U56
 70
     1
 10
0.0
 20
0.0
 30
0.0
  3
*U56
  1

  0
TEXT
  5
1F39
330
2BC8
100
AcDbEntity
  8
SIZE
 62
     0
100
AcDbText
 10
-74.05714285714283
 20
126.4516878685508
 30
0.0
 40
64.0
  1
280
 41
0.9
100
AcDbText
  0
ENDBLK
  5
1F3B
330
2BC8
100
AcDbEntity
  8
0
100
AcDbBlockEnd
  0
BLOCK
  5
2BCB
330
2BCA
100
AcDbEntity
  8
0
100
AcDbBlockBegin
  2
*D57
 70
     1
 10
0.0
 20
0.0
 30
0.0
  3
*D57
  1

  0
LINE
  5
1D9E
330
2BCA
100
AcDbEntity
  8
SIZE
 62
     0
100
AcDbLine
 10
-157.5
 20
20.0
 30
0.0
 11
-157.5
 21
245.5794621189598
 31
0.0
  0
LINE
  5
1D9F
330
2BCA
100
AcDbEntity
  8
SIZE
 62
     0
100
AcDbLine
 10
157.5
 20
20.0
 30
0.0
 11
157.5
 21
245.5794621189598
 31
0.0
  0
LINE
  5
1DA0
330
2BCA
100
AcDbEntity
  8
SIZE
 62
     0
100
AcDbLine
 10
-145.5
 20
225.5794621189598
 30
0.0
 11
145.5
 21
225.5794621189598
 31
0.0
  0
INSERT
  5
1DA1
330
2BCA
100
AcDbEntity
  8
SIZE
 62
     0
100
AcDbBlockReference
  2
_DOTBLANK
 10
-157.5
 20
225.5794621189598
 30
0.0
 41
12.0
 42
12.0
 43
12.0
 50
180.0
  0
INSERT
  5
1DA2
330
2BCA
100
AcDbEntity
  8
SIZE
 62
     0
100
AcDbBlockReference
  2
_DOTBLANK
 10
157.5
 20
225.5794621189598
 30
0.0
 41
12.0
 42
12.0
 43
12.0
  0
INSERT
  5
1DA3
330
2BCA
100
AcDbEntity
  8
0
100
AcDbBlockReference
  2
*U58
 10
0.0
 20
0.0
 30
0.0
  0
POINT
  5
1DA4
330
2BCA
100
AcDbEntity
  8
DEFPOINTS
 62
     0
100
AcDbPoint
 10
-157.5
 20
0.0
 30
0.0
  0
POINT
  5
1DA5
330
2BCA
100
AcDbEntity
  8
DEFPOINTS
 62
     0
100
AcDbPoint
 10
157.5
 20
0.0
 30
0.0
  0
POINT
  5
1DA6
330
2BCA
100
AcDbEntity
  8
DEFPOINTS
 62
     0
100
AcDbPoint
 10
157.5
 20
225.5794621189598
 30
0.0
  0
ENDBLK
  5
1761
330
2BCA
100
AcDbEntity
  8
0
100
AcDbBlockEnd
  0
BLOCK
  5
2BCD
330
2BCC
100
AcDbEntity
  8
0
100
AcDbBlockBegin
  2
*U58
 70
     1
 10
0.0
 20
0.0
 30
0.0
  3
*U58
  1

  0
TEXT
  5
1F3D
330
2BCC
100
AcDbEntity
  8
SIZE
 62
     0
100
AcDbText
 10
-68.57142857142857
 20
235.5794621189599
 30
0.0
 40
64.0
  1
315
 41
0.9
100
AcDbText
  0
ENDBLK
  5
1F3F
330
2BCC
100
AcDbEntity
  8
0
100
AcDbBlockEnd
  0
BLOCK
  5
2BCF
330
2BCE
100
AcDbEntity
  8
0
100
AcDbBlockBegin
  2
*D59
 70
     1
 10
0.0
 20
0.0
 30
0.0
  3
*D59
  1

  0
LINE
  5
1DA7
330
2BCE
100
AcDbEntity
  8
SIZE
 62
     0
100
AcDbLine
 10
-177.5
 20
0.0000000000000057
 30
0.0
 11
-314.0264221186908
 21
0.0000000000000443
 31
0.0
  0
LINE
  5
1DA8
330
2BCE
100
AcDbEntity
  8
SIZE
 62
     0
100
AcDbLine
 10
-177.5
 20
-7.999999999999993
 30
0.0
 11
-314.0264221186908
 21
-7.999999999999958
 31
0.0
  0
LINE
  5
1DA9
330
2BCE
100
AcDbEntity
  8
SIZE
 62
     0
100
AcDbLine
 10
-294.0264221186908
 20
12.00000000000003
 30
0.0
 11
-294.0264221186908
 21
24.00000000000004
 31
0.0
  0
LINE
  5
1DAA
330
2BCE
100
AcDbEntity
  8
SIZE
 62
     0
100
AcDbLine
 10
-294.0264221186908
 20
-19.99999999999996
 30
0.0
 11
-294.0264221186908
 21
-90.39999999999997
 31
0.0
  0
INSERT
  5
1DAB
330
2BCE
100
AcDbEntity
  8
SIZE
 62
     0
100
AcDbBlockReference
  2
_DOTBLANK
 10
-294.0264221186908
 20
0.0000000000000387
 30
0.0
 41
12.0
 42
12.0
 43
12.0
 50
270.0
  0
INSERT
  5
1DAC
330
2BCE
100
AcDbEntity
  8
SIZE
 62
     0
100
AcDbBlockReference
  2
_DOTBLANK
 10
-294.0264221186908
 20
-7.999999999999961
 30
0.0
 41
12.0
 42
12.0
 43
12.0
 50
90.0
  0
INSERT
  5
1DAD
330
2BCE
100
AcDbEntity
  8
0
100
AcDbBlockReference
  2
*U60
 10
0.0
 20
0.0
 30
0.0
  0
POINT
  5
1DAE
330
2BCE
100
AcDbEntity
  8
DEFPOINTS
 62
     0
100
AcDbPoint
 10
-157.5
 20
0.0
 30
0.0
  0
POINT
  5
1DAF
330
2BCE
100
AcDbEntity
  8
DEFPOINTS
 62
     0
100
AcDbPoint
 10
-157.5
 20
-8.000000000000003
 30
0.0
  0
POINT
  5
1DB0
330
2BCE
100
AcDbEntity
  8
DEFPOINTS
 62
     0
100
AcDbPoint
 10
-294.0264221186908
 20
-7.999999999999961
 30
0.0
  0
ENDBLK
  5
176D
330
2BCE
100
AcDbEntity
  8
0
100
AcDbBlockEnd
  0
BLOCK
  5
2BD1
330
2BD0
100
AcDbEntity
  8
0
100
AcDbBlockBegin
  2
*U60
 70
     1
 10
0.0
 20
0.0
 30
0.0
  3
*U60
  1

  0
TEXT
  5
1F41
330
2BD0
100
AcDbEntity
  8
SIZE
 62
     0
100
AcDbText
 10
-304.0264221186908
 20
-80.4
 30
0.0
 40
64.0
  1
8
 50
90.0
 41
0.9
100
AcDbText
  0
ENDBLK
  5
1F43
330
2BD0
100
AcDbEntity
  8
0
100
AcDbBlockEnd
  0
BLOCK
  5
2BD3
330
2BD2
100
AcDbEntity
  8
0
100
AcDbBlockBegin
  2
*D61
 70
     1
 10
0.0
 20
0.0
 30
0.0
  3
*D61
  1

  0
LINE
  5
1DB1
330
2BD2
100
AcDbEntity
  8
SIZE
 62
     0
100
AcDbLine
 10
154.5
 20
-300.0
 30
0.0
 11
304.6432844803785
 21
-300.0
 31
0.0
  0
LINE
  5
1DB2
330
2BD2
100
AcDbEntity
  8
SIZE
 62
     0
100
AcDbLine
 10
143.5
 20
-312.0
 30
0.0
 11
304.6432844803785
 21
-312.0
 31
0.0
  0
LINE
  5
1DB3
330
2BD2
100
AcDbEntity
  8
SIZE
 62
     0
100
AcDbLine
 10
284.6432844803785
 20
-288.0
 30
0.0
 11
284.6432844803785
 21
-276.0
 31
0.0
  0
LINE
  5
1DB4
330
2BD2
100
AcDbEntity
  8
SIZE
 62
     0
100
AcDbLine
 10
284.6432844803785
 20
-324.0000000000001
 30
0.0
 11
284.6432844803784
 21
-438.2857142857143
 31
0.0
  0
INSERT
  5
1DB5
330
2BD2
100
AcDbEntity
  8
SIZE
 62
     0
100
AcDbBlockReference
  2
_DOTBLANK
 10
284.6432844803785
 20
-300.0
 30
0.0
 41
12.0
 42
12.0
 43
12.0
 50
270.0
  0
INSERT
  5
1DB6
330
2BD2
100
AcDbEntity
  8
SIZE
 62
     0
100
AcDbBlockReference
  2
_DOTBLANK
 10
284.6432844803785
 20
-312.0
 30
0.0
 41
12.0
 42
12.0
 43
12.0
 50
90.0
  0
INSERT
  5
1DB7
330
2BD2
100
AcDbEntity
  8
0
100
AcDbBlockReference
  2
*U62
 10
0.0
 20
0.0
 30
0.0
  0
POINT
  5
1DB8
330
2BD2
100
AcDbEntity
  8
DEFPOINTS
 62
     0
100
AcDbPoint
 10
134.5
 20
-300.0
 30
0.0
  0
POINT
  5
1DB9
330
2BD2
100
AcDbEntity
  8
DEFPOINTS
 62
     0
100
AcDbPoint
 10
123.5
 20
-312.0
 30
0.0
  0
POINT
  5
1DBA
330
2BD2
100
AcDbEntity
  8
DEFPOINTS
 62
     0
100
AcDbPoint
 10
284.6432844803785
 20
-312.0
 30
0.0
  0
ENDBLK
  5
177B
330
2BD2
100
AcDbEntity
  8
0
100
AcDbBlockEnd
  0
BLOCK
  5
2BD5
330
2BD4
100
AcDbEntity
  8
0
100
AcDbBlockBegin
  2
*U62
 70
     1
 10
0.0
 20
0.0
 30
0.0
  3
*U62
  1

  0
TEXT
  5
1F45
330
2BD4
100
AcDbEntity
  8
SIZE
 62
     0
100
AcDbText
 10
274.6432844803785
 20
-428.2857142857142
 30
0.0
 40
64.0
  1
12
 50
90.0
 41
0.9
100
AcDbText
  0
ENDBLK
  5
1F47
330
2BD4
100
AcDbEntity
  8
0
100
AcDbBlockEnd
  0
BLOCK
  5
2BD7
330
2BD6
100
AcDbEntity
  8
0
100
AcDbBlockBegin
  2
*U63
 70
     1
 10
0.0
 20
0.0
 30
0.0
  3
*U63
  1

  0
ENDBLK
  5
1D57
330
2BD6
100
AcDbEntity
  8
0
100
AcDbBlockEnd
  0
BLOCK
  5
2BD9
330
2BD8
100
AcDbEntity
  8
0
100
AcDbBlockBegin
  2
*U64
 70
     1
 10
0.0
 20
0.0
 30
0.0
  3
*U64
  1

  0
INSERT
  5
2088
330
2BD8
100
AcDbEntity
  8
NOTE
100
AcDbBlockReference
  2
_OPEN30
 10
-140.0
 20
0.0
 30
0.0
 41
12.0
 42
12.0
 43
12.0
 50
312.6090116116894
  0
POLYLINE
  5
2089
330
2BD8
100
AcDbEntity
  8
NOTE
100
AcDb2dPolyline
 66
     1
 10
0.0
 20
0.0
 30
0.0
  0
VERTEX
  5
2124
330
2089
100
AcDbEntity
  8
NOTE
100
AcDbVertex
100
AcDb2dVertex
 10
-148.1239008361894
 20
8.831887408915472
 30
0.0
  0
VERTEX
  5
2125
330
2089
100
AcDbEntity
  8
NOTE
100
AcDbVertex
100
AcDb2dVertex
 10
-227.8693999922543
 20
95.52709505801338
 30
0.0
  0
VERTEX
  5
2126
330
2089
100
AcDbEntity
  8
NOTE
100
AcDbVertex
100
AcDb2dVertex
 10
-773.7093999922541
 20
95.52709505801338
 30
0.0
  0
SEQEND
  5
2127
330
2089
100
AcDbEntity
  8
NOTE
  0
ENDBLK
  5
208A
330
2BD8
100
AcDbEntity
  8
0
100
AcDbBlockEnd
  0
BLOCK
  5
2BDB
330
2BDA
100
AcDbEntity
  8
0
100
AcDbBlockBegin
  2
*U65
 70
     1
 10
0.0
 20
0.0
 30
0.0
  3
*U65
  1

  0
TEXT
  5
208D
330
2BDA
100
AcDbEntity
  8
NOTE
100
AcDbText
 10
-773.7093999922541
 20
113.5270950580134
 30
0.0
 40
64.0
  1
4×φ10取付穴
 41
0.9
100
AcDbText
  0
ENDBLK
  5
208E
330
2BDA
100
AcDbEntity
  8
0
100
AcDbBlockEnd
  0
BLOCK
  5
2BDD
330
2BDC
100
AcDbEntity
  8
0
100
AcDbBlockBegin
  2
*U66
 70
     1
 10
0.0
 20
0.0
 30
0.0
  3
*U66
  1

  0
INSERT
  5
25A0
330
2BDC
100
AcDbEntity
  8
NOTE
100
AcDbBlockReference
  2
_OPEN30
 10
-450.0
 20
0.0
 30
0.0
 41
12.0
 42
12.0
 43
12.0
 50
312.6090116116894
  0
POLYLINE
  5
25A1
330
2BDC
100
AcDbEntity
  8
NOTE
100
AcDb2dPolyline
 66
     1
 10
0.0
 20
0.0
 30
0.0
  0
VERTEX
  5
25A2
330
25A1
100
AcDbEntity
  8
NOTE
100
AcDbVertex
100
AcDb2dVertex
 10
-458.1239008361895
 20
8.831887408915472
 30
0.0
  0
VERTEX
  5
25A3
330
25A1
100
AcDbEntity
  8
NOTE
100
AcDbVertex
100
AcDb2dVertex
 10
-537.8693999922543
 20
95.52709505801338
 30
0.0
  0
VERTEX
  5
25A4
330
25A1
100
AcDbEntity
  8
NOTE
100
AcDbVertex
100
AcDb2dVertex
 10
-1127.595114277968
 20
95.52709505801338
 30
0.0
  0
SEQEND
  5
25A5
330
25A1
100
AcDbEntity
  8
NOTE
  0
ENDBLK
  5
25A6
330
2BDC
100
AcDbEntity
  8
0
100
AcDbBlockEnd
  0
BLOCK
  5
2BDF
330
2BDE
100
AcDbEntity
  8
0
100
AcDbBlockBegin
  2
*U67
 70
     1
 10
0.0
 20
0.0
 30
0.0
  3
*U67
  1

  0
TEXT
  5
25A9
330
2BDE
100
AcDbEntity
  8
NOTE
100
AcDbText
 10
-1127.595114277968
 20
113.5270950580134
 30
0.0
 40
64.0
  1
16×φ15取付穴
 41
0.9
100
AcDbText
  0
ENDBLK
  5
25AA
330
2BDE
100
AcDbEntity
  8
0
100
AcDbBlockEnd
  0
BLOCK
  5
2BE1
330
2BE0
100
AcDbEntity
  8
0
100
AcDbBlockBegin
  2
*U68
 70
     1
 10
0.0
 20
0.0
 30
0.0
  3
*U68
  1

  0
INSERT
  5
28A0
330
2BE0
100
AcDbEntity
  8
NOTE
100
AcDbBlockReference
  2
_OPEN30
 10
-450.0
 20
0.0
 30
0.0
 41
12.0
 42
12.0
 43
12.0
 50
312.6090116116889
  0
POLYLINE
  5
28A1
330
2BE0
100
AcDbEntity
  8
NOTE
100
AcDb2dPolyline
 66
     1
 10
0.0
 20
0.0
 30
0.0
  0
VERTEX
  5
28A2
330
28A1
100
AcDbEntity
  8
NOTE
100
AcDbVertex
100
AcDb2dVertex
 10
-458.1239008361894
 20
8.831887408915555
 30
0.0
  0
VERTEX
  5
28A3
330
28A1
100
AcDbEntity
  8
NOTE
100
AcDbVertex
100
AcDb2dVertex
 10
-537.8693999922525
 20
95.52709505801338
 30
0.0
  0
VERTEX
  5
28A4
330
28A1
100
AcDbEntity
  8
NOTE
100
AcDbVertex
100
AcDb2dVertex
 10
-1127.595114277967
 20
95.52709505801338
 30
0.0
  0
SEQEND
  5
28A5
330
28A1
100
AcDbEntity
  8
NOTE
  0
ENDBLK
  5
28A6
330
2BE0
100
AcDbEntity
  8
0
100
AcDbBlockEnd
  0
BLOCK
  5
2BE3
330
2BE2
100
AcDbEntity
  8
0
100
AcDbBlockBegin
  2
*U69
 70
     1
 10
0.0
 20
0.0
 30
0.0
  3
*U69
  1

  0
TEXT
  5
28A9
330
2BE2
100
AcDbEntity
  8
NOTE
100
AcDbText
 10
-1127.595114277967
 20
113.5270950580134
 30
0.0
 40
64.0
  1
16×φ15取付穴
 41
0.9
100
AcDbText
  0
ENDBLK
  5
28AA
330
2BE2
100
AcDbEntity
  8
0
100
AcDbBlockEnd
  0
BLOCK
  5
2BE5
330
2BE4
100
AcDbEntity
  8
0
100
AcDbBlockBegin
  2
*X70
 70
     1
 10
0.0
 20
0.0
 30
0.0
  3
*X70
  1

  0
LINE
  5
28AD
330
2BE4
100
AcDbEntity
  8
0
 62
     0
100
AcDbLine
 10
-411.5000000000017
 20
-767.6518999584004
 30
0.0
 11
-404.4689862048308
 21
-771.0000000000027
 31
0.0
  0
LINE
  5
28AE
330
2BE4
100
AcDbEntity
  8
0
 62
     0
100
AcDbLine
 10
-411.5000000000052
 20
-757.6519482142656
 30
0.0
 11
-383.4690764678417
 21
-771.0000000000027
 31
0.0
  0
LINE
  5
28AF
330
2BE4
100
AcDbEntity
  8
0
 62
     0
100
AcDbLine
 10
-411.5000000000036
 20
-747.651996470131
 30
0.0
 11
-362.4691667308507
 21
-771.0000000000006
 31
0.0
  0
LINE
  5
28B0
330
2BE4
100
AcDbEntity
  8
0
 62
     0
100
AcDbLine
 10
-411.5000000000036
 20
-737.6520447259963
 30
0.0
 11
-341.4692569938616
 21
-771.0000000000006
 31
0.0
  0
LINE
  5
28B1
330
2BE4
100
AcDbEntity
  8
0
 62
     0
100
AcDbLine
 10
-411.5000000000052
 20
-727.6520929818633
 30
0.0
 11
-320.4693472568706
 21
-771.0000000000027
 31
0.0
  0
LINE
  5
28B2
330
2BE4
100
AcDbEntity
  8
0
 62
     0
100
AcDbLine
 10
-411.5000000000017
 20
-717.6521412377288
 30
0.0
 11
-299.4694375198777
 21
-771.0000000000027
 31
0.0
  0
LINE
  5
28B3
330
2BE4
100
AcDbEntity
  8
0
 62
     0
100
AcDbLine
 10
-411.5000000000036
 20
-707.652189493594
 30
0.0
 11
-278.4695277828887
 21
-771.0000000000027
 31
0.0
  0
LINE
  5
28B4
330
2BE4
100
AcDbEntity
  8
0
 62
     0
100
AcDbLine
 10
-411.5000000000036
 20
-697.6522377494593
 30
0.0
 11
-257.4696180458959
 21
-771.0000000000027
 31
0.0
  0
LINE
  5
28B5
330
2BE4
100
AcDbEntity
  8
0
 62
     0
100
AcDbLine
 10
-411.5000000000036
 20
-687.6522860053236
 30
0.0
 11
-236.4697083089086
 21
-771.0000000000006
 31
0.0
  0
LINE
  5
28B6
330
2BE4
100
AcDbEntity
  8
0
 62
     0
100
AcDbLine
 10
-411.5000000000036
 20
-677.6523342611917
 30
0.0
 11
-215.4697985719177
 21
-771.0000000000027
 31
0.0
  0
LINE
  5
28B7
330
2BE4
100
AcDbEntity
  8
0
 62
     0
100
AcDbLine
 10
-411.5000000000036
 20
-667.6523825170561
 30
0.0
 11
-194.4698888349267
 21
-771.0000000000016
 31
0.0
  0
LINE
  5
28B8
330
2BE4
100
AcDbEntity
  8
0
 62
     0
100
AcDbLine
 10
-411.5000000000036
 20
-657.6524307729215
 30
0.0
 11
-173.4699790979339
 21
-771.0000000000016
 31
0.0
  0
LINE
  5
28B9
330
2BE4
100
AcDbEntity
  8
0
 62
     0
100
AcDbLine
 10
-411.5000000000036
 20
-647.6524790287867
 30
0.0
 11
-152.4700693609447
 21
-771.0000000000016
 31
0.0
  0
LINE
  5
28BA
330
2BE4
100
AcDbEntity
  8
0
 62
     0
100
AcDbLine
 10
-411.5000000000036
 20
-637.652527284652
 30
0.0
 11
-131.470159623952
 21
-771.0000000000016
 31
0.0
  0
LINE
  5
28BB
330
2BE4
100
AcDbEntity
  8
0
 62
     0
100
AcDbLine
 10
-411.5000000000036
 20
-627.6525755405173
 30
0.0
 11
-110.470249886961
 21
-771.0000000000016
 31
0.0
  0
LINE
  5
28BC
330
2BE4
100
AcDbEntity
  8
0
 62
     0
100
AcDbLine
 10
-411.5000000000036
 20
-617.6526237963843
 30
0.0
 11
-89.47034014997369
 21
-771.0000000000016
 31
0.0
  0
LINE
  5
28BD
330
2BE4
100
AcDbEntity
  8
0
 62
     0
100
AcDbLine
 10
-411.5000000000036
 20
-607.6526720522496
 30
0.0
 11
-68.47043041298275
 21
-771.0000000000016
 31
0.0
  0
LINE
  5
28BE
330
2BE4
100
AcDbEntity
  8
0
 62
     0
100
AcDbLine
 10
-411.5000000000036
 20
-597.6527203081141
 30
0.0
 11
-47.47052067599179
 21
-771.0000000000016
 31
0.0
  0
LINE
  5
28BF
330
2BE4
100
AcDbEntity
  8
0
 62
     0
100
AcDbLine
 10
-411.5000000000052
 20
-587.6527685639793
 30
0.0
 11
-26.47061093900084
 21
-771.0000000000016
 31
0.0
  0
LINE
  5
28C0
330
2BE4
100
AcDbEntity
  8
0
 62
     0
100
AcDbLine
 10
-411.5000000000052
 20
-577.6528168198447
 30
0.0
 11
-5.470701202008057
 21
-771.0000000000016
 31
0.0
  0
LINE
  5
28C1
330
2BE4
100
AcDbEntity
  8
0
 62
     0
100
AcDbLine
 10
-411.5000000000052
 20
-567.6528650757119
 30
0.0
 11
15.5292085349829
 21
-771.0000000000035
 31
0.0
  0
LINE
  5
28C2
330
2BE4
100
AcDbEntity
  8
0
 62
     0
100
AcDbLine
 10
-411.5000000000052
 20
-557.6529133315771
 30
0.0
 11
36.52911827197385
 21
-771.0000000000027
 31
0.0
  0
LINE
  5
28C3
330
2BE4
100
AcDbEntity
  8
0
 62
     0
100
AcDbLine
 10
-411.5000000000036
 20
-547.6529615874424
 30
0.0
 11
57.52902800896301
 21
-771.0000000000016
 31
0.0
  0
LINE
  5
28C4
330
2BE4
100
AcDbEntity
  8
0
 62
     0
100
AcDbLine
 10
-411.5000000000052
 20
-537.6530098433077
 30
0.0
 11
78.52893774595213
 21
-771.0000000000006
 31
0.0
  0
LINE
  5
28C5
330
2BE4
100
AcDbEntity
  8
0
 62
     0
100
AcDbLine
 10
-411.5000000000052
 20
-527.653058099173
 30
0.0
 11
99.52884748294493
 21
-771.0000000000006
 31
0.0
  0
LINE
  5
28C6
330
2BE4
100
AcDbEntity
  8
0
 62
     0
100
AcDbLine
 10
-411.5000000000052
 20
-517.6531063550371
 30
0.0
 11
120.5287572199359
 21
-771.0000000000006
 31
0.0
  0
LINE
  5
28C7
330
2BE4
100
AcDbEntity
  8
0
 62
     0
100
AcDbLine
 10
-411.5000000000073
 20
-507.6531546109044
 30
0.0
 11
141.528666956925
 21
-771.0000000000027
 31
0.0
  0
LINE
  5
28C8
330
2BE4
100
AcDbEntity
  8
0
 62
     0
100
AcDbLine
 10
-411.5000000000052
 20
-497.6532028667697
 30
0.0
 11
162.5285766939177
 21
-771.0000000000027
 31
0.0
  0
LINE
  5
28C9
330
2BE4
100
AcDbEntity
  8
0
 62
     0
100
AcDbLine
 10
-411.5000000000052
 20
-487.6532511226351
 30
0.0
 11
183.5284864309049
 21
-771.0000000000006
 31
0.0
  0
LINE
  5
28CA
330
2BE4
100
AcDbEntity
  8
0
 62
     0
100
AcDbLine
 10
-411.5000000000052
 20
-477.6532993785004
 30
0.0
 11
204.5283961678961
 21
-771.0000000000006
 31
0.0
  0
LINE
  5
28CB
330
2BE4
100
AcDbEntity
  8
0
 62
     0
100
AcDbLine
 10
-411.5000000000052
 20
-467.6533476343657
 30
0.0
 11
225.528305904887
 21
-771.0000000000006
 31
0.0
  0
LINE
  5
28CC
330
2BE4
100
AcDbEntity
  8
0
 62
     0
100
AcDbLine
 10
-411.5000000000052
 20
-457.6533958902327
 30
0.0
 11
246.5282156418798
 21
-771.0000000000027
 31
0.0
  0
LINE
  5
28CD
330
2BE4
100
AcDbEntity
  8
0
 62
     0
100
AcDbLine
 10
-411.5000000000052
 20
-447.653444146098
 30
0.0
 11
267.5281253788689
 21
-771.0000000000027
 31
0.0
  0
LINE
  5
28CE
330
2BE4
100
AcDbEntity
  8
0
 62
     0
100
AcDbLine
 10
-411.5000000000073
 20
-437.6534924019622
 30
0.0
 11
288.5280351158617
 21
-771.0000000000016
 31
0.0
  0
LINE
  5
28CF
330
2BE4
100
AcDbEntity
  8
0
 62
     0
100
AcDbLine
 10
-411.5000000000052
 20
-427.6535406578275
 30
0.0
 11
309.5279448528527
 21
-771.0000000000016
 31
0.0
  0
LINE
  5
28D0
330
2BE4
100
AcDbEntity
  8
0
 62
     0
100
AcDbLine
 10
-411.5000000000073
 20
-417.6535889136927
 30
0.0
 11
330.52785458984
 21
-771.0000000000006
 31
0.0
  0
LINE
  5
28D1
330
2BE4
100
AcDbEntity
  8
0
 62
     0
100
AcDbLine
 10
-411.5000000000052
 20
-407.6536371695601
 30
0.0
 11
351.5277643268328
 21
-771.0000000000016
 31
0.0
  0
LINE
  5
28D2
330
2BE4
100
AcDbEntity
  8
0
 62
     0
100
AcDbLine
 10
-411.5000000000052
 20
-397.6536854254255
 30
0.0
 11
372.527674063822
 21
-771.0000000000016
 31
0.0
  0
LINE
  5
28D3
330
2BE4
100
AcDbEntity
  8
0
 62
     0
100
AcDbLine
 10
-411.5000000000052
 20
-387.6537336812908
 30
0.0
 11
393.5275838008146
 21
-771.0000000000016
 31
0.0
  0
LINE
  5
28D4
330
2BE4
100
AcDbEntity
  8
0
 62
     0
100
AcDbLine
 10
-411.5000000000036
 20
-377.6537819371561
 30
0.0
 11
411.4999999999945
 21
-769.5583371708285
 31
0.0
  0
LINE
  5
28D5
330
2BE4
100
AcDbEntity
  8
0
 62
     0
100
AcDbLine
 10
-411.5000000000052
 20
-367.6538301930222
 30
0.0
 11
411.4999999999927
 21
-759.5583854266941
 31
0.0
  0
LINE
  5
28D6
330
2BE4
100
AcDbEntity
  8
0
 62
     0
100
AcDbLine
 10
-411.5000000000052
 20
-357.6538784488875
 30
0.0
 11
411.4999999999927
 21
-749.5584336825595
 31
0.0
  0
LINE
  5
28D7
330
2BE4
100
AcDbEntity
  8
0
 62
     0
100
AcDbLine
 10
-411.5000000000052
 20
-347.6539267047538
 30
0.0
 11
411.4999999999927
 21
-739.5584819384265
 31
0.0
  0
LINE
  5
28D8
330
2BE4
100
AcDbEntity
  8
0
 62
     0
100
AcDbLine
 10
-411.5000000000073
 20
-337.6539749606191
 30
0.0
 11
411.4999999999927
 21
-729.5585301942918
 31
0.0
  0
LINE
  5
28D9
330
2BE4
100
AcDbEntity
  8
0
 62
     0
100
AcDbLine
 10
-411.5000000000052
 20
-327.6540232164844
 30
0.0
 11
411.4999999999927
 21
-719.5585784501574
 31
0.0
  0
LINE
  5
28DA
330
2BE4
100
AcDbEntity
  8
0
 62
     0
100
AcDbLine
 10
-411.5000000000052
 20
-317.6540714723496
 30
0.0
 11
411.4999999999927
 21
-709.5586267060223
 31
0.0
  0
LINE
  5
28DB
330
2BE4
100
AcDbEntity
  8
0
 62
     0
100
AcDbLine
 10
-411.5000000000073
 20
-307.6541197282149
 30
0.0
 11
411.4999999999927
 21
-699.5586749618878
 31
0.0
  0
LINE
  5
28DC
330
2BE4
100
AcDbEntity
  8
0
 62
     0
100
AcDbLine
 10
-411.5000000000052
 20
-297.6541679840821
 30
0.0
 11
411.4999999999927
 21
-689.5587232177548
 31
0.0
  0
LINE
  5
28DD
330
2BE4
100
AcDbEntity
  8
0
 62
     0
100
AcDbLine
 10
-411.5000000000052
 20
-287.6542162399474
 30
0.0
 11
411.4999999999945
 21
-679.5587714736202
 31
0.0
  0
LINE
  5
28DE
330
2BE4
100
AcDbEntity
  8
0
 62
     0
100
AcDbLine
 10
-411.5000000000052
 20
-277.6542644958126
 30
0.0
 11
411.4999999999927
 21
-669.5588197294856
 31
0.0
  0
LINE
  5
28DF
330
2BE4
100
AcDbEntity
  8
0
 62
     0
100
AcDbLine
 10
-411.5000000000052
 20
-267.654312751677
 30
0.0
 11
411.4999999999945
 21
-659.5588679853508
 31
0.0
  0
LINE
  5
28E0
330
2BE4
100
AcDbEntity
  8
0
 62
     0
100
AcDbLine
 10
-411.5000000000073
 20
-257.6543610075423
 30
0.0
 11
411.4999999999927
 21
-649.5589162412153
 31
0.0
  0
LINE
  5
28E1
330
2BE4
100
AcDbEntity
  8
0
 62
     0
100
AcDbLine
 10
-411.5000000000073
 20
-247.6544092634094
 30
0.0
 11
411.4999999999908
 21
-639.5589644970823
 31
0.0
  0
LINE
  5
28E2
330
2BE4
100
AcDbEntity
  8
0
 62
     0
100
AcDbLine
 10
-411.5000000000052
 20
-237.6544575192747
 30
0.0
 11
411.4999999999945
 21
-629.5590127529476
 31
0.0
  0
LINE
  5
28E3
330
2BE4
100
AcDbEntity
  8
0
 62
     0
100
AcDbLine
 10
-411.5000000000052
 20
-227.65450577514
 30
0.0
 11
411.4999999999927
 21
-619.5590610088126
 31
0.0
  0
LINE
  5
28E4
330
2BE4
100
AcDbEntity
  8
0
 62
     0
100
AcDbLine
 10
-411.5000000000073
 20
-217.6545540310044
 30
0.0
 11
411.4999999999927
 21
-609.5591092646782
 31
0.0
  0
LINE
  5
28E5
330
2BE4
100
AcDbEntity
  8
0
 62
     0
100
AcDbLine
 10
-411.5000000000052
 20
-207.6546022868697
 30
0.0
 11
411.4999999999945
 21
-599.5591575205435
 31
0.0
  0
LINE
  5
28E6
330
2BE4
100
AcDbEntity
  8
0
 62
     0
100
AcDbLine
 10
-411.5000000000073
 20
-197.654650542735
 30
0.0
 11
411.4999999999927
 21
-589.5592057764088
 31
0.0
  0
LINE
  5
28E7
330
2BE4
100
AcDbEntity
  8
0
 62
     0
100
AcDbLine
 10
-411.5000000000089
 20
-187.6546987986021
 30
0.0
 11
411.4999999999945
 21
-579.5592540322758
 31
0.0
  0
LINE
  5
28E8
330
2BE4
100
AcDbEntity
  8
0
 62
     0
100
AcDbLine
 10
-411.5000000000073
 20
-177.6547470544674
 30
0.0
 11
411.4999999999927
 21
-569.5593022881404
 31
0.0
  0
LINE
  5
28E9
330
2BE4
100
AcDbEntity
  8
0
 62
     0
100
AcDbLine
 10
-411.5000000000089
 20
-167.6547953103326
 30
0.0
 11
411.4999999999927
 21
-559.5593505440056
 31
0.0
  0
LINE
  5
28EA
330
2BE4
100
AcDbEntity
  8
0
 62
     0
100
AcDbLine
 10
-411.5000000000073
 20
-157.654843566198
 30
0.0
 11
411.4999999999927
 21
-549.5593987998717
 31
0.0
  0
LINE
  5
28EB
330
2BE4
100
AcDbEntity
  8
0
 62
     0
100
AcDbLine
 10
-411.5000000000073
 20
-147.6548918220631
 30
0.0
 11
411.4999999999927
 21
-539.5594470557369
 31
0.0
  0
LINE
  5
28EC
330
2BE4
100
AcDbEntity
  8
0
 62
     0
100
AcDbLine
 10
-411.5000000000089
 20
-137.6549400779304
 30
0.0
 11
411.4999999999927
 21
-529.5594953116041
 31
0.0
  0
LINE
  5
28ED
330
2BE4
100
AcDbEntity
  8
0
 62
     0
100
AcDbLine
 10
-411.5000000000073
 20
-127.6549883337957
 30
0.0
 11
411.4999999999927
 21
-519.5595435674695
 31
0.0
  0
LINE
  5
28EE
330
2BE4
100
AcDbEntity
  8
0
 62
     0
100
AcDbLine
 10
-411.5000000000073
 20
-117.655036589661
 30
0.0
 11
411.4999999999945
 21
-509.5595918233357
 31
0.0
  0
LINE
  5
28EF
330
2BE4
100
AcDbEntity
  8
0
 62
     0
100
AcDbLine
 10
-411.5000000000089
 20
-107.6550848455253
 30
0.0
 11
411.4999999999945
 21
-499.5596400792009
 31
0.0
  0
LINE
  5
28F0
330
2BE4
100
AcDbEntity
  8
0
 62
     0
100
AcDbLine
 10
-411.5000000000073
 20
-97.6551331013907
 30
0.0
 11
411.4999999999963
 21
-489.5596883350663
 31
0.0
  0
LINE
  5
28F1
330
2BE4
100
AcDbEntity
  8
0
 62
     0
100
AcDbLine
 10
-411.5000000000089
 20
-87.65518135725599
 30
0.0
 11
411.4999999999945
 21
-479.5597365909307
 31
0.0
  0
LINE
  5
28F2
330
2BE4
100
AcDbEntity
  8
0
 62
     0
100
AcDbLine
 10
-404.4759784834423
 20
-81.00000000000269
 30
0.0
 11
411.4999999999927
 21
-469.5597848467977
 31
0.0
  0
LINE
  5
28F3
330
2BE4
100
AcDbEntity
  8
0
 62
     0
100
AcDbLine
 10
-383.4760687464495
 20
-81.00000000000269
 30
0.0
 11
411.4999999999945
 21
-459.5598331026629
 31
0.0
  0
LINE
  5
28F4
330
2BE4
100
AcDbEntity
  8
0
 62
     0
100
AcDbLine
 10
-362.4761590094604
 20
-81.00000000000182
 30
0.0
 11
411.4999999999945
 21
-449.5598813585282
 31
0.0
  0
LINE
  5
28F5
330
2BE4
100
AcDbEntity
  8
0
 62
     0
100
AcDbLine
 10
-341.4762492724694
 20
-81.00000000000182
 30
0.0
 11
411.4999999999945
 21
-439.5599296143936
 31
0.0
  0
LINE
  5
28F6
330
2BE4
100
AcDbEntity
  8
0
 62
     0
100
AcDbLine
 10
-320.4763395354766
 20
-81.00000000000182
 30
0.0
 11
411.4999999999963
 21
-429.5599778702587
 31
0.0
  0
LINE
  5
28F7
330
2BE4
100
AcDbEntity
  8
0
 62
     0
100
AcDbLine
 10
-299.4764297984893
 20
-81.00000000000269
 30
0.0
 11
411.4999999999945
 21
-419.5600261261261
 31
0.0
  0
LINE
  5
28F8
330
2BE4
100
AcDbEntity
  8
0
 62
     0
100
AcDbLine
 10
-278.4765200614966
 20
-81.00000000000269
 30
0.0
 11
411.4999999999945
 21
-409.5600743819913
 31
0.0
  0
LINE
  5
28F9
330
2BE4
100
AcDbEntity
  8
0
 62
     0
100
AcDbLine
 10
-257.4766103245056
 20
-81.00000000000269
 30
0.0
 11
411.4999999999963
 21
-399.5601226378568
 31
0.0
  0
LINE
  5
28FA
330
2BE4
100
AcDbEntity
  8
0
 62
     0
100
AcDbLine
 10
-236.4767005875165
 20
-81.00000000000182
 30
0.0
 11
411.4999999999945
 21
-389.560170893722
 31
0.0
  0
LINE
  5
28FB
330
2BE4
100
AcDbEntity
  8
0
 62
     0
100
AcDbLine
 10
-215.4767908505255
 20
-81.00000000000093
 30
0.0
 11
411.4999999999945
 21
-379.5602191495864
 31
0.0
  0
LINE
  5
28FC
330
2BE4
100
AcDbEntity
  8
0
 62
     0
100
AcDbLine
 10
195.6999999999952
 20
-266.7984168350695
 30
0.0
 11
212.5033335076005
 21
-274.8000000000029
 31
0.0
  0
LINE
  5
28FD
330
2BE4
100
AcDbEntity
  8
0
 62
     0
100
AcDbLine
 10
212.5033335076005
 20
-274.8000000000029
 30
0.0
 11
411.4999999999945
 21
-369.5602674054535
 31
0.0
  0
LINE
  5
28FE
330
2BE4
100
AcDbEntity
  8
0
 62
     0
100
AcDbLine
 10
-194.4768811135326
 20
-81.00000000000269
 30
0.0
 11
195.6999999999952
 21
-266.7984168350695
 31
0.0
  0
LINE
  5
28FF
330
2BE4
100
AcDbEntity
  8
0
 62
     0
100
AcDbLine
 10
195.6999999999933
 20
-256.7984650909348
 30
0.0
 11
233.5032432445877
 21
-274.800000000002
 31
0.0
  0
LINE
  5
2900
330
2BE4
100
AcDbEntity
  8
0
 62
     0
100
AcDbLine
 10
233.5032432445877
 20
-274.800000000002
 30
0.0
 11
411.4999999999927
 21
-359.5603156613188
 31
0.0
  0
LINE
  5
2901
330
2BE4
100
AcDbEntity
  8
0
 62
     0
100
AcDbLine
 10
-173.4769713765436
 20
-81.00000000000269
 30
0.0
 11
195.6999999999933
 21
-256.7984650909348
 31
0.0
  0
LINE
  5
2902
330
2BE4
100
AcDbEntity
  8
0
 62
     0
100
AcDbLine
 10
195.6999999999952
 20
-246.7985133468001
 30
0.0
 11
254.5031529815787
 21
-274.800000000002
 31
0.0
  0
LINE
  5
2903
330
2BE4
100
AcDbEntity
  8
0
 62
     0
100
AcDbLine
 10
254.5031529815787
 20
-274.800000000002
 30
0.0
 11
411.4999999999945
 21
-349.5603639171841
 31
0.0
  0
LINE
  5
2904
330
2BE4
100
AcDbEntity
  8
0
 62
     0
100
AcDbLine
 10
-152.4770616395544
 20
-81.00000000000182
 30
0.0
 11
195.6999999999952
 21
-246.7985133468001
 31
0.0
  0
LINE
  5
2905
330
2BE4
100
AcDbEntity
  8
0
 62
     0
100
AcDbLine
 10
195.6999999999933
 20
-236.7985616026644
 30
0.0
 11
275.5030627185715
 21
-274.800000000002
 31
0.0
  0
LINE
  5
2906
330
2BE4
100
AcDbEntity
  8
0
 62
     0
100
AcDbLine
 10
275.5030627185715
 20
-274.800000000002
 30
0.0
 11
411.4999999999945
 21
-339.5604121730494
 31
0.0
  0
LINE
  5
2907
330
2BE4
100
AcDbEntity
  8
0
 62
     0
100
AcDbLine
 10
-131.4771519025617
 20
-81.00000000000182
 30
0.0
 11
195.6999999999933
 21
-236.7985616026644
 31
0.0
  0
LINE
  5
2908
330
2BE4
100
AcDbEntity
  8
0
 62
     0
100
AcDbLine
 10
195.6999999999952
 20
-226.7986098585307
 30
0.0
 11
296.5029724555606
 21
-274.800000000002
 31
0.0
  0
LINE
  5
2909
330
2BE4
100
AcDbEntity
  8
0
 62
     0
100
AcDbLine
 10
296.5029724555606
 20
-274.800000000002
 30
0.0
 11
411.4999999999945
 21
-329.5604604289148
 31
0.0
  0
LINE
  5
290A
330
2BE4
100
AcDbEntity
  8
0
 62
     0
100
AcDbLine
 10
-110.4772421655725
 20
-81.00000000000182
 30
0.0
 11
195.6999999999933
 21
-226.7986098585297
 31
0.0
  0
LINE
  5
290B
330
2BE4
100
AcDbEntity
  8
0
 62
     0
100
AcDbLine
 10
195.6999999999952
 20
-216.798658114395
 30
0.0
 11
317.5028821925553
 21
-274.800000000002
 31
0.0
  0
LINE
  5
290C
330
2BE4
100
AcDbEntity
  8
0
 62
     0
100
AcDbLine
 10
317.5028821925553
 20
-274.800000000002
 30
0.0
 11
411.4999999999963
 21
-319.56050868478
 31
0.0
  0
LINE
  5
290D
330
2BE4
100
AcDbEntity
  8
0
 62
     0
100
AcDbLine
 10
-89.47733242857973
 20
-81.00000000000093
 30
0.0
 11
195.6999999999952
 21
-216.798658114395
 31
0.0
  0
LINE
  5
290E
330
2BE4
100
AcDbEntity
  8
0
 62
     0
100
AcDbLine
 10
195.6999999999933
 20
-206.7987063702621
 30
0.0
 11
338.5027919295426
 21
-274.8000000000029
 31
0.0
  0
LINE
  5
290F
330
2BE4
100
AcDbEntity
  8
0
 62
     0
100
AcDbLine
 10
338.5027919295426
 20
-274.8000000000029
 30
0.0
 11
411.4999999999945
 21
-309.5605569406471
 31
0.0
  0
LINE
  5
2910
330
2BE4
100
AcDbEntity
  8
0
 62
     0
100
AcDbLine
 10
-68.47742269159062
 20
-81.00000000000269
 30
0.0
 11
195.6999999999933
 21
-206.7987063702621
 31
0.0
  0
LINE
  5
2911
330
2BE4
100
AcDbEntity
  8
0
 62
     0
100
AcDbLine
 10
195.6999999999933
 20
-196.7987546261273
 30
0.0
 11
359.5027016665317
 21
-274.800000000002
 31
0.0
  0
LINE
  5
2912
330
2BE4
100
AcDbEntity
  8
0
 62
     0
100
AcDbLine
 10
359.5027016665317
 20
-274.800000000002
 30
0.0
 11
411.4999999999945
 21
-299.5606051965124
 31
0.0
  0
LINE
  5
2913
330
2BE4
100
AcDbEntity
  8
0
 62
     0
100
AcDbLine
 10
-47.47751295459964
 20
-81.00000000000269
 30
0.0
 11
195.6999999999933
 21
-196.7987546261273
 31
0.0
  0
LINE
  5
2914
330
2BE4
100
AcDbEntity
  8
0
 62
     0
100
AcDbLine
 10
195.6999999999952
 20
-186.7988028819927
 30
0.0
 11
380.5026114035245
 21
-274.800000000002
 31
0.0
  0
LINE
  5
2915
330
2BE4
100
AcDbEntity
  8
0
 62
     0
100
AcDbLine
 10
380.5026114035245
 20
-274.800000000002
 30
0.0
 11
411.4999999999945
 21
-289.5606534523777
 31
0.0
  0
LINE
  5
2916
330
2BE4
100
AcDbEntity
  8
0
 62
     0
100
AcDbLine
 10
-26.47760321760689
 20
-81.00000000000269
 30
0.0
 11
195.6999999999952
 21
-186.7988028819927
 31
0.0
  0
LINE
  5
2917
330
2BE4
100
AcDbEntity
  8
0
 62
     0
100
AcDbLine
 10
195.6999999999952
 20
-176.798851137858
 30
0.0
 11
401.5025211405152
 21
-274.800000000002
 31
0.0
  0
LINE
  5
2918
330
2BE4
100
AcDbEntity
  8
0
 62
     0
100
AcDbLine
 10
401.5025211405152
 20
-274.800000000002
 30
0.0
 11
411.4999999999945
 21
-279.560701708243
 31
0.0
  0
LINE
  5
2919
330
2BE4
100
AcDbEntity
  8
0
 62
     0
100
AcDbLine
 10
-5.477693480617745
 20
-81.00000000000182
 30
0.0
 11
195.6999999999933
 21
-176.7988511378571
 31
0.0
  0
LINE
  5
291A
330
2BE4
100
AcDbEntity
  8
0
 62
     0
100
AcDbLine
 10
195.6999999999952
 20
-166.7988993937233
 30
0.0
 11
411.4999999999945
 21
-269.5607499641083
 31
0.0
  0
LINE
  5
291B
330
2BE4
100
AcDbEntity
  8
0
 62
     0
100
AcDbLine
 10
15.52221625637321
 20
-81.00000000000182
 30
0.0
 11
195.6999999999933
 21
-166.7988993937224
 31
0.0
  0
LINE
  5
291C
330
2BE4
100
AcDbEntity
  8
0
 62
     0
100
AcDbLine
 10
195.6999999999952
 20
-156.7989476495904
 30
0.0
 11
411.4999999999963
 21
-259.5607982199754
 31
0.0
  0
LINE
  5
291D
330
2BE4
100
AcDbEntity
  8
0
 62
     0
100
AcDbLine
 10
36.52212599336417
 20
-81.00000000000269
 30
0.0
 11
195.6999999999933
 21
-156.7989476495886
 31
0.0
  0
LINE
  5
291E
330
2BE4
100
AcDbEntity
  8
0
 62
     0
100
AcDbLine
 10
195.6999999999952
 20
-146.7989959054557
 30
0.0
 11
411.4999999999945
 21
-249.5608464758407
 31
0.0
  0
LINE
  5
291F
330
2BE4
100
AcDbEntity
  8
0
 62
     0
100
AcDbLine
 10
57.5220357303533
 20
-81.00000000000182
 30
0.0
 11
195.6999999999916
 21
-146.7989959054538
 31
0.0
  0
LINE
  5
2920
330
2BE4
100
AcDbEntity
  8
0
 62
     0
100
AcDbLine
 10
195.6999999999952
 20
-136.799044161321
 30
0.0
 11
411.4999999999945
 21
-239.560894731706
 31
0.0
  0
LINE
  5
2921
330
2BE4
100
AcDbEntity
  8
0
 62
     0
100
AcDbLine
 10
78.52194546734427
 20
-81.00000000000182
 30
0.0
 11
195.6999999999916
 21
-136.7990441613192
 31
0.0
  0
LINE
  5
2922
330
2BE4
100
AcDbEntity
  8
0
 62
     0
100
AcDbLine
 10
195.6999999999952
 20
-126.7990924171854
 30
0.0
 11
411.4999999999963
 21
-229.5609429875713
 31
0.0
  0
LINE
  5
2923
330
2BE4
100
AcDbEntity
  8
0
 62
     0
100
AcDbLine
 10
99.52185520433705
 20
-81.00000000000182
 30
0.0
 11
195.6999999999933
 21
-126.7990924171845
 31
0.0
  0
LINE
  5
2924
330
2BE4
100
AcDbEntity
  8
0
 62
     0
100
AcDbLine
 10
195.6999999999933
 20
-116.7991406730507
 30
0.0
 11
411.4999999999927
 21
-219.5609912434356
 31
0.0
  0
LINE
  5
2925
330
2BE4
100
AcDbEntity
  8
0
 62
     0
100
AcDbLine
 10
120.5217649413262
 20
-81.00000000000182
 30
0.0
 11
195.6999999999916
 21
-116.7991406730498
 31
0.0
  0
LINE
  5
2926
330
2BE4
100
AcDbEntity
  8
0
 62
     0
100
AcDbLine
 10
195.6999999999933
 20
-106.799188928916
 30
0.0
 11
411.4999999999963
 21
-209.5610394993018
 31
0.0
  0
LINE
  5
2927
330
2BE4
100
AcDbEntity
  8
0
 62
     0
100
AcDbLine
 10
141.5216746783171
 20
-81.00000000000093
 30
0.0
 11
195.6999999999933
 21
-106.7991889289151
 31
0.0
  0
LINE
  5
2928
330
2BE4
100
AcDbEntity
  8
0
 62
     0
100
AcDbLine
 10
195.6999999999952
 20
-96.79923718478313
 30
0.0
 11
411.4999999999945
 21
-199.561087755168
 31
0.0
  0
LINE
  5
2929
330
2BE4
100
AcDbEntity
  8
0
 62
     0
100
AcDbLine
 10
162.5215844153081
 20
-81.00000000000269
 30
0.0
 11
195.6999999999933
 21
-96.79923718478221
 31
0.0
  0
LINE
  5
292A
330
2BE4
100
AcDbEntity
  8
0
 62
     0
100
AcDbLine
 10
195.6999999999933
 20
-86.79928544064841
 30
0.0
 11
411.4999999999927
 21
-189.5611360110333
 31
0.0
  0
LINE
  5
292B
330
2BE4
100
AcDbEntity
  8
0
 62
     0
100
AcDbLine
 10
183.5214941522972
 20
-81.00000000000182
 30
0.0
 11
195.6999999999916
 21
-86.79928544064841
 31
0.0
  0
LINE
  5
292C
330
2BE4
100
AcDbEntity
  8
0
 62
     0
100
AcDbLine
 10
204.5214038892845
 20
-81.0
 30
0.0
 11
411.4999999999945
 21
-179.5611842668986
 31
0.0
  0
LINE
  5
292D
330
2BE4
100
AcDbEntity
  8
0
 62
     0
100
AcDbLine
 10
225.5213136262773
 20
-81.0
 30
0.0
 11
411.4999999999945
 21
-169.5612325227639
 31
0.0
  0
LINE
  5
292E
330
2BE4
100
AcDbEntity
  8
0
 62
     0
100
AcDbLine
 10
246.5212233632665
 20
-81.0
 30
0.0
 11
411.4999999999945
 21
-159.5612807786301
 31
0.0
  0
LINE
  5
292F
330
2BE4
100
AcDbEntity
  8
0
 62
     0
100
AcDbLine
 10
267.5211331002611
 20
-81.00000000000182
 30
0.0
 11
411.4999999999979
 21
-149.5613290344972
 31
0.0
  0
LINE
  5
2930
330
2BE4
100
AcDbEntity
  8
0
 62
     0
100
AcDbLine
 10
288.5210428372502
 20
-81.00000000000182
 30
0.0
 11
411.4999999999963
 21
-139.5613772903625
 31
0.0
  0
LINE
  5
2931
330
2BE4
100
AcDbEntity
  8
0
 62
     0
100
AcDbLine
 10
309.5209525742394
 20
-81.00000000000182
 30
0.0
 11
411.4999999999963
 21
-129.5614255462278
 31
0.0
  0
LINE
  5
2932
330
2BE4
100
AcDbEntity
  8
0
 62
     0
100
AcDbLine
 10
330.5208623112321
 20
-81.00000000000093
 30
0.0
 11
411.4999999999963
 21
-119.5614738020922
 31
0.0
  0
LINE
  5
2933
330
2BE4
100
AcDbEntity
  8
0
 62
     0
100
AcDbLine
 10
351.5207720482213
 20
-81.0
 30
0.0
 11
411.4999999999963
 21
-109.5615220579584
 31
0.0
  0
LINE
  5
2934
330
2BE4
100
AcDbEntity
  8
0
 62
     0
100
AcDbLine
 10
372.5206817852122
 20
-81.00000000000093
 30
0.0
 11
411.4999999999963
 21
-99.56157031382463
 31
0.0
  0
LINE
  5
2935
330
2BE4
100
AcDbEntity
  8
0
 62
     0
100
AcDbLine
 10
393.5205915222032
 20
-81.00000000000093
 30
0.0
 11
411.4999999999979
 21
-89.56161856969082
 31
0.0
  0
ENDBLK
  5
2936
330
2BE4
100
AcDbEntity
  8
0
100
AcDbBlockEnd
  0
BLOCK
  5
2BE7
330
2BE6
100
AcDbEntity
  8
0
100
AcDbBlockBegin
  2
*X71
 70
     1
 10
0.0
 20
0.0
 30
0.0
  3
*X71
  1

  0
LINE
  5
2939
330
2BE6
100
AcDbEntity
  8
0
 62
     0
100
AcDbLine
 10
397.3556665954948
 20
-771.0
 30
0.0
 11
411.4999999999979
 21
-764.2646066926261
 31
0.0
  0
LINE
  5
293A
330
2BE6
100
AcDbEntity
  8
0
 62
     0
100
AcDbLine
 10
376.3557568585038
 20
-771.0
 30
0.0
 11
411.4999999999963
 21
-754.2646549484924
 31
0.0
  0
LINE
  5
293B
330
2BE6
100
AcDbEntity
  8
0
 62
     0
100
AcDbLine
 10
355.3558471215128
 20
-771.0
 30
0.0
 11
411.4999999999979
 21
-744.264703204357
 31
0.0
  0
LINE
  5
293C
330
2BE6
100
AcDbEntity
  8
0
 62
     0
100
AcDbLine
 10
334.3559373845237
 20
-771.0
 30
0.0
 11
411.5
 21
-734.2647514602227
 31
0.0
  0
LINE
  5
293D
330
2BE6
100
AcDbEntity
  8
0
 62
     0
100
AcDbLine
 10
313.3560276475328
 20
-771.0
 30
0.0
 11
411.4999999999979
 21
-724.2647997160884
 31
0.0
  0
LINE
  5
293E
330
2BE6
100
AcDbEntity
  8
0
 62
     0
100
AcDbLine
 10
292.3561179105401
 20
-771.0
 30
0.0
 11
411.4999999999979
 21
-714.2648479719536
 31
0.0
  0
LINE
  5
293F
330
2BE6
100
AcDbEntity
  8
0
 62
     0
100
AcDbLine
 10
271.3562081735509
 20
-771.0000000000006
 30
0.0
 11
411.4999999999979
 21
-704.2648962278198
 31
0.0
  0
LINE
  5
2940
330
2BE6
100
AcDbEntity
  8
0
 62
     0
100
AcDbLine
 10
250.3562984365617
 20
-771.0
 30
0.0
 11
411.4999999999979
 21
-694.2649444836852
 31
0.0
  0
LINE
  5
2941
330
2BE6
100
AcDbEntity
  8
0
 62
     0
100
AcDbLine
 10
229.3563886995689
 20
-771.0000000000006
 30
0.0
 11
411.4999999999979
 21
-684.2649927395512
 31
0.0
  0
LINE
  5
2942
330
2BE6
100
AcDbEntity
  8
0
 62
     0
100
AcDbLine
 10
208.3564789625816
 20
-771.0
 30
0.0
 11
411.5
 21
-674.2650409954165
 31
0.0
  0
LINE
  5
2943
330
2BE6
100
AcDbEntity
  8
0
 62
     0
100
AcDbLine
 10
187.3565692255888
 20
-771.0
 30
0.0
 11
411.4999999999979
 21
-664.2650892512818
 31
0.0
  0
LINE
  5
2944
330
2BE6
100
AcDbEntity
  8
0
 62
     0
100
AcDbLine
 10
166.3566594885979
 20
-771.0000000000006
 30
0.0
 11
411.4999999999979
 21
-654.2651375071479
 31
0.0
  0
LINE
  5
2945
330
2BE6
100
AcDbEntity
  8
0
 62
     0
100
AcDbLine
 10
145.3567497516051
 20
-771.0
 30
0.0
 11
411.4999999999979
 21
-644.2651857630135
 31
0.0
  0
LINE
  5
2946
330
2BE6
100
AcDbEntity
  8
0
 62
     0
100
AcDbLine
 10
124.3568400146159
 20
-771.0000000000006
 30
0.0
 11
411.5
 21
-634.2652340188788
 31
0.0
  0
LINE
  5
2947
330
2BE6
100
AcDbEntity
  8
0
 62
     0
100
AcDbLine
 10
103.3569302776268
 20
-770.9999999999991
 30
0.0
 11
411.5
 21
-624.2652822747441
 31
0.0
  0
LINE
  5
2948
330
2BE6
100
AcDbEntity
  8
0
 62
     0
100
AcDbLine
 10
82.35702054063585
 20
-770.9999999999991
 30
0.0
 11
411.5
 21
-614.2653305306094
 31
0.0
  0
LINE
  5
2949
330
2BE6
100
AcDbEntity
  8
0
 62
     0
100
AcDbLine
 10
61.35711080364488
 20
-770.9999999999991
 30
0.0
 11
411.5
 21
-604.2653787864745
 31
0.0
  0
LINE
  5
294A
330
2BE6
100
AcDbEntity
  8
0
 62
     0
100
AcDbLine
 10
40.35720106665393
 20
-771.0
 30
0.0
 11
411.5
 21
-594.2654270423409
 31
0.0
  0
LINE
  5
294B
330
2BE6
100
AcDbEntity
  8
0
 62
     0
100
AcDbLine
 10
19.35729132966298
 20
-771.0
 30
0.0
 11
411.4999999999979
 21
-584.2654752982061
 31
0.0
  0
LINE
  5
294C
330
2BE6
100
AcDbEntity
  8
0
 62
     0
100
AcDbLine
 10
-1.64261840732797
 20
-771.0
 30
0.0
 11
411.5
 21
-574.2655235540714
 31
0.0
  0
LINE
  5
294D
330
2BE6
100
AcDbEntity
  8
0
 62
     0
100
AcDbLine
 10
-22.64252814431711
 20
-771.0
 30
0.0
 11
411.5
 21
-564.2655718099367
 31
0.0
  0
LINE
  5
294E
330
2BE6
100
AcDbEntity
  8
0
 62
     0
100
AcDbLine
 10
-43.64243788130806
 20
-770.9999999999991
 30
0.0
 11
411.5
 21
-554.265620065802
 31
0.0
  0
LINE
  5
294F
330
2BE6
100
AcDbEntity
  8
0
 62
     0
100
AcDbLine
 10
-64.64234761829903
 20
-771.0
 30
0.0
 11
411.5
 21
-544.265668321668
 31
0.0
  0
LINE
  5
2950
330
2BE6
100
AcDbEntity
  8
0
 62
     0
100
AcDbLine
 10
-85.64225735528998
 20
-771.0
 30
0.0
 11
411.5
 21
-534.2657165775334
 31
0.0
  0
LINE
  5
2951
330
2BE6
100
AcDbEntity
  8
0
 62
     0
100
AcDbLine
 10
-106.6421670922809
 20
-771.0000000000006
 30
0.0
 11
411.5
 21
-524.2657648333995
 31
0.0
  0
LINE
  5
2952
330
2BE6
100
AcDbEntity
  8
0
 62
     0
100
AcDbLine
 10
-127.6420768292719
 20
-771.0
 30
0.0
 11
411.5
 21
-514.2658130892649
 31
0.0
  0
LINE
  5
2953
330
2BE6
100
AcDbEntity
  8
0
 62
     0
100
AcDbLine
 10
-148.641986566261
 20
-770.9999999999991
 30
0.0
 11
411.5000000000017
 21
-504.2658613451292
 31
0.0
  0
LINE
  5
2954
330
2BE6
100
AcDbEntity
  8
0
 62
     0
100
AcDbLine
 10
-169.641896303252
 20
-771.0
 30
0.0
 11
411.5000000000017
 21
-494.2659096009956
 31
0.0
  0
LINE
  5
2955
330
2BE6
100
AcDbEntity
  8
0
 62
     0
100
AcDbLine
 10
-190.6418060402429
 20
-770.9999999999991
 30
0.0
 11
411.5
 21
-484.2659578568609
 31
0.0
  0
LINE
  5
2956
330
2BE6
100
AcDbEntity
  8
0
 62
     0
100
AcDbLine
 10
-211.6417157772339
 20
-771.0
 30
0.0
 11
411.5
 21
-474.266006112728
 31
0.0
  0
LINE
  5
2957
330
2BE6
100
AcDbEntity
  8
0
 62
     0
100
AcDbLine
 10
-232.6416255142249
 20
-771.0
 30
0.0
 11
411.5
 21
-464.2660543685932
 31
0.0
  0
LINE
  5
2958
330
2BE6
100
AcDbEntity
  8
0
 62
     0
100
AcDbLine
 10
-253.6415352512158
 20
-771.0
 30
0.0
 11
411.5
 21
-454.2661026244585
 31
0.0
  0
LINE
  5
2959
330
2BE6
100
AcDbEntity
  8
0
 62
     0
100
AcDbLine
 10
-274.6414449882069
 20
-770.9999999999991
 30
0.0
 11
411.5
 21
-444.2661508803239
 31
0.0
  0
LINE
  5
295A
330
2BE6
100
AcDbEntity
  8
0
 62
     0
100
AcDbLine
 10
-295.6413547251959
 20
-771.0
 30
0.0
 11
411.5
 21
-434.26619913619
 31
0.0
  0
LINE
  5
295B
330
2BE6
100
AcDbEntity
  8
0
 62
     0
100
AcDbLine
 10
-316.6412644621869
 20
-770.9999999999991
 30
0.0
 11
411.5
 21
-424.2662473920552
 31
0.0
  0
LINE
  5
295C
330
2BE6
100
AcDbEntity
  8
0
 62
     0
100
AcDbLine
 10
-337.6411741991777
 20
-771.0
 30
0.0
 11
411.5
 21
-414.2662956479207
 31
0.0
  0
LINE
  5
295D
330
2BE6
100
AcDbEntity
  8
0
 62
     0
100
AcDbLine
 10
-358.6410839361688
 20
-771.0
 30
0.0
 11
411.5
 21
-404.266343903786
 31
0.0
  0
LINE
  5
295E
330
2BE6
100
AcDbEntity
  8
0
 62
     0
100
AcDbLine
 10
-379.6409936731598
 20
-771.0
 30
0.0
 11
411.5000000000017
 21
-394.2663921596513
 31
0.0
  0
LINE
  5
295F
330
2BE6
100
AcDbEntity
  8
0
 62
     0
100
AcDbLine
 10
-400.6409034101488
 20
-771.0
 30
0.0
 11
411.5
 21
-384.2664404155176
 31
0.0
  0
LINE
  5
2960
330
2BE6
100
AcDbEntity
  8
0
 62
     0
100
AcDbLine
 10
-411.4999999999979
 20
-766.1710439050557
 30
0.0
 11
411.5
 21
-374.2664886713829
 31
0.0
  0
LINE
  5
2961
330
2BE6
100
AcDbEntity
  8
0
 62
     0
100
AcDbLine
 10
-411.4999999999963
 20
-756.171092160921
 30
0.0
 11
411.5
 21
-364.2665369272489
 31
0.0
  0
LINE
  5
2962
330
2BE6
100
AcDbEntity
  8
0
 62
     0
100
AcDbLine
 10
-411.4999999999979
 20
-746.1711404167872
 30
0.0
 11
411.5
 21
-354.2665851831142
 31
0.0
  0
LINE
  5
2963
330
2BE6
100
AcDbEntity
  8
0
 62
     0
100
AcDbLine
 10
-411.4999999999979
 20
-736.1711886726514
 30
0.0
 11
411.5000000000017
 21
-344.2666334389787
 31
0.0
  0
LINE
  5
2964
330
2BE6
100
AcDbEntity
  8
0
 62
     0
100
AcDbLine
 10
-411.4999999999963
 20
-726.1712369285177
 30
0.0
 11
411.5000000000017
 21
-334.2666816948449
 31
0.0
  0
LINE
  5
2965
330
2BE6
100
AcDbEntity
  8
0
 62
     0
100
AcDbLine
 10
-411.4999999999963
 20
-716.1712851843831
 30
0.0
 11
411.5000000000017
 21
-324.2667299507102
 31
0.0
  0
LINE
  5
2966
330
2BE6
100
AcDbEntity
  8
0
 62
     0
100
AcDbLine
 10
-411.4999999999979
 20
-706.1713334402502
 30
0.0
 11
411.5
 21
-314.2667782065764
 31
0.0
  0
LINE
  5
2967
330
2BE6
100
AcDbEntity
  8
0
 62
     0
100
AcDbLine
 10
-411.4999999999979
 20
-696.1713816961155
 30
0.0
 11
411.5
 21
-304.2668264624416
 31
0.0
  0
LINE
  5
2968
330
2BE6
100
AcDbEntity
  8
0
 62
     0
100
AcDbLine
 10
-411.4999999999979
 20
-686.1714299519807
 30
0.0
 11
411.5000000000017
 21
-294.266874718307
 31
0.0
  0
LINE
  5
2969
330
2BE6
100
AcDbEntity
  8
0
 62
     0
100
AcDbLine
 10
-411.4999999999979
 20
-676.1714782078461
 30
0.0
 11
411.5
 21
-284.2669229741723
 31
0.0
  0
LINE
  5
296A
330
2BE6
100
AcDbEntity
  8
0
 62
     0
100
AcDbLine
 10
410.3806389927847
 20
-274.8000000000001
 30
0.0
 11
411.5
 21
-274.2669712300385
 31
0.0
  0
LINE
  5
296B
330
2BE6
100
AcDbEntity
  8
0
 62
     0
100
AcDbLine
 10
-411.4999999999979
 20
-666.1715264637114
 30
0.0
 11
410.3806389927847
 21
-274.8000000000001
 31
0.0
  0
LINE
  5
296C
330
2BE6
100
AcDbEntity
  8
0
 62
     0
100
AcDbLine
 10
389.3807292557958
 20
-274.8000000000001
 30
0.0
 11
411.5
 21
-264.2670194859038
 31
0.0
  0
LINE
  5
296D
330
2BE6
100
AcDbEntity
  8
0
 62
     0
100
AcDbLine
 10
-411.4999999999979
 20
-656.1715747195776
 30
0.0
 11
389.3807292557958
 21
-274.8000000000001
 31
0.0
  0
LINE
  5
296E
330
2BE6
100
AcDbEntity
  8
0
 62
     0
100
AcDbLine
 10
368.3808195188049
 20
-274.8000000000001
 30
0.0
 11
411.5000000000017
 21
-254.26706774177
 31
0.0
  0
LINE
  5
296F
330
2BE6
100
AcDbEntity
  8
0
 62
     0
100
AcDbLine
 10
-411.4999999999963
 20
-646.1716229754429
 30
0.0
 11
368.3808195188049
 21
-274.8000000000001
 31
0.0
  0
LINE
  5
2970
330
2BE6
100
AcDbEntity
  8
0
 62
     0
100
AcDbLine
 10
347.3809097818139
 20
-274.8000000000001
 30
0.0
 11
411.5
 21
-244.2671159976353
 31
0.0
  0
LINE
  5
2971
330
2BE6
100
AcDbEntity
  8
0
 62
     0
100
AcDbLine
 10
-411.4999999999979
 20
-636.171671231308
 30
0.0
 11
347.3809097818139
 21
-274.8000000000001
 31
0.0
  0
LINE
  5
2972
330
2BE6
100
AcDbEntity
  8
0
 62
     0
100
AcDbLine
 10
326.3810000448229
 20
-274.7999999999993
 30
0.0
 11
411.5
 21
-234.2671642535006
 31
0.0
  0
LINE
  5
2973
330
2BE6
100
AcDbEntity
  8
0
 62
     0
100
AcDbLine
 10
-411.4999999999979
 20
-626.1717194871735
 30
0.0
 11
326.3810000448229
 21
-274.7999999999993
 31
0.0
  0
LINE
  5
2974
330
2BE6
100
AcDbEntity
  8
0
 62
     0
100
AcDbLine
 10
305.3810903078338
 20
-274.8000000000001
 30
0.0
 11
411.5000000000017
 21
-224.2672125093668
 31
0.0
  0
LINE
  5
2975
330
2BE6
100
AcDbEntity
  8
0
 62
     0
100
AcDbLine
 10
-411.4999999999979
 20
-616.1717677430394
 30
0.0
 11
305.3810903078338
 21
-274.8000000000001
 31
0.0
  0
LINE
  5
2976
330
2BE6
100
AcDbEntity
  8
0
 62
     0
100
AcDbLine
 10
284.3811805708428
 20
-274.8000000000001
 30
0.0
 11
411.5
 21
-214.2672607652321
 31
0.0
  0
LINE
  5
2977
330
2BE6
100
AcDbEntity
  8
0
 62
     0
100
AcDbLine
 10
-411.4999999999979
 20
-606.171815998905
 30
0.0
 11
284.3811805708428
 21
-274.8000000000001
 31
0.0
  0
LINE
  5
2978
330
2BE6
100
AcDbEntity
  8
0
 62
     0
100
AcDbLine
 10
263.3812708338501
 20
-274.8000000000001
 30
0.0
 11
411.5
 21
-204.2673090210983
 31
0.0
  0
LINE
  5
2979
330
2BE6
100
AcDbEntity
  8
0
 62
     0
100
AcDbLine
 10
-411.4999999999979
 20
-596.1718642547713
 30
0.0
 11
263.3812708338501
 21
-274.8000000000001
 31
0.0
  0
LINE
  5
297A
330
2BE6
100
AcDbEntity
  8
0
 62
     0
100
AcDbLine
 10
242.3813610968609
 20
-274.8000000000001
 30
0.0
 11
411.5
 21
-194.2673572769635
 31
0.0
  0
LINE
  5
297B
330
2BE6
100
AcDbEntity
  8
0
 62
     0
100
AcDbLine
 10
-411.4999999999979
 20
-586.1719125106365
 30
0.0
 11
242.3813610968609
 21
-274.8000000000001
 31
0.0
  0
LINE
  5
297C
330
2BE6
100
AcDbEntity
  8
0
 62
     0
100
AcDbLine
 10
221.38145135987
 20
-274.7999999999993
 30
0.0
 11
411.5
 21
-184.2674055328288
 31
0.0
  0
LINE
  5
297D
330
2BE6
100
AcDbEntity
  8
0
 62
     0
100
AcDbLine
 10
-411.5
 20
-576.1719607665025
 30
0.0
 11
221.38145135987
 21
-274.7999999999993
 31
0.0
  0
LINE
  5
297E
330
2BE6
100
AcDbEntity
  8
0
 62
     0
100
AcDbLine
 10
200.3815416228808
 20
-274.7999999999984
 30
0.0
 11
411.5
 21
-174.2674537886942
 31
0.0
  0
LINE
  5
297F
330
2BE6
100
AcDbEntity
  8
0
 62
     0
100
AcDbLine
 10
-411.5
 20
-566.1720090223671
 30
0.0
 11
200.3815416228808
 21
-274.7999999999984
 31
0.0
  0
LINE
  5
2980
330
2BE6
100
AcDbEntity
  8
0
 62
     0
100
AcDbLine
 10
195.6999999999989
 20
-267.0293526149453
 30
0.0
 11
411.4999999999979
 21
-164.2675020445604
 31
0.0
  0
LINE
  5
2981
330
2BE6
100
AcDbEntity
  8
0
 62
     0
100
AcDbLine
 10
-411.5000000000017
 20
-556.1720572782339
 30
0.0
 11
195.6999999999989
 21
-267.0293526149453
 31
0.0
  0
LINE
  5
2982
330
2BE6
100
AcDbEntity
  8
0
 62
     0
100
AcDbLine
 10
195.7000000000007
 20
-257.0294008708115
 30
0.0
 11
411.5
 21
-154.2675503004266
 31
0.0
  0
LINE
  5
2983
330
2BE6
100
AcDbEntity
  8
0
 62
     0
100
AcDbLine
 10
-411.4999999999979
 20
-546.1721055340992
 30
0.0
 11
195.7000000000007
 21
-257.0294008708115
 31
0.0
  0
LINE
  5
2984
330
2BE6
100
AcDbEntity
  8
0
 62
     0
100
AcDbLine
 10
195.6999999999989
 20
-247.0294491266769
 30
0.0
 11
411.4999999999979
 21
-144.2675985562918
 31
0.0
  0
LINE
  5
2985
330
2BE6
100
AcDbEntity
  8
0
 62
     0
100
AcDbLine
 10
-411.5
 20
-536.1721537899647
 30
0.0
 11
195.6999999999989
 21
-247.0294491266769
 31
0.0
  0
LINE
  5
2986
330
2BE6
100
AcDbEntity
  8
0
 62
     0
100
AcDbLine
 10
195.7000000000007
 20
-237.0294973825412
 30
0.0
 11
411.5
 21
-134.2676468121563
 31
0.0
  0
LINE
  5
2987
330
2BE6
100
AcDbEntity
  8
0
 62
     0
100
AcDbLine
 10
-411.5
 20
-526.1722020458298
 30
0.0
 11
195.7000000000007
 21
-237.0294973825412
 31
0.0
  0
LINE
  5
2988
330
2BE6
100
AcDbEntity
  8
0
 62
     0
100
AcDbLine
 10
195.7000000000007
 20
-227.0295456384074
 30
0.0
 11
411.5
 21
-124.2676950680225
 31
0.0
  0
LINE
  5
2989
330
2BE6
100
AcDbEntity
  8
0
 62
     0
100
AcDbLine
 10
-411.4999999999979
 20
-516.1722503016951
 30
0.0
 11
195.7000000000007
 21
-227.0295456384074
 31
0.0
  0
LINE
  5
298A
330
2BE6
100
AcDbEntity
  8
0
 62
     0
100
AcDbLine
 10
195.7000000000007
 20
-217.0295938942727
 30
0.0
 11
411.4999999999979
 21
-114.2677433238887
 31
0.0
  0
LINE
  5
298B
330
2BE6
100
AcDbEntity
  8
0
 62
     0
100
AcDbLine
 10
-411.5
 20
-506.1722985575616
 30
0.0
 11
195.7000000000007
 21
-217.0295938942727
 31
0.0
  0
LINE
  5
298C
330
2BE6
100
AcDbEntity
  8
0
 62
     0
100
AcDbLine
 10
195.7000000000007
 20
-207.0296421501389
 30
0.0
 11
411.4999999999979
 21
-104.2677915797548
 31
0.0
  0
LINE
  5
298D
330
2BE6
100
AcDbEntity
  8
0
 62
     0
100
AcDbLine
 10
-411.5
 20
-496.1723468134277
 30
0.0
 11
195.7000000000007
 21
-207.0296421501389
 31
0.0
  0
LINE
  5
298E
330
2BE6
100
AcDbEntity
  8
0
 62
     0
100
AcDbLine
 10
195.6999999999989
 20
-197.0296904060041
 30
0.0
 11
411.4999999999979
 21
-94.26783983562016
 31
0.0
  0
LINE
  5
298F
330
2BE6
100
AcDbEntity
  8
0
 62
     0
100
AcDbLine
 10
-411.5000000000017
 20
-486.1723950692931
 30
0.0
 11
195.6999999999989
 21
-197.0296904060041
 31
0.0
  0
LINE
  5
2990
330
2BE6
100
AcDbEntity
  8
0
 62
     0
100
AcDbLine
 10
195.7000000000007
 20
-187.0297386618694
 30
0.0
 11
411.4999999999979
 21
-84.26788809148547
 31
0.0
  0
LINE
  5
2991
330
2BE6
100
AcDbEntity
  8
0
 62
     0
100
AcDbLine
 10
-411.4999999999979
 20
-476.1724433251575
 30
0.0
 11
195.7000000000007
 21
-187.0297386618694
 31
0.0
  0
LINE
  5
2992
330
2BE6
100
AcDbEntity
  8
0
 62
     0
100
AcDbLine
 10
195.6999999999989
 20
-177.0297869177356
 30
0.0
 11
397.3626588741045
 21
-80.99999999999909
 31
0.0
  0
LINE
  5
2993
330
2BE6
100
AcDbEntity
  8
0
 62
     0
100
AcDbLine
 10
-411.5
 20
-466.1724915810236
 30
0.0
 11
195.6999999999989
 21
-177.0297869177356
 31
0.0
  0
LINE
  5
2994
330
2BE6
100
AcDbEntity
  8
0
 62
     0
100
AcDbLine
 10
195.6999999999971
 20
-167.0298351736019
 30
0.0
 11
376.3627491371135
 21
-81.0
 31
0.0
  0
LINE
  5
2995
330
2BE6
100
AcDbEntity
  8
0
 62
     0
100
AcDbLine
 10
-411.5
 20
-456.1725398368897
 30
0.0
 11
195.6999999999971
 21
-167.0298351736019
 31
0.0
  0
LINE
  5
2996
330
2BE6
100
AcDbEntity
  8
0
 62
     0
100
AcDbLine
 10
195.6999999999989
 20
-157.0298834294681
 30
0.0
 11
355.3628394001244
 21
-81.0
 31
0.0
  0
LINE
  5
2997
330
2BE6
100
AcDbEntity
  8
0
 62
     0
100
AcDbLine
 10
-411.4999999999979
 20
-446.1725880927559
 30
0.0
 11
195.6999999999989
 21
-157.0298834294681
 31
0.0
  0
LINE
  5
2998
330
2BE6
100
AcDbEntity
  8
0
 62
     0
100
AcDbLine
 10
195.6999999999971
 20
-147.0299316853334
 30
0.0
 11
334.3629296631334
 21
-81.0
 31
0.0
  0
LINE
  5
2999
330
2BE6
100
AcDbEntity
  8
0
 62
     0
100
AcDbLine
 10
-411.5
 20
-436.1726363486211
 30
0.0
 11
195.6999999999971
 21
-147.0299316853334
 31
0.0
  0
LINE
  5
299A
330
2BE6
100
AcDbEntity
  8
0
 62
     0
100
AcDbLine
 10
195.6999999999971
 20
-137.0299799411987
 30
0.0
 11
313.3630199261424
 21
-81.0
 31
0.0
  0
LINE
  5
299B
330
2BE6
100
AcDbEntity
  8
0
 62
     0
100
AcDbLine
 10
-411.5
 20
-426.1726846044864
 30
0.0
 11
195.6999999999971
 21
-137.0299799411987
 31
0.0
  0
LINE
  5
299C
330
2BE6
100
AcDbEntity
  8
0
 62
     0
100
AcDbLine
 10
195.7000000000007
 20
-127.0300281970631
 30
0.0
 11
292.3631101891515
 21
-81.0
 31
0.0
  0
LINE
  5
299D
330
2BE6
100
AcDbEntity
  8
0
 62
     0
100
AcDbLine
 10
-411.5
 20
-416.1727328603519
 30
0.0
 11
195.7000000000007
 21
-127.0300281970631
 31
0.0
  0
LINE
  5
299E
330
2BE6
100
AcDbEntity
  8
0
 62
     0
100
AcDbLine
 10
195.6999999999989
 20
-117.0300764529293
 30
0.0
 11
271.3632004521605
 21
-81.00000000000093
 31
0.0
  0
LINE
  5
299F
330
2BE6
100
AcDbEntity
  8
0
 62
     0
100
AcDbLine
 10
-411.5
 20
-406.1727811162182
 30
0.0
 11
195.6999999999989
 21
-117.0300764529293
 31
0.0
  0
LINE
  5
29A0
330
2BE6
100
AcDbEntity
  8
0
 62
     0
100
AcDbLine
 10
195.6999999999989
 20
-107.0301247087946
 30
0.0
 11
250.3632907151677
 21
-81.00000000000093
 31
0.0
  0
LINE
  5
29A1
330
2BE6
100
AcDbEntity
  8
0
 62
     0
100
AcDbLine
 10
-411.5
 20
-396.1728293720836
 30
0.0
 11
195.6999999999989
 21
-107.0301247087946
 31
0.0
  0
LINE
  5
29A2
330
2BE6
100
AcDbEntity
  8
0
 62
     0
100
AcDbLine
 10
195.6999999999971
 20
-97.03017296466079
 30
0.0
 11
229.3633809781786
 21
-81.00000000000093
 31
0.0
  0
LINE
  5
29A3
330
2BE6
100
AcDbEntity
  8
0
 62
     0
100
AcDbLine
 10
-411.5000000000017
 20
-386.1728776279497
 30
0.0
 11
195.6999999999971
 21
-97.03017296466079
 31
0.0
  0
LINE
  5
29A4
330
2BE6
100
AcDbEntity
  8
0
 62
     0
100
AcDbLine
 10
195.6999999999989
 20
-87.03022122052606
 30
0.0
 11
208.3634712411877
 21
-81.00000000000093
 31
0.0
  0
LINE
  5
29A5
330
2BE6
100
AcDbEntity
  8
0
 62
     0
100
AcDbLine
 10
-411.5
 20
-376.1729258838152
 30
0.0
 11
195.6999999999989
 21
-87.03022122052606
 31
0.0
  0
LINE
  5
29A6
330
2BE6
100
AcDbEntity
  8
0
 62
     0
100
AcDbLine
 10
-411.5
 20
-366.1729741396793
 30
0.0
 11
187.3635615042003
 21
-80.99999999999909
 31
0.0
  0
LINE
  5
29A7
330
2BE6
100
AcDbEntity
  8
0
 62
     0
100
AcDbLine
 10
-411.5
 20
-356.1730223955446
 30
0.0
 11
166.3636517672075
 21
-80.99999999999909
 31
0.0
  0
LINE
  5
29A8
330
2BE6
100
AcDbEntity
  8
0
 62
     0
100
AcDbLine
 10
-411.4999999999979
 20
-346.1730706514109
 30
0.0
 11
145.3637420302184
 21
-80.99999999999909
 31
0.0
  0
LINE
  5
29A9
330
2BE6
100
AcDbEntity
  8
0
 62
     0
100
AcDbLine
 10
-411.5
 20
-336.1731189072771
 30
0.0
 11
124.3638322932256
 21
-81.0
 31
0.0
  0
LINE
  5
29AA
330
2BE6
100
AcDbEntity
  8
0
 62
     0
100
AcDbLine
 10
-411.5
 20
-326.1731671631423
 30
0.0
 11
103.3639225562346
 21
-81.0
 31
0.0
  0
LINE
  5
29AB
330
2BE6
100
AcDbEntity
  8
0
 62
     0
100
AcDbLine
 10
-411.5000000000017
 20
-316.1732154190076
 30
0.0
 11
82.36401281924555
 21
-80.99999999999909
 31
0.0
  0
LINE
  5
29AC
330
2BE6
100
AcDbEntity
  8
0
 62
     0
100
AcDbLine
 10
-411.5
 20
-306.1732636748728
 30
0.0
 11
61.36410308225458
 21
-80.99999999999909
 31
0.0
  0
LINE
  5
29AD
330
2BE6
100
AcDbEntity
  8
0
 62
     0
100
AcDbLine
 10
-411.5
 20
-296.1733119307392
 30
0.0
 11
40.36419334526543
 21
-80.99999999999909
 31
0.0
  0
LINE
  5
29AE
330
2BE6
100
AcDbEntity
  8
0
 62
     0
100
AcDbLine
 10
-411.5000000000017
 20
-286.1733601866053
 30
0.0
 11
19.36428360827267
 21
-81.0
 31
0.0
  0
LINE
  5
29AF
330
2BE6
100
AcDbEntity
  8
0
 62
     0
100
AcDbLine
 10
-411.4999999999979
 20
-276.1734084424698
 30
0.0
 11
-1.635626128716467
 21
-81.0
 31
0.0
  0
LINE
  5
29B0
330
2BE6
100
AcDbEntity
  8
0
 62
     0
100
AcDbLine
 10
-411.5
 20
-266.173456698335
 30
0.0
 11
-22.63553586570925
 21
-81.0
 31
0.0
  0
LINE
  5
29B1
330
2BE6
100
AcDbEntity
  8
0
 62
     0
100
AcDbLine
 10
-411.5
 20
-256.1735049542004
 30
0.0
 11
-43.63544560269838
 21
-80.99999999999909
 31
0.0
  0
LINE
  5
29B2
330
2BE6
100
AcDbEntity
  8
0
 62
     0
100
AcDbLine
 10
-411.4999999999979
 20
-246.1735532100665
 30
0.0
 11
-64.63535533968934
 21
-81.0
 31
0.0
  0
LINE
  5
29B3
330
2BE6
100
AcDbEntity
  8
0
 62
     0
100
AcDbLine
 10
-411.5
 20
-236.1736014659318
 30
0.0
 11
-85.63526507668029
 21
-81.0
 31
0.0
  0
LINE
  5
29B4
330
2BE6
100
AcDbEntity
  8
0
 62
     0
100
AcDbLine
 10
-411.5000000000017
 20
-226.1736497217988
 30
0.0
 11
-106.6351748136712
 21
-81.0
 31
0.0
  0
LINE
  5
29B5
330
2BE6
100
AcDbEntity
  8
0
 62
     0
100
AcDbLine
 10
-411.5000000000036
 20
-216.1736979776642
 30
0.0
 11
-127.6350845506622
 21
-81.0
 31
0.0
  0
LINE
  5
29B6
330
2BE6
100
AcDbEntity
  8
0
 62
     0
100
AcDbLine
 10
-411.5000000000017
 20
-206.1737462335295
 30
0.0
 11
-148.6349942876513
 21
-80.99999999999909
 31
0.0
  0
LINE
  5
29B7
330
2BE6
100
AcDbEntity
  8
0
 62
     0
100
AcDbLine
 10
-411.5000000000017
 20
-196.1737944893948
 30
0.0
 11
-169.6349040246441
 21
-80.99999999999909
 31
0.0
  0
LINE
  5
29B8
330
2BE6
100
AcDbEntity
  8
0
 62
     0
100
AcDbLine
 10
-411.5000000000017
 20
-186.173842745261
 30
0.0
 11
-190.6348137616332
 21
-80.99999999999909
 31
0.0
  0
LINE
  5
29B9
330
2BE6
100
AcDbEntity
  8
0
 62
     0
100
AcDbLine
 10
-411.5000000000017
 20
-176.1738910011272
 30
0.0
 11
-211.634723498626
 21
-81.0
 31
0.0
  0
LINE
  5
29BA
330
2BE6
100
AcDbEntity
  8
0
 62
     0
100
AcDbLine
 10
-411.5000000000017
 20
-166.1739392569925
 30
0.0
 11
-232.6346332356152
 21
-81.0
 31
0.0
  0
LINE
  5
29BB
330
2BE6
100
AcDbEntity
  8
0
 62
     0
100
AcDbLine
 10
-411.5000000000017
 20
-156.1739875128578
 30
0.0
 11
-253.6345429726079
 21
-81.0
 31
0.0
  0
LINE
  5
29BC
330
2BE6
100
AcDbEntity
  8
0
 62
     0
100
AcDbLine
 10
-411.5000000000017
 20
-146.1740357687231
 30
0.0
 11
-274.6344527095971
 21
-80.99999999999909
 31
0.0
  0
LINE
  5
29BD
330
2BE6
100
AcDbEntity
  8
0
 62
     0
100
AcDbLine
 10
-411.5000000000017
 20
-136.1740840245893
 30
0.0
 11
-295.6343624465862
 21
-81.0
 31
0.0
  0
LINE
  5
29BE
330
2BE6
100
AcDbEntity
  8
0
 62
     0
100
AcDbLine
 10
-411.5000000000017
 20
-126.1741322804555
 30
0.0
 11
-316.6342721835772
 21
-81.0
 31
0.0
  0
LINE
  5
29BF
330
2BE6
100
AcDbEntity
  8
0
 62
     0
100
AcDbLine
 10
-411.5000000000036
 20
-116.1741805363208
 30
0.0
 11
-337.6341819205681
 21
-81.0
 31
0.0
  0
LINE
  5
29C0
330
2BE6
100
AcDbEntity
  8
0
 62
     0
100
AcDbLine
 10
-411.5000000000017
 20
-106.174228792186
 30
0.0
 11
-358.6340916575591
 21
-81.0
 31
0.0
  0
LINE
  5
29C1
330
2BE6
100
AcDbEntity
  8
0
 62
     0
100
AcDbLine
 10
-411.5000000000017
 20
-96.17427704805141
 30
0.0
 11
-379.6340013945501
 21
-81.0
 31
0.0
  0
LINE
  5
29C2
330
2BE6
100
AcDbEntity
  8
0
 62
     0
100
AcDbLine
 10
-411.5000000000017
 20
-86.17432530391671
 30
0.0
 11
-400.6339111315408
 21
-81.0
 31
0.0
  0
ENDBLK
  5
29C3
330
2BE6
100
AcDbEntity
  8
0
100
AcDbBlockEnd
  0
ENDSEC
  0
SECTION
  2
ENTITIES
  0
TEXT
  5
953
330
2B0E
100
AcDbEntity
  8
OUTLINE
  6
Continuous
 62
     3
100
AcDbText
 10
-418.231467
 20
13.715189
 30
0.0
 40
64.0
  1
 
 41
0.9
100
AcDbText
  0
TEXT
  5
954
330
2B0E
100
AcDbEntity
  8
OUTLINE
  6
Continuous
 62
     3
100
AcDbText
 10
-418.231467
 20
13.715189
 30
0.0
 40
64.0
  1
 
 41
0.9
100
AcDbText
  0
TEXT
  5
955
330
2B0E
100
AcDbEntity
  8
OUTLINE
  6
Continuous
 62
     3
100
AcDbText
 10
1341.41903
 20
-706.0588199999997
 30
0.0
 40
64.0
  1
 
 41
0.9
100
AcDbText
  0
TEXT
  5
956
330
2B0E
100
AcDbEntity
  8
OUTLINE
  6
Continuous
 62
     3
100
AcDbText
 10
1341.41903
 20
-706.0588199999997
 30
0.0
 40
64.0
  1
 
 41
0.9
100
AcDbText
  0
TEXT
  5
957
330
2B0E
100
AcDbEntity
  8
OUTLINE
  6
Continuous
 62
     3
100
AcDbText
 10
1341.41903
 20
-706.0588199999997
 30
0.0
 40
64.0
  1
 
 41
0.9
100
AcDbText
  0
TEXT
  5
958
330
2B0E
100
AcDbEntity
  8
OUTLINE
  6
Continuous
 62
     3
100
AcDbText
 10
1341.41903
 20
-706.0588199999997
 30
0.0
 40
64.0
  1
 
 41
0.9
100
AcDbText
  0
TEXT
  5
2A18
330
2B0E
100
AcDbEntity
  8
ETC
100
AcDbText
 10
703.1707774738838
 20
638.8783149610516
 30
0.0
 40
64.0
  1
システム部材
 41
0.9
100
AcDbText
  0
TEXT
  5
2A19
330
2B0E
100
AcDbEntity
  8
ETC
100
AcDbText
 10
709.3787754738841
 20
739.7616409610508
 30
0.0
 40
64.0
  1
W-80SDA-A_6
 41
0.9
100
AcDbText
  0
TEXT
  5
2A1A
330
2B0E
100
AcDbEntity
  8
ETC
100
AcDbText
 10
709.3787754738841
 20
539.7616409610508
 30
0.0
 40
64.0
  1
W-80SDA-A
 41
0.9
100
AcDbText
  0
CIRCLE
  5
2A1B
330
2B0E
100
AcDbEntity
  8
ARRANGE
100
AcDbCircle
 10
0.0
 20
0.0
 30
0.0
 40
40.0
  0
LINE
  5
2A1C
330
2B0E
100
AcDbEntity
  8
BASIS
100
AcDbLine
 10
0.0
 20
25.0
 30
0.0
 11
0.0
 21
-817.0
 31
0.0
  0
POINT
  5
2A1D
330
2B0E
100
AcDbEntity
  8
ARRANGE
100
AcDbPoint
 10
0.0
 20
0.0
 30
0.0
 39
50.0
  0
LINE
  5
2A1E
330
2B0E
100
AcDbEntity
  8
DETAIL
100
AcDbLine
 10
-411.5
 20
-771.0
 30
0.0
 11
-411.5
 21
-81.0
 31
0.0
  0
LINE
  5
2A1F
330
2B0E
100
AcDbEntity
  8
DETAIL
100
AcDbLine
 10
411.4999999999977
 20
-771.0
 30
0.0
 11
411.5
 21
-81.0
 31
0.0
  0
LINE
  5
2A20
330
2B0E
100
AcDbEntity
  8
DETAIL
100
AcDbLine
 10
-437.0
 20
-792.0
 30
0.0
 11
-437.0
 21
-3.000000000000908
 31
0.0
  0
LINE
  5
2A21
330
2B0E
100
AcDbEntity
  8
DETAIL
100
AcDbLine
 10
437.0
 20
-792.0
 30
0.0
 11
437.0
 21
-3.000000000000908
 31
0.0
  0
LINE
  5
2A22
330
2B0E
100
AcDbEntity
  8
DETAIL
100
AcDbLine
 10
-411.5
 20
-81.0
 30
0.0
 11
411.5
 21
-81.0
 31
0.0
  0
LINE
  5
2A23
330
2B0E
100
AcDbEntity
  8
DETAIL
100
AcDbLine
 10
-437.0
 20
-40.0
 30
0.0
 11
437.0
 21
-40.0
 31
0.0
  0
LINE
  5
2A24
330
2B0E
100
AcDbEntity
  8
DETAIL
100
AcDbLine
 10
-475.0
 20
-3.0
 30
0.0
 11
475.0
 21
-3.0
 31
0.0
  0
LINE
  5
2A25
330
2B0E
100
AcDbEntity
  8
DETAIL
100
AcDbLine
 10
-475.0
 20
0.0
 30
0.0
 11
475.0
 21
0.0
 31
0.0
  0
LINE
  5
2A26
330
2B0E
100
AcDbEntity
  8
DETAIL
100
AcDbLine
 10
-437.0
 20
-192.0
 30
0.0
 11
-437.0
 21
-3.0
 31
0.0
  0
LINE
  5
2A27
330
2B0E
100
AcDbEntity
  8
DETAIL
100
AcDbLine
 10
-475.0
 20
-3.0
 30
0.0
 11
-475.0
 21
0.0
 31
0.0
  0
LINE
  5
2A28
330
2B0E
100
AcDbEntity
  8
NOTE
100
AcDbLine
 10
-450.0
 20
12.5
 30
0.0
 11
-450.0
 21
-12.5
 31
0.0
  0
LINE
  5
2A29
330
2B0E
100
AcDbEntity
  8
NOTE
100
AcDbLine
 10
449.9999999999982
 20
-12.5
 30
0.0
 11
449.9999999999982
 21
12.5
 31
0.0
  0
LINE
  5
2A2A
330
2B0E
100
AcDbEntity
  8
DETAIL
100
AcDbLine
 10
475.0
 20
0.0
 30
0.0
 11
475.0
 21
-3.0
 31
0.0
  0
LINE
  5
2A2B
330
2B0E
100
AcDbEntity
  8
DETAIL
100
AcDbLine
 10
-411.5
 20
-771.0
 30
0.0
 11
411.5
 21
-771.0
 31
0.0
  0
LINE
  5
2A2C
330
2B0E
100
AcDbEntity
  8
DETAIL
100
AcDbLine
 10
-437.0
 20
-792.0
 30
0.0
 11
437.0
 21
-792.0
 31
0.0
  0
LINE
  5
2A2D
330
2B0E
100
AcDbEntity
  8
DETAIL
100
AcDbLine
 10
163.0
 20
-792.0
 30
0.0
 11
381.0
 21
-792.0
 31
0.0
  0
LINE
  5
2A2E
330
2B0E
100
AcDbEntity
  8
DETAIL
100
AcDbLine
 10
-437.0
 20
-60.0
 30
0.0
 11
437.0
 21
-60.0
 31
0.0
  0
INSERT
  5
2A2F
330
2B0E
100
AcDbEntity
  8
0
100
AcDbBlockReference
  2
*U68
 10
0.0
 20
0.0
 30
0.0
1001
ACAD
1000
DSTYLE
1002
{
1070
    41
1040
12.0
1070
    42
1040
20.0
1070
    43
1040
200.0
1070
    44
1040
20.0
1070
    73
1070
     0
1070
    74
1070
     0
1070
    77
1070
     1
1070
    78
1070
     8
1070
   140
1040
64.0
1070
   147
1040
50.0
1070
   172
1070
     1
1070
   174
1070
     1
1070
   275
1070
     0
1070
   284
1070
     0
1070
   285
1070
     0
1070
   286
1070
     0
1070
   341
1005
0
1070
   342
1005
0
1002
}
  0
INSERT
  5
2A30
330
2B0E
100
AcDbEntity
  8
0
100
AcDbBlockReference
  2
*U69
 10
0.0
 20
0.0
 30
0.0
  0
LINE
  5
2A31
330
2B0E
100
AcDbEntity
  8
NOTE
100
AcDbLine
 39
50.0
 10
-462.5
 20
0.0
 30
0.0
 11
-437.5
 21
0.0
 31
0.0
  0
LINE
  5
2A32
330
2B0E
100
AcDbEntity
  8
NOTE
100
AcDbLine
 39
50.0
 10
437.4999999999982
 20
0.0
 30
0.0
 11
462.4999999999982
 21
0.0
 31
0.0
  0
LINE
  5
2A33
330
2B0E
100
AcDbEntity
  8
OUTLINE
100
AcDbLine
 10
-437.0
 20
-792.0
 30
0.0
 11
-437.0
 21
-3.000000000000908
 31
0.0
  0
LINE
  5
2A34
330
2B0E
100
AcDbEntity
  8
OUTLINE
100
AcDbLine
 10
437.0
 20
-792.0
 30
0.0
 11
437.0
 21
-3.000000000000908
 31
0.0
  0
LINE
  5
2A35
330
2B0E
100
AcDbEntity
  8
OUTLINE
100
AcDbLine
 10
-437.0
 20
-40.0
 30
0.0
 11
437.0
 21
-40.0
 31
0.0
  0
LINE
  5
2A36
330
2B0E
100
AcDbEntity
  8
OUTLINE
100
AcDbLine
 10
-475.0
 20
-3.0
 30
0.0
 11
475.0
 21
-3.0
 31
0.0
  0
LINE
  5
2A37
330
2B0E
100
AcDbEntity
  8
OUTLINE
100
AcDbLine
 10
-437.0
 20
-192.0
 30
0.0
 11
-437.0
 21
-3.0
 31
0.0
  0
LINE
  5
2A38
330
2B0E
100
AcDbEntity
  8
OUTLINE
100
AcDbLine
 10
-437.0
 20
-792.0
 30
0.0
 11
437.0
 21
-792.0
 31
0.0
  0
LINE
  5
2A39
330
2B0E
100
AcDbEntity
  8
OUTLINE
100
AcDbLine
 10
163.0
 20
-792.0
 30
0.0
 11
381.0
 21
-792.0
 31
0.0
  0
LINE
  5
2A3A
330
2B0E
100
AcDbEntity
  8
OUTLINE
100
AcDbLine
 10
-437.0
 20
-60.0
 30
0.0
 11
437.0
 21
-60.0
 31
0.0
  0
LINE
  5
2A3B
330
2B0E
100
AcDbEntity
  8
OUTLINE
100
AcDbLine
 39
50.0
 10
-475.0
 20
-3.0
 30
0.0
 11
-475.0
 21
0.0
 31
0.0
  0
LINE
  5
2A3C
330
2B0E
100
AcDbEntity
  8
OUTLINE
100
AcDbLine
 39
50.0
 10
-475.0
 20
0.0
 30
0.0
 11
475.0
 21
0.0
 31
0.0
  0
LINE
  5
2A3D
330
2B0E
100
AcDbEntity
  8
OUTLINE
100
AcDbLine
 39
50.0
 10
475.0
 20
0.0
 30
0.0
 11
475.0
 21
-3.0
 31
0.0
  0
LINE
  5
2A3E
330
2B0E
100
AcDbEntity
  8
DETAIL
100
AcDbLine
 10
-411.5
 20
-771.0
 30
0.0
 11
-411.5
 21
-81.0
 31
0.0
  0
LINE
  5
2A3F
330
2B0E
100
AcDbEntity
  8
DETAIL
100
AcDbLine
 10
411.4999999999977
 20
-771.0
 30
0.0
 11
411.5
 21
-81.0
 31
0.0
  0
LINE
  5
2A40
330
2B0E
100
AcDbEntity
  8
DETAIL
100
AcDbLine
 10
-411.5
 20
-81.0
 30
0.0
 11
411.5
 21
-81.0
 31
0.0
  0
LINE
  5
2A41
330
2B0E
100
AcDbEntity
  8
DETAIL
100
AcDbLine
 10
-411.5
 20
-771.0
 30
0.0
 11
411.5
 21
-771.0
 31
0.0
  0
INSERT
  5
2A42
330
2B0E
100
AcDbEntity
  8
DETAIL
100
AcDbBlockReference
  2
*X70
 10
0.0
 20
0.0
 30
0.0
1001
ACADANNOTATIVE
1000
AnnotativeData
1002
{
1070
     1
1070
     0
1002
}
1001
ACAD
1000
HATCH
1002
{
1070
    19
1000
LINE
1040
72.22849999999998
1040
5.838766301980095
1000
R14_HATCH_DATA
1000
8B93
1011
1.0
1021
0.0
1031
0.0
1011
0.0
1021
1.0
1031
0.0
1011
0.0
1021
0.0
1031
1.0
1040
0.0
1010
0.0
1020
0.0
1030
1.0
1000
LINE
1070
     0
1070
     0
1071
        2
1071
        7
1070
     0
1070
     1
1071
        6
1040
411.5
1040
-274.8000000000001
1040
195.7000000000007
1040
-274.8000000000001
1040
195.6999999999989
1040
-81.0
1040
-411.5000000000017
1040
-81.0
1040
-411.4999999999978
1040
-771.0
1040
411.4999999999978
1040
-771.0000000000004
1071
        0
1071
        7
1070
     0
1070
     1
1071
        4
1040
411.5
1040
-274.8000000000001
1040
411.5000000000017
1040
-81.0
1040
195.7000000000007
1040
-81.0
1040
195.7000000000007
1040
-274.8000000000001
1071
        0
1070
     0
1070
     1
1040
5.838766301980095
1040
72.22849999999998
1070
     0
1070
     1
1040
5.838766301980095
1040
14727.88002069431
1040
4103.065027461741
1040
3.881680532789153
1040
8.151533417570705
1070
     0
1040
4.045976745749626
1071
        2
1040
-15.551486287035
1040
-331.6408679306277
1040
0.0
1040
309.8751664770972
1040
-197.7013186024042
1040
0.0
1002
}
  0
INSERT
  5
2A43
330
2B0E
100
AcDbEntity
  8
DETAIL
100
AcDbBlockReference
  2
*X71
 10
0.0
 20
0.0
 30
0.0
1001
ACADANNOTATIVE
1000
AnnotativeData
1002
{
1070
     1
1070
     0
1002
}
1001
ACAD
1000
HATCH
1002
{
1070
    19
1000
LINE
1040
72.22849999999998
1040
0.4444190051994897
1000
R14_HATCH_DATA
1000
8B99
1011
1.0
1021
0.0
1031
0.0
1011
0.0
1021
1.0
1031
0.0
1011
0.0
1021
0.0
1031
1.0
1040
0.0
1010
0.0
1020
0.0
1030
1.0
1000
LINE
1070
     0
1070
     0
1071
        2
1071
        7
1070
     0
1070
     1
1071
        6
1040
411.5000000000017
1040
-274.8000000000001
1040
195.7000000000007
1040
-274.8000000000001
1040
195.6999999999989
1040
-81.0
1040
-411.5000000000017
1040
-81.0
1040
-411.4999999999978
1040
-771.0
1040
411.4999999999978
1040
-771.0000000000004
1071
        0
1071
       23
1070
     0
1070
     1
1071
        4
1040
411.4999999999978
1040
-81.0
1040
195.6999999999989
1040
-81.00000000000093
1040
195.7000000000007
1040
-274.8000000000001
1040
411.5000000000017
1040
-274.8000000000001
1071
        0
1070
     0
1070
     1
1040
0.4444190051994897
1040
72.22849999999998
1070
     0
1070
     1
1040
0.4444190051994897
1040
14727.88002069431
1040
4103.065027461741
1040
-3.881680532789157
1040
8.151533417570702
1070
     0
1040
4.451160590177502
1071
        2
1040
-7.125241395640839
1040
-291.3566622903327
1040
0.0
1040
334.8675573120709
1040
-197.3238295722176
1040
0.0
1002
}
  0
LINE
  5
2A44
330
2B0E
100
AcDbEntity
  8
DETAIL
100
AcDbLine
 10
-411.5
 20
-771.0
 30
0.0
 11
-411.5
 21
-81.0
 31
0.0
  0
LINE
  5
2A45
330
2B0E
100
AcDbEntity
  8
DETAIL
100
AcDbLine
 10
411.4999999999977
 20
-771.0
 30
0.0
 11
411.5
 21
-81.0
 31
0.0
  0
LINE
  5
2A46
330
2B0E
100
AcDbEntity
  8
DETAIL
100
AcDbLine
 10
-411.5
 20
-81.0
 30
0.0
 11
411.5
 21
-81.0
 31
0.0
  0
LINE
  5
2A47
330
2B0E
100
AcDbEntity
  8
DETAIL
100
AcDbLine
 10
-411.5
 20
-771.0
 30
0.0
 11
411.5
 21
-771.0
 31
0.0
  0
LINE
  5
2A48
330
2B0E
100
AcDbEntity
  8
SIZE
100
AcDbLine
 10
475.0
 20
20.0
 30
0.0
 11
475.0
 21
383.6920227499204
 31
0.0
  0
LINE
  5
2A49
330
2B0E
100
AcDbEntity
  8
SIZE
100
AcDbLine
 10
-475.0
 20
20.0
 30
0.0
 11
-475.0
 21
383.6920227499204
 31
0.0
  0
LINE
  5
2A4A
330
2B0E
100
AcDbEntity
  8
SIZE
100
AcDbLine
 10
463.0
 20
363.6920227499203
 30
0.0
 11
-463.0
 21
363.6920227499203
 31
0.0
  0
INSERT
  5
2A4B
330
2B0E
100
AcDbEntity
  8
SIZE
100
AcDbBlockReference
  2
_DOTBLANK
 10
475.0
 20
363.6920227499203
 30
0.0
 41
12.0
 42
12.0
 43
12.0
  0
INSERT
  5
2A4C
330
2B0E
100
AcDbEntity
  8
SIZE
100
AcDbBlockReference
  2
_DOTBLANK
 10
-475.0
 20
363.6920227499203
 30
0.0
 41
12.0
 42
12.0
 43
12.0
 50
180.0
  0
LINE
  5
2A4D
330
2B0E
100
AcDbEntity
  8
SIZE
100
AcDbLine
 10
449.9999999999982
 20
32.5
 30
0.0
 11
449.9999999999982
 21
245.4072788520753
 31
0.0
  0
LINE
  5
2A4E
330
2B0E
100
AcDbEntity
  8
SIZE
100
AcDbLine
 10
-450.0
 20
32.5
 30
0.0
 11
-450.0
 21
245.4072788520753
 31
0.0
  0
LINE
  5
2A4F
330
2B0E
100
AcDbEntity
  8
SIZE
100
AcDbLine
 10
437.9999999999982
 20
225.4072788520752
 30
0.0
 11
-438.0
 21
225.4072788520752
 31
0.0
  0
INSERT
  5
2A50
330
2B0E
100
AcDbEntity
  8
SIZE
100
AcDbBlockReference
  2
_DOTBLANK
 10
449.9999999999982
 20
225.4072788520752
 30
0.0
 41
12.0
 42
12.0
 43
12.0
  0
INSERT
  5
2A51
330
2B0E
100
AcDbEntity
  8
SIZE
100
AcDbBlockReference
  2
_DOTBLANK
 10
-450.0
 20
225.4072788520752
 30
0.0
 41
12.0
 42
12.0
 43
12.0
 50
180.0
  0
LINE
  5
2A52
330
2B0E
100
AcDbEntity
  8
SIZE
100
AcDbLine
 10
-457.0
 20
-792.0
 30
0.0
 11
-812.1152426731555
 21
-792.0
 31
0.0
  0
LINE
  5
2A53
330
2B0E
100
AcDbEntity
  8
SIZE
100
AcDbLine
 10
-495.0000000000001
 20
0.0
 30
0.0
 11
-812.1152426731555
 21
0.0
 31
0.0
  0
LINE
  5
2A54
330
2B0E
100
AcDbEntity
  8
SIZE
100
AcDbLine
 10
-792.1152426731555
 20
-779.9999999999997
 30
0.0
 11
-792.1152426731548
 21
-12.0
 31
0.0
  0
INSERT
  5
2A55
330
2B0E
100
AcDbEntity
  8
SIZE
100
AcDbBlockReference
  2
_DOTBLANK
 10
-792.1152426731555
 20
-792.0
 30
0.0
 41
12.0
 42
12.0
 43
12.0
 50
270.0
  0
INSERT
  5
2A56
330
2B0E
100
AcDbEntity
  8
SIZE
100
AcDbBlockReference
  2
_DOTBLANK
 10
-792.1152426731548
 20
0.0
 30
0.0
 41
12.0
 42
12.0
 43
12.0
 50
90.0
  0
LINE
  5
2A57
330
2B0E
100
AcDbEntity
  8
SIZE
100
AcDbLine
 10
437.0
 20
-812.0
 30
0.0
 11
437.0
 21
-1077.822995541721
 31
0.0
  0
LINE
  5
2A58
330
2B0E
100
AcDbEntity
  8
SIZE
100
AcDbLine
 10
-437.0
 20
-812.0
 30
0.0
 11
-437.0
 21
-1077.822995541721
 31
0.0
  0
LINE
  5
2A59
330
2B0E
100
AcDbEntity
  8
SIZE
100
AcDbLine
 10
425.0
 20
-1057.822995541721
 30
0.0
 11
-425.0
 21
-1057.822995541721
 31
0.0
  0
INSERT
  5
2A5A
330
2B0E
100
AcDbEntity
  8
SIZE
100
AcDbBlockReference
  2
_DOTBLANK
 10
437.0
 20
-1057.822995541721
 30
0.0
 41
12.0
 42
12.0
 43
12.0
  0
INSERT
  5
2A5B
330
2B0E
100
AcDbEntity
  8
SIZE
100
AcDbBlockReference
  2
_DOTBLANK
 10
-437.0
 20
-1057.822995541721
 30
0.0
 41
12.0
 42
12.0
 43
12.0
 50
180.0
  0
TEXT
  5
2A5C
330
2B0E
100
AcDbEntity
  8
SIZE
100
AcDbText
 10
-75.42857142857155
 20
-1047.822995541721
 30
0.0
 40
64.0
  1
874
 41
0.9
100
AcDbText
  0
TEXT
  5
2A5D
330
2B0E
100
AcDbEntity
  8
SIZE
100
AcDbText
 10
-802.1152426731548
 20
-470.5571428571427
 30
0.0
 40
64.0
  1
792
 50
90.0
 41
0.9
100
AcDbText
  0
TEXT
  5
2A5E
330
2B0E
100
AcDbEntity
  8
SIZE
100
AcDbText
 10
-75.29736118102937
 20
373.6920227499203
 30
0.0
 40
64.0
  1
950
 41
0.9
100
AcDbText
  0
TEXT
  5
2A5F
330
2B0E
100
AcDbEntity
  8
SIZE
100
AcDbText
 10
-73.37318084211165
 20
235.4072788520753
 30
0.0
 40
64.0
  1
900
 41
0.9
100
AcDbText
  0
ENDSEC
  0
SECTION
  2
OBJECTS
  0
DICTIONARY
  5
2AA6
330
0
100
AcDbDictionary
281
     1
  3
ACAD_2007HEADERVARS_RT
350
2CF3
  3
ACAD_COLOR
350
2B04
  3
ACAD_GROUP
350
2AA7
  3
ACAD_LAYOUT
350
2B03
  3
ACAD_MATERIAL
350
2AAA
  3
ACAD_MLEADERSTYLE
350
2B07
  3
ACAD_MLINESTYLE
350
2B00
  3
ACAD_PLOTSETTINGS
350
2B02
  3
ACAD_PLOTSTYLENAME
350
2AA8
  3
ACAD_SCALELIST
350
2AD4
  3
ACAD_TABLESTYLE
350
2B05
  3
ACAD_VISUALSTYLE
350
2AC3
  3
ACDB_RECOMPOSE_DATA
350
2CF1
  3
AcDbVariableDictionary
350
2CE8
  3
AcmDictionary
350
2C9B
  3
AMG
350
2BE8
  3
DWGPROPS
350
2CF2
  3
MAPISURF_MODULE
350
2C68
  0
DICTIONARY
  5
2CC3
330
2AF6
100
AcDbDictionary
280
     1
281
     1
  3
ADSK_XREC_LAYER_RECONCILED
360
2CC4
  0
DICTIONARY
  5
2CC5
330
2B25
100
AcDbDictionary
280
     1
281
     1
  3
ADSK_XREC_LAYER_RECONCILED
360
2CC6
  0
DICTIONARY
  5
2CC7
330
2B26
100
AcDbDictionary
280
     1
281
     1
  3
ADSK_XREC_LAYER_RECONCILED
360
2CC8
  0
DICTIONARY
  5
2CC9
330
2B27
100
AcDbDictionary
280
     1
281
     1
  3
ADSK_XREC_LAYER_RECONCILED
360
2CCA
  0
DICTIONARY
  5
2CCB
330
2B28
100
AcDbDictionary
280
     1
281
     1
  3
ADSK_XREC_LAYER_RECONCILED
360
2CCC
  0
DICTIONARY
  5
2CCD
330
2B29
100
AcDbDictionary
280
     1
281
     1
  3
ADSK_XREC_LAYER_RECONCILED
360
2CCE
  0
DICTIONARY
  5
2CCF
330
2B2B
100
AcDbDictionary
280
     1
281
     1
  3
ADSK_XREC_LAYER_RECONCILED
360
2CD0
  0
DICTIONARY
  5
2CD1
330
2B2C
100
AcDbDictionary
280
     1
281
     1
  3
ADSK_XREC_LAYER_RECONCILED
360
2CD2
  0
DICTIONARY
  5
2CD3
330
2B2D
100
AcDbDictionary
280
     1
281
     1
  3
ADSK_XREC_LAYER_RECONCILED
360
2CD4
  0
DICTIONARY
  5
2CD5
330
2B2E
100
AcDbDictionary
280
     1
281
     1
  3
ADSK_XREC_LAYER_RECONCILED
360
2CD6
  0
DICTIONARY
  5
2CD7
330
2B2F
100
AcDbDictionary
280
     1
281
     1
  3
ADSK_XREC_LAYER_RECONCILED
360
2CD8
  0
DICTIONARY
  5
2CD9
330
2B0E
100
AcDbDictionary
280
     1
281
     1
  3
ACAD_INDEX
360
2CDA
  0
DICTIONARY
  5
2CF3
102
{ACAD_REACTORS
330
2AA6
102
}
330
2AA6
100
AcDbDictionary
281
     1
  3
DIMARCSYM
350
2CF4
  3
DIMLTEX1
350
2CF6
  3
DIMLTEX2
350
2CF7
  3
DIMLTYPE
350
2CF5
  0
DICTIONARY
  5
2B04
102
{ACAD_REACTORS
330
2AA6
102
}
330
2AA6
100
AcDbDictionary
281
     1
  0
DICTIONARY
  5
2AA7
102
{ACAD_REACTORS
330
2AA6
102
}
330
2AA6
100
AcDbDictionary
281
     1
  0
DICTIONARY
  5
2B03
102
{ACAD_REACTORS
330
2AA6
102
}
330
2AA6
100
AcDbDictionary
281
     1
  3
Model
350
2B11
  3
レイアウト1
350
2B0D
  0
DICTIONARY
  5
2AAA
102
{ACAD_REACTORS
330
2AA6
102
}
330
2AA6
100
AcDbDictionary
281
     1
  3
ByBlock
350
2AB3
  3
ByLayer
350
2AAB
  3
Global
350
2ABB
  0
DICTIONARY
  5
2B07
102
{ACAD_REACTORS
330
2AA6
102
}
330
2AA6
100
AcDbDictionary
281
     1
  3
Standard
350
2B08
  0
DICTIONARY
  5
2B00
102
{ACAD_REACTORS
330
2AA6
102
}
330
2AA6
100
AcDbDictionary
281
     1
  3
Standard
350
2B01
  0
DICTIONARY
  5
2B02
102
{ACAD_REACTORS
330
2AA6
102
}
330
2AA6
100
AcDbDictionary
281
     1
  0
ACDBDICTIONARYWDFLT
  5
2AA8
102
{ACAD_REACTORS
330
2AA6
102
}
330
2AA6
100
AcDbDictionary
281
     1
  3
Normal
350
2AA9
100
AcDbDictionaryWithDefault
340
2AA9
  0
DICTIONARY
  5
2AD4
102
{ACAD_REACTORS
330
2AA6
102
}
330
2AA6
100
AcDbDictionary
281
     1
  3
A0
350
2AD5
  3
A1
350
2AD6
  3
A2
350
2AD7
  3
A3
350
2AD8
  3
A4
350
2AD9
  3
A5
350
2ADA
  3
A6
350
2ADB
  3
A7
350
2ADC
  3
A8
350
2ADD
  3
A9
350
2ADE
  3
B0
350
2ADF
  3
B1
350
2AE0
  3
B2
350
2AE1
  3
B3
350
2AE2
  3
B4
350
2AE3
  3
B5
350
2AE4
  3
B6
350
2AE5
  3
B7
350
2AE6
  3
B8
350
2AE7
  3
B9
350
2AE8
  3
C0
350
2AE9
  3
C1
350
2AEA
  3
C2
350
2AEB
  3
C3
350
2AEC
  3
C4
350
2AED
  3
C5
350
2AEE
  3
C6
350
2AEF
  3
C7
350
2AF0
  3
C8
350
2AF1
  3
C9
350
2AF2
  3
D0
350
2AF3
  3
D1
350
2AF4
  3
D2
350
2AF5
  0
DICTIONARY
  5
2B05
102
{ACAD_REACTORS
330
2AA6
102
}
330
2AA6
100
AcDbDictionary
281
     1
  3
Standard
350
2B06
  0
DICTIONARY
  5
2AC3
102
{ACAD_REACTORS
330
2AA6
102
}
330
2AA6
100
AcDbDictionary
281
     1
  3
2dWireframe
350
2AC9
  3
3D Hidden
350
2ACB
  3
3dWireframe
350
2ACA
  3
Basic
350
2AC8
  3
Brighten
350
2ACF
  3
ColorChange
350
2AD3
  3
Conceptual
350
2ACC
  3
Dim
350
2ACE
  3
Facepattern
350
2AD2
  3
Flat
350
2AC4
  3
FlatWithEdges
350
2AC5
  3
Gouraud
350
2AC6
  3
GouraudWithEdges
350
2AC7
  3
Linepattern
350
2AD1
  3
Realistic
350
2ACD
  3
Thicken
350
2AD0
  0
XRECORD
  5
2CF1
102
{ACAD_REACTORS
330
2AA6
102
}
330
2AA6
100
AcDbXrecord
280
     1
 90
        1
330
2B06
  0
DICTIONARY
  5
2CE8
102
{ACAD_REACTORS
330
2AA6
102
}
330
2AA6
100
AcDbDictionary
281
     1
  3
CANNOSCALE
350
2CEB
  3
CMLEADERSTYLE
350
2CEA
  3
CTABLESTYLE
350
2CE9
  3
DIMASSOC
350
2CEE
  3
INDEXCTL
350
2CED
  3
SORTENTS
350
2CEC
  0
DICTIONARY
  5
2C9B
102
{ACAD_REACTORS
330
2AA6
102
}
330
2AA6
100
AcDbDictionary
281
     1
  3
AcmStdDictionary
350
2CA9
  0
DICTIONARY
  5
2BE8
102
{ACAD_REACTORS
330
2AA6
102
}
330
2AA6
100
AcDbDictionary
281
     1
  3
AcMgSettings
350
2BE9
  0
XRECORD
  5
2CF2
102
{ACAD_REACTORS
330
2AA6
102
}
330
2AA6
100
AcDbXrecord
280
     1
  1
DWGPROPS COOKIE
  2

  3

  4

  6

  7

  8
A090053
  9

300
AmdtFileType=84
301
=
302
=
303
=
304
=
305
=
306
=
307
=
308
=
309
=
 40
1.041299293981481
 41
2452321.396199653
 42
2456210.762983634
  1

 90
        1
  0
XRECORD
  5
2CC4
102
{ACAD_REACTORS
330
2CC3
102
}
330
2CC3
100
AcDbXrecord
280
     1
290
     1
  0
XRECORD
  5
2CC6
102
{ACAD_REACTORS
330
2CC5
102
}
330
2CC5
100
AcDbXrecord
280
     1
290
     1
  0
XRECORD
  5
2CC8
102
{ACAD_REACTORS
330
2CC7
102
}
330
2CC7
100
AcDbXrecord
280
     1
290
     1
  0
XRECORD
  5
2CCA
102
{ACAD_REACTORS
330
2CC9
102
}
330
2CC9
100
AcDbXrecord
280
     1
290
     1
  0
XRECORD
  5
2CCC
102
{ACAD_REACTORS
330
2CCB
102
}
330
2CCB
100
AcDbXrecord
280
     1
290
     1
  0
XRECORD
  5
2CCE
102
{ACAD_REACTORS
330
2CCD
102
}
330
2CCD
100
AcDbXrecord
280
     1
290
     1
  0
XRECORD
  5
2CD0
102
{ACAD_REACTORS
330
2CCF
102
}
330
2CCF
100
AcDbXrecord
280
     1
290
     1
  0
XRECORD
  5
2CD2
102
{ACAD_REACTORS
330
2CD1
102
}
330
2CD1
100
AcDbXrecord
280
     1
290
     1
  0
XRECORD
  5
2CD4
102
{ACAD_REACTORS
330
2CD3
102
}
330
2CD3
100
AcDbXrecord
280
     1
290
     1
  0
XRECORD
  5
2CD6
102
{ACAD_REACTORS
330
2CD5
102
}
330
2CD5
100
AcDbXrecord
280
     1
290
     1
  0
XRECORD
  5
2CD8
102
{ACAD_REACTORS
330
2CD7
102
}
330
2CD7
100
AcDbXrecord
280
     1
290
     1
  0
DICTIONARY
  5
2CDA
102
{ACAD_REACTORS
330
2CD9
102
}
330
2CD9
100
AcDbDictionary
281
     1
  3
*A1
350
2CDB
  0
XRECORD
  5
2CF4
102
{ACAD_REACTORS
330
2CF3
102
}
330
2CF3
100
AcDbXrecord
280
     1
 70
     1
  0
XRECORD
  5
2CF6
102
{ACAD_REACTORS
330
2CF3
102
}
330
2CF3
100
AcDbXrecord
280
     1
340
2AFC
  0
XRECORD
  5
2CF7
102
{ACAD_REACTORS
330
2CF3
102
}
330
2CF3
100
AcDbXrecord
280
     1
340
2AFC
  0
XRECORD
  5
2CF5
102
{ACAD_REACTORS
330
2CF3
102
}
330
2CF3
100
AcDbXrecord
280
     1
340
2AFC
  0
LAYOUT
  5
2B11
102
{ACAD_XDICTIONARY
360
2CFE
102
}
102
{ACAD_REACTORS
330
2B03
102
}
330
2B03
100
AcDbPlotSettings
  1

  2
自動 EPSON LP-9600S (W2450527 上)
  4

  6

 40
0.0
 41
0.0
 42
0.0
 43
0.0
 44
0.0
 45
0.0
 46
0.0
 47
0.0
 48
0.0
 49
0.0
140
0.0
141
0.0
142
1.0
143
1.0
 70
  1712
 72
     0
 73
     0
 74
     0
  7

 75
     0
147
1.0
148
0.0
149
0.0
100
AcDbLayout
  1
Model
 70
     1
 71
     0
 10
0.0
 20
0.0
 11
12.0
 21
9.0
 12
0.0
 22
0.0
 32
0.0
 14
0.0
 24
0.0
 34
0.0
 15
0.0
 25
0.0
 35
0.0
146
0.0
 13
0.0
 23
0.0
 33
0.0
 16
1.0
 26
0.0
 36
0.0
 17
0.0
 27
1.0
 37
0.0
 76
     0
330
2B0E
331
2B12
  0
LAYOUT
  5
2B0D
102
{ACAD_XDICTIONARY
360
2CFC
102
}
102
{ACAD_REACTORS
330
2B03
102
}
330
2B03
100
AcDbPlotSettings
  1

  2
自動 EPSON LP-9600S (W2450527 上)
  4

  6

 40
0.0
 41
0.0
 42
0.0
 43
0.0
 44
0.0
 45
0.0
 46
0.0
 47
0.0
 48
0.0
 49
0.0
140
0.0
141
0.0
142
1.0
143
1.0
 70
   688
 72
     0
 73
     0
 74
     5
  7

 75
    16
147
1.0
148
0.0
149
0.0
100
AcDbLayout
  1
レイアウト1
 70
     1
 71
     1
 10
0.0
 20
0.0
 11
12.0
 21
9.0
 12
0.0
 22
0.0
 32
0.0
 14
1.000000000000000E+20
 24
1.000000000000000E+20
 34
1.000000000000000E+20
 15
-1.000000000000000E+20
 25
-1.000000000000000E+20
 35
-1.000000000000000E+20
146
0.0
 13
0.0
 23
0.0
 33
0.0
 16
1.0
 26
0.0
 36
0.0
 17
0.0
 27
1.0
 37
0.0
 76
     0
330
2B0A
  0
MATERIAL
  5
2AB3
102
{ACAD_XDICTIONARY
360
2AB4
102
}
102
{ACAD_REACTORS
330
2AAA
102
}
330
2AAA
100
AcDbMaterial
  1
ByBlock
 72
     0
 43
0.0208333333333333
 43
0.0
 43
0.0
 43
0.0
 43
0.0
 43
0.0208333333333333
 43
0.0
 43
0.0
 43
0.0
 43
0.0
 43
1.0
 43
0.0
 43
0.0
 43
0.0
 43
0.0
 43
1.0
 77
     0
 47
0.0208333333333333
 47
0.0
 47
0.0
 47
0.0
 47
0.0
 47
0.0208333333333333
 47
0.0
 47
0.0
 47
0.0
 47
0.0
 47
1.0
 47
0.0
 47
0.0
 47
0.0
 47
0.0
 47
1.0
171
     0
 49
0.0208333333333333
 49
0.0
 49
0.0
 49
0.0
 49
0.0
 49
0.0208333333333333
 49
0.0
 49
0.0
 49
0.0
 49
0.0
 49
1.0
 49
0.0
 49
0.0
 49
0.0
 49
0.0
 49
1.0
175
     0
142
0.0208333333333333
142
0.0
142
0.0
142
0.0
142
0.0
142
0.0208333333333333
142
0.0
142
0.0
142
0.0
142
0.0
142
1.0
142
0.0
142
0.0
142
0.0
142
0.0
142
1.0
179
     0
144
0.0208333333333333
144
0.0
144
0.0
144
0.0
144
0.0
144
0.0208333333333333
144
0.0
144
0.0
144
0.0
144
0.0
144
1.0
144
0.0
144
0.0
144
0.0
144
0.0
144
1.0
147
0.0208333333333333
147
0.0
147
0.0
147
0.0
147
0.0
147
0.0208333333333333
147
0.0
147
0.0
147
0.0
147
0.0
147
1.0
147
0.0
147
0.0
147
0.0
147
0.0
147
1.0
  0
MATERIAL
  5
2AAB
102
{ACAD_XDICTIONARY
360
2AAC
102
}
102
{ACAD_REACTORS
330
2AAA
102
}
330
2AAA
100
AcDbMaterial
  1
ByLayer
 72
     0
 43
0.0208333333333333
 43
0.0
 43
0.0
 43
0.0
 43
0.0
 43
0.0208333333333333
 43
0.0
 43
0.0
 43
0.0
 43
0.0
 43
1.0
 43
0.0
 43
0.0
 43
0.0
 43
0.0
 43
1.0
 77
     0
 47
0.0208333333333333
 47
0.0
 47
0.0
 47
0.0
 47
0.0
 47
0.0208333333333333
 47
0.0
 47
0.0
 47
0.0
 47
0.0
 47
1.0
 47
0.0
 47
0.0
 47
0.0
 47
0.0
 47
1.0
171
     0
 49
0.0208333333333333
 49
0.0
 49
0.0
 49
0.0
 49
0.0
 49
0.0208333333333333
 49
0.0
 49
0.0
 49
0.0
 49
0.0
 49
1.0
 49
0.0
 49
0.0
 49
0.0
 49
0.0
 49
1.0
175
     0
142
0.0208333333333333
142
0.0
142
0.0
142
0.0
142
0.0
142
0.0208333333333333
142
0.0
142
0.0
142
0.0
142
0.0
142
1.0
142
0.0
142
0.0
142
0.0
142
0.0
142
1.0
179
     0
144
0.0208333333333333
144
0.0
144
0.0
144
0.0
144
0.0
144
0.0208333333333333
144
0.0
144
0.0
144
0.0
144
0.0
144
1.0
144
0.0
144
0.0
144
0.0
144
0.0
144
1.0
147
0.0208333333333333
147
0.0
147
0.0
147
0.0
147
0.0
147
0.0208333333333333
147
0.0
147
0.0
147
0.0
147
0.0
147
1.0
147
0.0
147
0.0
147
0.0
147
0.0
147
1.0
  0
MATERIAL
  5
2ABB
102
{ACAD_XDICTIONARY
360
2ABC
102
}
102
{ACAD_REACTORS
330
2AAA
102
}
330
2AAA
100
AcDbMaterial
  1
Global
 72
     0
 43
0.0208333333333333
 43
0.0
 43
0.0
 43
0.0
 43
0.0
 43
0.0208333333333333
 43
0.0
 43
0.0
 43
0.0
 43
0.0
 43
1.0
 43
0.0
 43
0.0
 43
0.0
 43
0.0
 43
1.0
 77
     0
 47
0.0208333333333333
 47
0.0
 47
0.0
 47
0.0
 47
0.0
 47
0.0208333333333333
 47
0.0
 47
0.0
 47
0.0
 47
0.0
 47
1.0
 47
0.0
 47
0.0
 47
0.0
 47
0.0
 47
1.0
171
     0
 49
0.0208333333333333
 49
0.0
 49
0.0
 49
0.0
 49
0.0
 49
0.0208333333333333
 49
0.0
 49
0.0
 49
0.0
 49
0.0
 49
1.0
 49
0.0
 49
0.0
 49
0.0
 49
0.0
 49
1.0
175
     0
142
0.0208333333333333
142
0.0
142
0.0
142
0.0
142
0.0
142
0.0208333333333333
142
0.0
142
0.0
142
0.0
142
0.0
142
1.0
142
0.0
142
0.0
142
0.0
142
0.0
142
1.0
179
     0
144
0.0208333333333333
144
0.0
144
0.0
144
0.0
144
0.0
144
0.0208333333333333
144
0.0
144
0.0
144
0.0
144
0.0
144
1.0
144
0.0
144
0.0
144
0.0
144
0.0
144
1.0
147
0.0208333333333333
147
0.0
147
0.0
147
0.0
147
0.0
147
0.0208333333333333
147
0.0
147
0.0
147
0.0
147
0.0
147
1.0
147
0.0
147
0.0
147
0.0
147
0.0
147
1.0
  0
MLEADERSTYLE
  5
2B08
102
{ACAD_REACTORS
330
2B07
102
}
330
2B07
100
AcDbMLeaderStyle
170
     2
171
     1
172
     0
 90
        2
 40
0.0
 41
0.0
173
     1
 91
-1056964608
340
2AFC
 92
       -2
290
     1
 42
0.09
291
     1
 43
0.36
  3
Standard
 44
0.18
300

342
2AF7
174
     1
178
     6
175
     1
176
     0
 93
-1056964608
 45
0.18
292
     0
297
     0
 46
0.18
 94
-1056964608
 47
1.0
 49
1.0
140
1.0
293
     1
141
0.0
294
     1
177
     0
142
1.0
295
     0
296
     0
143
0.125
1001
ACAD_MLEADERVER
1070
     2
  0
MLINESTYLE
  5
2B01
102
{ACAD_REACTORS
330
2B00
102
}
330
2B00
100
AcDbMlineStyle
  2
STANDARD
 70
     0
  3

 62
   256
 51
90.0
 52
90.0
 71
     2
 49
0.5
 62
   256
  6
BYLAYER
 49
-0.5
 62
   256
  6
BYLAYER
  0
ACDBPLACEHOLDER
  5
2AA9
102
{ACAD_REACTORS
330
2AA8
102
}
330
2AA8
  0
SCALE
  5
2AD5
102
{ACAD_REACTORS
330
2AD4
102
}
330
2AD4
100
AcDbScale
 70
     0
300
1:1
140
1.0
141
1.0
290
     1
  0
SCALE
  5
2AD6
102
{ACAD_REACTORS
330
2AD4
102
}
330
2AD4
100
AcDbScale
 70
     0
300
1:2
140
1.0
141
2.0
290
     0
  0
SCALE
  5
2AD7
102
{ACAD_REACTORS
330
2AD4
102
}
330
2AD4
100
AcDbScale
 70
     0
300
1:4
140
1.0
141
4.0
290
     0
  0
SCALE
  5
2AD8
102
{ACAD_REACTORS
330
2AD4
102
}
330
2AD4
100
AcDbScale
 70
     0
300
1:5
140
1.0
141
5.0
290
     0
  0
SCALE
  5
2AD9
102
{ACAD_REACTORS
330
2AD4
102
}
330
2AD4
100
AcDbScale
 70
     0
300
1:8
140
1.0
141
8.0
290
     0
  0
SCALE
  5
2ADA
102
{ACAD_REACTORS
330
2AD4
102
}
330
2AD4
100
AcDbScale
 70
     0
300
1:10
140
1.0
141
10.0
290
     0
  0
SCALE
  5
2ADB
102
{ACAD_REACTORS
330
2AD4
102
}
330
2AD4
100
AcDbScale
 70
     0
300
1:16
140
1.0
141
16.0
290
     0
  0
SCALE
  5
2ADC
102
{ACAD_REACTORS
330
2AD4
102
}
330
2AD4
100
AcDbScale
 70
     0
300
1:20
140
1.0
141
20.0
290
     0
  0
SCALE
  5
2ADD
102
{ACAD_REACTORS
330
2AD4
102
}
330
2AD4
100
AcDbScale
 70
     0
300
1:30
140
1.0
141
30.0
290
     0
  0
SCALE
  5
2ADE
102
{ACAD_REACTORS
330
2AD4
102
}
330
2AD4
100
AcDbScale
 70
     0
300
1:40
140
1.0
141
40.0
290
     0
  0
SCALE
  5
2ADF
102
{ACAD_REACTORS
330
2AD4
102
}
330
2AD4
100
AcDbScale
 70
     0
300
1:50
140
1.0
141
50.0
290
     0
  0
SCALE
  5
2AE0
102
{ACAD_REACTORS
330
2AD4
102
}
330
2AD4
100
AcDbScale
 70
     0
300
1:100
140
1.0
141
100.0
290
     0
  0
SCALE
  5
2AE1
102
{ACAD_REACTORS
330
2AD4
102
}
330
2AD4
100
AcDbScale
 70
     0
300
2:1
140
2.0
141
1.0
290
     0
  0
SCALE
  5
2AE2
102
{ACAD_REACTORS
330
2AD4
102
}
330
2AD4
100
AcDbScale
 70
     0
300
4:1
140
4.0
141
1.0
290
     0
  0
SCALE
  5
2AE3
102
{ACAD_REACTORS
330
2AD4
102
}
330
2AD4
100
AcDbScale
 70
     0
300
8:1
140
8.0
141
1.0
290
     0
  0
SCALE
  5
2AE4
102
{ACAD_REACTORS
330
2AD4
102
}
330
2AD4
100
AcDbScale
 70
     0
300
10:1
140
10.0
141
1.0
290
     0
  0
SCALE
  5
2AE5
102
{ACAD_REACTORS
330
2AD4
102
}
330
2AD4
100
AcDbScale
 70
     0
300
100:1
140
100.0
141
1.0
290
     0
  0
SCALE
  5
2AE6
102
{ACAD_REACTORS
330
2AD4
102
}
330
2AD4
100
AcDbScale
 70
     0
300
1/128" = 1'-0"
140
0.0078125
141
12.0
290
     0
  0
SCALE
  5
2AE7
102
{ACAD_REACTORS
330
2AD4
102
}
330
2AD4
100
AcDbScale
 70
     0
300
1/64" = 1'-0"
140
0.015625
141
12.0
290
     0
  0
SCALE
  5
2AE8
102
{ACAD_REACTORS
330
2AD4
102
}
330
2AD4
100
AcDbScale
 70
     0
300
1/32" = 1'-0"
140
0.03125
141
12.0
290
     0
  0
SCALE
  5
2AE9
102
{ACAD_REACTORS
330
2AD4
102
}
330
2AD4
100
AcDbScale
 70
     0
300
1/16" = 1'-0"
140
0.0625
141
12.0
290
     0
  0
SCALE
  5
2AEA
102
{ACAD_REACTORS
330
2AD4
102
}
330
2AD4
100
AcDbScale
 70
     0
300
3/32" = 1'-0"
140
0.09375
141
12.0
290
     0
  0
SCALE
  5
2AEB
102
{ACAD_REACTORS
330
2AD4
102
}
330
2AD4
100
AcDbScale
 70
     0
300
1/8" = 1'-0"
140
0.125
141
12.0
290
     0
  0
SCALE
  5
2AEC
102
{ACAD_REACTORS
330
2AD4
102
}
330
2AD4
100
AcDbScale
 70
     0
300
3/16" = 1'-0"
140
0.1875
141
12.0
290
     0
  0
SCALE
  5
2AED
102
{ACAD_REACTORS
330
2AD4
102
}
330
2AD4
100
AcDbScale
 70
     0
300
1/4" = 1'-0"
140
0.25
141
12.0
290
     0
  0
SCALE
  5
2AEE
102
{ACAD_REACTORS
330
2AD4
102
}
330
2AD4
100
AcDbScale
 70
     0
300
3/8" = 1'-0"
140
0.375
141
12.0
290
     0
  0
SCALE
  5
2AEF
102
{ACAD_REACTORS
330
2AD4
102
}
330
2AD4
100
AcDbScale
 70
     0
300
1/2" = 1'-0"
140
0.5
141
12.0
290
     0
  0
SCALE
  5
2AF0
102
{ACAD_REACTORS
330
2AD4
102
}
330
2AD4
100
AcDbScale
 70
     0
300
3/4" = 1'-0"
140
0.75
141
12.0
290
     0
  0
SCALE
  5
2AF1
102
{ACAD_REACTORS
330
2AD4
102
}
330
2AD4
100
AcDbScale
 70
     0
300
1" = 1'-0"
140
1.0
141
12.0
290
     0
  0
SCALE
  5
2AF2
102
{ACAD_REACTORS
330
2AD4
102
}
330
2AD4
100
AcDbScale
 70
     0
300
1-1/2" = 1'-0"
140
1.5
141
12.0
290
     0
  0
SCALE
  5
2AF3
102
{ACAD_REACTORS
330
2AD4
102
}
330
2AD4
100
AcDbScale
 70
     0
300
3" = 1'-0"
140
3.0
141
12.0
290
     0
  0
SCALE
  5
2AF4
102
{ACAD_REACTORS
330
2AD4
102
}
330
2AD4
100
AcDbScale
 70
     0
300
6" = 1'-0"
140
6.0
141
12.0
290
     0
  0
SCALE
  5
2AF5
102
{ACAD_REACTORS
330
2AD4
102
}
330
2AD4
100
AcDbScale
 70
     0
300
1'-0" = 1'-0"
140
12.0
141
12.0
290
     0
  0
TABLESTYLE
  5
2B06
102
{ACAD_XDICTIONARY
360
2CEF
102
}
102
{ACAD_REACTORS
330
2B05
102
}
330
2B05
100
AcDbTableStyle
  3
Standard
 70
     0
 71
     0
 40
0.06
 41
0.06
280
     0
281
     0
  7
STANDARD
140
0.18
170
     2
 62
     0
 63
     7
283
     0
274
    -2
284
     1
 64
     0
275
    -2
285
     1
 65
     0
276
    -2
286
     1
 66
     0
277
    -2
287
     1
 67
     0
278
    -2
288
     1
 68
     0
279
    -2
289
     1
 69
     0
  7
STANDARD
140
0.25
170
     5
 62
     0
 63
     7
283
     0
274
    -2
284
     1
 64
     0
275
    -2
285
     1
 65
     0
276
    -2
286
     1
 66
     0
277
    -2
287
     1
 67
     0
278
    -2
288
     1
 68
     0
279
    -2
289
     1
 69
     0
  7
STANDARD
140
0.18
170
     5
 62
     0
 63
     7
283
     0
274
    -2
284
     1
 64
     0
275
    -2
285
     1
 65
     0
276
    -2
286
     1
 66
     0
277
    -2
287
     1
 67
     0
278
    -2
288
     1
 68
     0
279
    -2
289
     1
 69
     0
  0
VISUALSTYLE
  5
2AC9
102
{ACAD_REACTORS
330
2AC3
102
}
330
2AC3
100
AcDbVisualStyle
  2
2dWireframe
 70
     4
 71
     0
 72
     2
 73
     0
 90
        0
 40
-0.6
 41
-30.0
 62
     5
 63
     7
 74
     1
 91
        4
 64
     7
 65
   257
 75
     1
175
     1
 42
1.0
 92
        0
 66
   257
 43
1.0
 76
     1
 77
     6
 78
     2
 67
     7
 79
     5
170
     0
171
     0
290
     0
174
     0
 93
        1
 44
0.0
173
     0
291
     0
 45
0.0
1001
ACAD
1000
AcDbSavedByObjectVersion
1070
     0
  0
VISUALSTYLE
  5
2ACB
102
{ACAD_REACTORS
330
2AC3
102
}
330
2AC3
100
AcDbVisualStyle
  2
3D Hidden
 70
     6
 71
     1
 72
     2
 73
     2
 90
        0
 40
-0.6
 41
-30.0
 62
     5
 63
     7
 74
     2
 91
        2
 64
     7
 65
   257
 75
     2
175
     1
 42
40.0
 92
        0
 66
   257
 43
1.0
 76
     1
 77
     6
 78
     2
 67
     7
 79
     3
170
     0
171
     0
290
     0
174
     0
 93
        1
 44
0.0
173
     0
291
     0
 45
0.0
1001
ACAD
1000
AcDbSavedByObjectVersion
1070
     0
  0
VISUALSTYLE
  5
2ACA
102
{ACAD_REACTORS
330
2AC3
102
}
330
2AC3
100
AcDbVisualStyle
  2
3dWireframe
 70
     5
 71
     0
 72
     2
 73
     0
 90
        0
 40
-0.6
 41
-30.0
 62
     5
 63
     7
 74
     1
 91
        4
 64
     7
 65
   257
 75
     1
175
     1
 42
1.0
 92
        0
 66
   257
 43
1.0
 76
     1
 77
     6
 78
     2
 67
     7
 79
     5
170
     0
171
     0
290
     0
174
     0
 93
        1
 44
0.0
173
     0
291
     0
 45
0.0
1001
ACAD
1000
AcDbSavedByObjectVersion
1070
     0
  0
VISUALSTYLE
  5
2AC8
102
{ACAD_REACTORS
330
2AC3
102
}
330
2AC3
100
AcDbVisualStyle
  2
Basic
 70
     7
 71
     1
 72
     0
 73
     1
 90
        0
 40
-0.6
 41
-30.0
 62
     5
 63
     7
 74
     0
 91
        4
 64
     7
 65
   257
 75
     1
175
     1
 42
1.0
 92
        8
 66
     7
 43
1.0
 76
     1
 77
     6
 78
     2
 67
     7
 79
     5
170
     0
171
     0
290
     0
174
     0
 93
        1
 44
0.0
173
     0
291
     1
 45
0.0
1001
ACAD
1000
AcDbSavedByObjectVersion
1070
     0
  0
VISUALSTYLE
  5
2ACF
102
{ACAD_REACTORS
330
2AC3
102
}
330
2AC3
100
AcDbVisualStyle
  2
Brighten
 70
    12
 71
     2
 72
     2
 73
     0
 90
        0
 40
-0.6
 41
-30.0
 62
     5
 63
     7
 74
     1
 91
        4
 64
     7
 65
   257
 75
     1
175
     1
 42
1.0
 92
        8
 66
     7
 43
1.0
 76
     1
 77
     6
 78
     2
 67
     7
 79
     5
170
     0
171
     0
290
     0
174
     0
 93
        1
 44
50.0
173
     0
291
     1
 45
0.0
1001
ACAD
1000
AcDbSavedByObjectVersion
1070
     0
  0
VISUALSTYLE
  5
2AD3
102
{ACAD_REACTORS
330
2AC3
102
}
330
2AC3
100
AcDbVisualStyle
  2
ColorChange
 70
    16
 71
     2
 72
     2
 73
     3
 90
        0
 40
-0.6
 41
-30.0
 62
     5
 63
     8
 74
     1
 91
        4
 64
     7
 65
   257
 75
     1
175
     1
 42
1.0
 92
        8
 66
     8
 43
1.0
 76
     1
 77
     6
 78
     2
 67
     7
 79
     5
170
     0
171
     0
290
     0
174
     0
 93
        1
 44
0.0
173
     0
291
     1
 45
0.0
1001
ACAD
1000
AcDbSavedByObjectVersion
1070
     0
  0
VISUALSTYLE
  5
2ACC
102
{ACAD_REACTORS
330
2AC3
102
}
330
2AC3
100
AcDbVisualStyle
  2
Conceptual
 70
     9
 71
     3
 72
     2
 73
     0
 90
        0
 40
-0.6
 41
-30.0
 62
     5
 63
     7
 74
     2
 91
        2
 64
     7
 65
   257
 75
     1
175
     1
 42
40.0
 92
        8
 66
     7
 43
1.0
 76
     1
 77
     6
 78
     2
 67
     7
 79
     3
170
     0
171
     0
290
     0
174
     0
 93
        1
 44
0.0
173
     0
291
     0
 45
0.0
1001
ACAD
1000
AcDbSavedByObjectVersion
1070
     0
  0
VISUALSTYLE
  5
2ACE
102
{ACAD_REACTORS
330
2AC3
102
}
330
2AC3
100
AcDbVisualStyle
  2
Dim
 70
    11
 71
     2
 72
     2
 73
     0
 90
        0
 40
-0.6
 41
-30.0
 62
     5
 63
     7
 74
     1
 91
        4
 64
     7
 65
   257
 75
     1
175
     1
 42
1.0
 92
        8
 66
     7
 43
1.0
 76
     1
 77
     6
 78
     2
 67
     7
 79
     5
170
     0
171
     0
290
     0
174
     0
 93
        1
 44
-50.0
173
     0
291
     1
 45
0.0
1001
ACAD
1000
AcDbSavedByObjectVersion
1070
     0
  0
VISUALSTYLE
  5
2AD2
102
{ACAD_REACTORS
330
2AC3
102
}
330
2AC3
100
AcDbVisualStyle
  2
Facepattern
 70
    15
 71
     2
 72
     2
 73
     0
 90
        0
 40
-0.6
 41
-30.0
 62
     5
 63
     7
 74
     1
 91
        4
 64
     7
 65
   257
 75
     1
175
     1
 42
1.0
 92
        8
 66
     7
 43
1.0
 76
     1
 77
     6
 78
     2
 67
     7
 79
     5
170
     0
171
     0
290
     0
174
     0
 93
        1
 44
0.0
173
     0
291
     1
 45
0.0
1001
ACAD
1000
AcDbSavedByObjectVersion
1070
     0
  0
VISUALSTYLE
  5
2AC4
102
{ACAD_REACTORS
330
2AC3
102
}
330
2AC3
100
AcDbVisualStyle
  2
Flat
 70
     0
 71
     2
 72
     1
 73
     1
 90
        2
 40
-0.6
 41
30.0
 62
     5
 63
     7
 74
     0
 91
        4
 64
     7
 65
   257
 75
     1
175
     1
 42
1.0
 92
        8
 66
     7
 43
1.0
 76
     1
 77
     6
 78
     2
 67
     7
 79
     5
170
     0
171
     0
290
     0
174
     0
 93
       13
 44
0.0
173
     0
291
     1
 45
0.0
1001
ACAD
1000
AcDbSavedByObjectVersion
1070
     0
  0
VISUALSTYLE
  5
2AC5
102
{ACAD_REACTORS
330
2AC3
102
}
330
2AC3
100
AcDbVisualStyle
  2
FlatWithEdges
 70
     1
 71
     2
 72
     1
 73
     1
 90
        2
 40
-0.6
 41
30.0
 62
     5
 63
     7
 74
     1
 91
        4
 64
     7
 65
   257
 75
     1
175
     1
 42
1.0
 92
        0
 66
   257
 43
1.0
 76
     1
 77
     6
 78
     2
 67
     7
 79
     5
170
     0
171
     0
290
     0
174
     0
 93
       13
 44
0.0
173
     0
291
     1
 45
0.0
1001
ACAD
1000
AcDbSavedByObjectVersion
1070
     0
  0
VISUALSTYLE
  5
2AC6
102
{ACAD_REACTORS
330
2AC3
102
}
330
2AC3
100
AcDbVisualStyle
  2
Gouraud
 70
     2
 71
     2
 72
     2
 73
     1
 90
        2
 40
-0.6
 41
30.0
 62
     5
 63
     7
 74
     0
 91
        4
 64
     7
 65
   257
 75
     1
175
     1
 42
1.0
 92
        0
 66
     7
 43
1.0
 76
     1
 77
     6
 78
     2
 67
     7
 79
     5
170
     0
171
     0
290
     0
174
     0
 93
       13
 44
0.0
173
     0
291
     1
 45
0.0
1001
ACAD
1000
AcDbSavedByObjectVersion
1070
     0
  0
VISUALSTYLE
  5
2AC7
102
{ACAD_REACTORS
330
2AC3
102
}
330
2AC3
100
AcDbVisualStyle
  2
GouraudWithEdges
 70
     3
 71
     2
 72
     2
 73
     1
 90
        2
 40
-0.6
 41
30.0
 62
     5
 63
     7
 74
     1
 91
        4
 64
     7
 65
   257
 75
     1
175
     1
 42
1.0
 92
        0
 66
   257
 43
1.0
 76
     1
 77
     6
 78
     2
 67
     7
 79
     5
170
     0
171
     0
290
     0
174
     0
 93
       13
 44
0.0
173
     0
291
     1
 45
0.0
1001
ACAD
1000
AcDbSavedByObjectVersion
1070
     0
  0
VISUALSTYLE
  5
2AD1
102
{ACAD_REACTORS
330
2AC3
102
}
330
2AC3
100
AcDbVisualStyle
  2
Linepattern
 70
    14
 71
     2
 72
     2
 73
     0
 90
        0
 40
-0.6
 41
-30.0
 62
     5
 63
     7
 74
     1
 91
        4
 64
     7
 65
   257
 75
     7
175
     7
 42
1.0
 92
        8
 66
     7
 43
1.0
 76
     1
 77
     6
 78
     2
 67
     7
 79
     5
170
     0
171
     0
290
     0
174
     0
 93
        1
 44
0.0
173
     0
291
     1
 45
0.0
1001
ACAD
1000
AcDbSavedByObjectVersion
1070
     0
  0
VISUALSTYLE
  5
2ACD
102
{ACAD_REACTORS
330
2AC3
102
}
330
2AC3
100
AcDbVisualStyle
  2
Realistic
 70
     8
 71
     2
 72
     2
 73
     0
 90
        0
 40
-0.6
 41
-30.0
 62
     5
 63
     7
 74
     1
 91
        0
 64
     7
 65
   257
 75
     1
175
     1
 42
1.0
 92
        8
 66
     8
 43
1.0
 76
     1
 77
     6
 78
     2
 67
     7
 79
     5
170
     0
171
     0
290
     0
174
     0
 93
       13
 44
0.0
173
     0
291
     0
 45
0.0
1001
ACAD
1000
AcDbSavedByObjectVersion
1070
     0
  0
VISUALSTYLE
  5
2AD0
102
{ACAD_REACTORS
330
2AC3
102
}
330
2AC3
100
AcDbVisualStyle
  2
Thicken
 70
    13
 71
     2
 72
     2
 73
     0
 90
        0
 40
-0.6
 41
-30.0
 62
     5
 63
     7
 74
     1
 91
        4
 64
     7
 65
   257
 75
     1
175
     1
 42
1.0
 92
       12
 66
     7
 43
1.0
 76
     1
 77
     6
 78
     2
 67
     7
 79
     5
170
     0
171
     0
290
     0
174
     0
 93
        1
 44
0.0
173
     0
291
     1
 45
0.0
1001
ACAD
1000
AcDbSavedByObjectVersion
1070
     0
  0
DICTIONARYVAR
  5
2CEB
102
{ACAD_REACTORS
330
2CE8
102
}
330
2CE8
100
DictionaryVariables
280
     0
  1
1:1
  0
DICTIONARYVAR
  5
2CEA
102
{ACAD_REACTORS
330
2CE8
102
}
330
2CE8
100
DictionaryVariables
280
     0
  1
STANDARD
  0
DICTIONARYVAR
  5
2CE9
102
{ACAD_REACTORS
330
2CE8
102
}
330
2CE8
100
DictionaryVariables
280
     0
  1
STANDARD
  0
DICTIONARYVAR
  5
2CEE
102
{ACAD_REACTORS
330
2CE8
102
}
330
2CE8
100
DictionaryVariables
280
     0
  1
1
  0
DICTIONARYVAR
  5
2CED
102
{ACAD_REACTORS
330
2CE8
102
}
330
2CE8
100
DictionaryVariables
280
     0
  1
1
  0
DICTIONARYVAR
  5
2CEC
102
{ACAD_REACTORS
330
2CE8
102
}
330
2CE8
100
DictionaryVariables
280
     0
  1
127
  0
DICTIONARY
  5
2CA9
102
{ACAD_REACTORS
330
2C9B
102
}
330
2C9B
100
AcDbDictionary
281
     1
  0
DICTIONARY
  5
2BE9
102
{ACAD_REACTORS
330
2BE8
102
}
330
2BE8
100
AcDbDictionary
281
     1
  3
DWGSETTINGS
350
2BEA
  3
TRANSSETTINGS
350
2BEB
  0
LAYER_INDEX
  5
2CDB
102
{ACAD_REACTORS
330
2CDA
102
}
330
2CDA
100
AcDbIndex
 40
2456210.762983634
100
AcDbLayerIndex
  8
0
360
2CDC
 90
        2
  8
OUTLINE
360
2CDD
 90
       17
  8
SIZE
360
2CDE
 90
       24
  8
BASIS
360
2CDF
 90
        1
  8
DETAIL
360
2CE0
 90
       25
  8
ARRANGE
360
2CE1
 90
        2
  8
DEFPOINTS
360
2CE2
 90
        0
  8
ETC
360
2CE3
 90
        3
  8
FIX
360
2CE4
 90
        0
  8
NOTE
360
2CE5
 90
        4
  8
SERVICESPACE
360
2CE6
 90
        0
  8
SYMBOLLINE
360
2CE7
 90
        0
  0
DICTIONARY
  5
2CFE
330
2B11
100
AcDbDictionary
280
     1
281
     1
  3
ACAD_XREC_ROUNDTRIP
360
2CFF
  0
DICTIONARY
  5
2CFC
330
2B0D
100
AcDbDictionary
280
     1
281
     1
  3
ACAD_XREC_ROUNDTRIP
360
2CFD
  0
DICTIONARY
  5
2AB4
330
2AB3
100
AcDbDictionary
280
     1
281
     1
  3
ACAD_XREC_ROUNDTRIP
360
2CF9
  3
BUMPTILE
360
2AB6
  3
DIFFUSETILE
360
2AB5
  3
OPACITYTILE
360
2AB9
  3
REFLECTIONTILE
360
2AB8
  3
REFRACTIONTILE
360
2ABA
  3
SPECULARTILE
360
2AB7
  0
DICTIONARY
  5
2AAC
330
2AAB
100
AcDbDictionary
280
     1
281
     1
  3
ACAD_XREC_ROUNDTRIP
360
2CF8
  3
BUMPTILE
360
2AAE
  3
DIFFUSETILE
360
2AAD
  3
OPACITYTILE
360
2AB1
  3
REFLECTIONTILE
360
2AB0
  3
REFRACTIONTILE
360
2AB2
  3
SPECULARTILE
360
2AAF
  0
DICTIONARY
  5
2ABC
330
2ABB
100
AcDbDictionary
280
     1
281
     1
  3
ACAD_XREC_ROUNDTRIP
360
2CFA
  3
BUMPTILE
360
2ABE
  3
DIFFUSETILE
360
2ABD
  3
OPACITYTILE
360
2AC1
  3
REFLECTIONTILE
360
2AC0
  3
REFRACTIONTILE
360
2AC2
  3
SPECULARTILE
360
2ABF
  0
DICTIONARY
  5
2CEF
330
2B06
100
AcDbDictionary
280
     1
281
     1
  3
ACAD_ROUNDTRIP_2008_TABLESTYLE_CELLSTYLEMAP
360
2CF0
  3
ACAD_XREC_ROUNDTRIP
360
2CFB
  0
IDBUFFER
  5
2CDC
330
0
100
AcDbIdBuffer
330
2A2F
330
2A30
  0
IDBUFFER
  5
2CDD
330
0
100
AcDbIdBuffer
330
2A3D
330
953
330
954
330
955
330
956
330
957
330
958
330
2A33
330
2A34
330
2A35
330
2A36
330
2A37
330
2A38
330
2A39
330
2A3A
330
2A3B
330
2A3C
  0
IDBUFFER
  5
2CDE
330
0
100
AcDbIdBuffer
330
2A58
330
2A59
330
2A5A
330
2A5B
330
2A5C
330
2A5D
330
2A5E
330
2A5F
330
2A48
330
2A49
330
2A4A
330
2A4B
330
2A4C
330
2A4D
330
2A4E
330
2A4F
330
2A50
330
2A51
330
2A52
330
2A53
330
2A54
330
2A55
330
2A56
330
2A57
  0
IDBUFFER
  5
2CDF
330
0
100
AcDbIdBuffer
330
2A1C
  0
IDBUFFER
  5
2CE0
330
0
100
AcDbIdBuffer
330
2A3F
330
2A40
330
2A41
330
2A42
330
2A43
330
2A44
330
2A45
330
2A46
330
2A47
330
2A1E
330
2A1F
330
2A20
330
2A21
330
2A22
330
2A23
330
2A24
330
2A25
330
2A26
330
2A27
330
2A2A
330
2A2B
330
2A2C
330
2A2D
330
2A2E
330
2A3E
  0
IDBUFFER
  5
2CE1
330
0
100
AcDbIdBuffer
330
2A1B
330
2A1D
  0
IDBUFFER
  5
2CE2
330
0
100
AcDbIdBuffer
  0
IDBUFFER
  5
2CE3
330
0
100
AcDbIdBuffer
330
2A18
330
2A19
330
2A1A
  0
IDBUFFER
  5
2CE4
330
0
100
AcDbIdBuffer
  0
IDBUFFER
  5
2CE5
330
0
100
AcDbIdBuffer
330
2A28
330
2A29
330
2A31
330
2A32
  0
IDBUFFER
  5
2CE6
330
0
100
AcDbIdBuffer
  0
IDBUFFER
  5
2CE7
330
0
100
AcDbIdBuffer
  0
XRECORD
  5
2CFF
102
{ACAD_REACTORS
330
2CFE
102
}
330
2CFE
100
AcDbXrecord
280
     1
102
SHADEPLOT
 70
     0
102
SHADEPLOTRESLEVEL
 70
     2
102
SHADEPLOTCUSTOMDPI
 70
   300
  0
XRECORD
  5
2CFD
102
{ACAD_REACTORS
330
2CFC
102
}
330
2CFC
100
AcDbXrecord
280
     1
102
SHADEPLOT
 70
     0
102
SHADEPLOTRESLEVEL
 70
     2
102
SHADEPLOTCUSTOMDPI
 70
   300
  0
XRECORD
  5
2CF9
102
{ACAD_REACTORS
330
2AB4
102
}
330
2AB4
100
AcDbXrecord
280
     1
102
MATERIAL
148
0.0
149
0.0
149
0.0
 93
        0
 94
      127
282
     0
 72
     0
 77
     0
171
     0
175
     0
179
     0
273
     0
  0
XRECORD
  5
2AB6
102
{ACAD_REACTORS
330
2AB4
102
}
330
2AB4
100
AcDbXrecord
280
     1
270
     1
271
     1
  0
XRECORD
  5
2AB5
102
{ACAD_REACTORS
330
2AB4
102
}
330
2AB4
100
AcDbXrecord
280
     1
270
     1
271
     1
  0
XRECORD
  5
2AB9
102
{ACAD_REACTORS
330
2AB4
102
}
330
2AB4
100
AcDbXrecord
280
     1
270
     1
271
     1
  0
XRECORD
  5
2AB8
102
{ACAD_REACTORS
330
2AB4
102
}
330
2AB4
100
AcDbXrecord
280
     1
270
     1
271
     1
  0
XRECORD
  5
2ABA
102
{ACAD_REACTORS
330
2AB4
102
}
330
2AB4
100
AcDbXrecord
280
     1
270
     1
271
     1
  0
XRECORD
  5
2AB7
102
{ACAD_REACTORS
330
2AB4
102
}
330
2AB4
100
AcDbXrecord
280
     1
270
     1
271
     1
  0
XRECORD
  5
2CF8
102
{ACAD_REACTORS
330
2AAC
102
}
330
2AAC
100
AcDbXrecord
280
     1
102
MATERIAL
148
0.0
149
0.0
149
0.0
 93
        0
 94
      127
282
     0
 72
     0
 77
     0
171
     0
175
     0
179
     0
273
     0
  0
XRECORD
  5
2AAE
102
{ACAD_REACTORS
330
2AAC
102
}
330
2AAC
100
AcDbXrecord
280
     1
270
     1
271
     1
  0
XRECORD
  5
2AAD
102
{ACAD_REACTORS
330
2AAC
102
}
330
2AAC
100
AcDbXrecord
280
     1
270
     1
271
     1
  0
XRECORD
  5
2AB1
102
{ACAD_REACTORS
330
2AAC
102
}
330
2AAC
100
AcDbXrecord
280
     1
270
     1
271
     1
  0
XRECORD
  5
2AB0
102
{ACAD_REACTORS
330
2AAC
102
}
330
2AAC
100
AcDbXrecord
280
     1
270
     1
271
     1
  0
XRECORD
  5
2AB2
102
{ACAD_REACTORS
330
2AAC
102
}
330
2AAC
100
AcDbXrecord
280
     1
270
     1
271
     1
  0
XRECORD
  5
2AAF
102
{ACAD_REACTORS
330
2AAC
102
}
330
2AAC
100
AcDbXrecord
280
     1
270
     1
271
     1
  0
XRECORD
  5
2CFA
102
{ACAD_REACTORS
330
2ABC
102
}
330
2ABC
100
AcDbXrecord
280
     1
102
MATERIAL
148
0.0
149
0.0
149
0.0
 93
        0
 94
      127
282
     0
 72
     0
 77
     0
171
     0
175
     0
179
     0
273
     0
  0
XRECORD
  5
2ABE
102
{ACAD_REACTORS
330
2ABC
102
}
330
2ABC
100
AcDbXrecord
280
     1
270
     1
271
     1
  0
XRECORD
  5
2ABD
102
{ACAD_REACTORS
330
2ABC
102
}
330
2ABC
100
AcDbXrecord
280
     1
270
     1
271
     1
  0
XRECORD
  5
2AC1
102
{ACAD_REACTORS
330
2ABC
102
}
330
2ABC
100
AcDbXrecord
280
     1
270
     1
271
     1
  0
XRECORD
  5
2AC0
102
{ACAD_REACTORS
330
2ABC
102
}
330
2ABC
100
AcDbXrecord
280
     1
270
     1
271
     1
  0
XRECORD
  5
2AC2
102
{ACAD_REACTORS
330
2ABC
102
}
330
2ABC
100
AcDbXrecord
280
     1
270
     1
271
     1
  0
XRECORD
  5
2ABF
102
{ACAD_REACTORS
330
2ABC
102
}
330
2ABC
100
AcDbXrecord
280
     1
270
     1
271
     1
  0
CELLSTYLEMAP
  5
2CF0
102
{ACAD_REACTORS
330
2CEF
102
}
330
2CEF
100
AcDbCellStyleMap
 90
        3
300
CELLSTYLE
  1
TABLEFORMAT_BEGIN
 90
        5
170
     1
 91
        0
 92
    32768
 62
   257
 93
        1
300
CONTENTFORMAT
  1
CONTENTFORMAT_BEGIN
 90
        0
 91
        0
 92
      512
 93
        0
300

 40
0.0
140
1.0
 94
        5
 62
     0
340
2AF7
144
0.25
309
CONTENTFORMAT_END
171
     0
 94
        0
309
TABLEFORMAT_END
  1
CELLSTYLE_BEGIN
 90
        1
 91
        1
300
_TITLE
309
CELLSTYLE_END
300
CELLSTYLE
  1
TABLEFORMAT_BEGIN
 90
        5
170
     1
 91
        0
 92
        0
 62
   257
 93
        1
300
CONTENTFORMAT
  1
CONTENTFORMAT_BEGIN
 90
        0
 91
        0
 92
      512
 93
        0
300

 40
0.0
140
1.0
 94
        5
 62
     0
340
2AF7
144
0.18
309
CONTENTFORMAT_END
171
     0
 94
        0
309
TABLEFORMAT_END
  1
CELLSTYLE_BEGIN
 90
        2
 91
        1
300
_HEADER
309
CELLSTYLE_END
300
CELLSTYLE
  1
TABLEFORMAT_BEGIN
 90
        5
170
     1
 91
        0
 92
        0
 62
   257
 93
        1
300
CONTENTFORMAT
  1
CONTENTFORMAT_BEGIN
 90
        0
 91
        0
 92
      512
 93
        0
300

 40
0.0
140
1.0
 94
        2
 62
     0
340
2AF7
144
0.18
309
CONTENTFORMAT_END
171
     0
 94
        0
309
TABLEFORMAT_END
  1
CELLSTYLE_BEGIN
 90
        3
 91
        2
300
_DATA
309
CELLSTYLE_END
  0
XRECORD
  5
2CFB
102
{ACAD_REACTORS
330
2CEF
102
}
330
2CEF
100
AcDbXrecord
280
     1
102
ACAD_ROUNDTRIP_PRE2007_TABLESTYLE
 90
      512
 91
        0
  1

 92
      512
 93
        0
  2

 94
      512
 95
        0
  3

  0
ENDSEC
  0
EOF
