  0
SECTION
  2
HEADER
  9
$ACADVER
  1
AC1015
  9
$ACADMAINTVER
 70
    20
  9
$DWGCODEPAGE
  3
ANSI_932
  9
$INSBASE
 10
0.0
 20
0.0
 30
0.0
  9
$EXTMIN
 10
-1127.595114277967
 20
-1077.822995541721
 30
0.0
  9
$EXTMAX
 10
1485.607346902454
 20
803.7616409610514
 30
50.0
  9
$LIMMIN
 10
-2970.0
 20
-2100.0
  9
$LIMMAX
 10
2970.0
 20
2100.0
  9
$ORTHOMODE
 70
     1
  9
$REGENMODE
 70
     0
  9
$FILLMODE
 70
     1
  9
$QTEXTMODE
 70
     0
  9
$MIRRTEXT
 70
     0
  9
$LTSCALE
 40
20.0
  9
$ATTMODE
 70
     1
  9
$TEXTSIZE
 40
64.0
  9
$TRACEWID
 40
0.05
  9
$TEXTSTYLE
  7
STANDARD
  9
$CLAYER
  8
0
  9
$CELTYPE
  6
ByLayer
  9
$CECOLOR
 62
   256
  9
$CELTSCALE
 40
1.0
  9
$DISPSILH
 70
     0
  9
$DIMSCALE
 40
1.0
  9
$DIMASZ
 40
0.12
  9
$DIMEXO
 40
0.05
  9
$DIMDLI
 40
0.5
  9
$DIMRND
 40
0.0
  9
$DIMDLE
 40
0.0
  9
$DIMEXE
 40
0.1
  9
$DIMTP
 40
0.1
  9
$DIMTM
 40
0.1
  9
$DIMTXT
 40
0.12
  9
$DIMCEN
 40
0.0
  9
$DIMTSZ
 40
0.0
  9
$DIMTOL
 70
     0
  9
$DIMLIM
 70
     0
  9
$DIMTIH
 70
     1
  9
$DIMTOH
 70
     1
  9
$DIMSE1
 70
     0
  9
$DIMSE2
 70
     0
  9
$DIMTAD
 70
     0
  9
$DIMZIN
 70
     7
  9
$DIMBLK
  1

  9
$DIMASO
 70
     1
  9
$DIMSHO
 70
     0
  9
$DIMPOST
  1

  9
$DIMAPOST
  1
mm
  9
$DIMALT
 70
     0
  9
$DIMALTD
 70
     2
  9
$DIMALTF
 40
25.4
  9
$DIMLFAC
 40
1.0
  9
$DIMTOFL
 70
     0
  9
$DIMTVP
 40
0.0
  9
$DIMTIX
 70
     0
  9
$DIMSOXD
 70
     0
  9
$DIMSAH
 70
     0
  9
$DIMBLK1
  1

  9
$DIMBLK2
  1

  9
$DIMSTYLE
  2
AM_ANSI
  9
$DIMCLRD
 70
   256
  9
$DIMCLRE
 70
   256
  9
$DIMCLRT
 70
     2
  9
$DIMTFAC
 40
0.71
  9
$DIMGAP
 40
0.06
  9
$DIMJUST
 70
     0
  9
$DIMSD1
 70
     0
  9
$DIMSD2
 70
     0
  9
$DIMTOLJ
 70
     1
  9
$DIMTZIN
 70
     7
  9
$DIMALTZ
 70
     0
  9
$DIMALTTZ
 70
     0
  9
$DIMUPT
 70
     0
  9
$DIMDEC
 70
     4
  9
$DIMTDEC
 70
     4
  9
$DIMALTU
 70
     2
  9
$DIMALTTD
 70
     4
  9
$DIMTXSTY
  7
STANDARD
  9
$DIMAUNIT
 70
     0
  9
$DIMADEC
 70
     0
  9
$DIMALTRND
 40
0.0
  9
$DIMAZIN
 70
     2
  9
$DIMDSEP
 70
    46
  9
$DIMATFIT
 70
     3
  9
$DIMFRAC
 70
     0
  9
$DIMLDRBLK
  1

  9
$DIMLUNIT
 70
     2
  9
$DIMLWD
 70
    -1
  9
$DIMLWE
 70
    -1
  9
$DIMTMOVE
 70
     0
  9
$LUNITS
 70
     2
  9
$LUPREC
 70
     4
  9
$SKETCHINC
 40
0.1
  9
$FILLETRAD
 40
4.0
  9
$AUNITS
 70
     1
  9
$AUPREC
 70
     3
  9
$MENU
  1
ACAD
  9
$ELEVATION
 40
0.0
  9
$PELEVATION
 40
0.0
  9
$THICKNESS
 40
50.0
  9
$LIMCHECK
 70
     0
  9
$CHAMFERA
 40
0.0
  9
$CHAMFERB
 40
0.0
  9
$CHAMFERC
 40
0.0
  9
$CHAMFERD
 40
0.0
  9
$SKPOLY
 70
     0
  9
$TDCREATE
 40
2452321.396199653
  9
$TDUCREATE
 40
2452321.021199653
  9
$TDUPDATE
 40
2456210.764929375
  9
$TDUUPDATE
 40
2456210.389929375
  9
$TDINDWG
 40
1.0408398495
  9
$TDUSRTIMER
 40
1.0408340856
  9
$USRTIMER
 70
     1
  9
$ANGBASE
 50
0.0
  9
$ANGDIR
 70
     0
  9
$PDMODE
 70
     3
  9
$PDSIZE
 40
-2.0
  9
$PLINEWID
 40
0.0
  9
$SPLFRAME
 70
     0
  9
$SPLINETYPE
 70
     6
  9
$SPLINESEGS
 70
     8
  9
$HANDSEED
  5
2D07
  9
$SURFTAB1
 70
     6
  9
$SURFTAB2
 70
     6
  9
$SURFTYPE
 70
     6
  9
$SURFU
 70
     6
  9
$SURFV
 70
     6
  9
$UCSBASE
  2

  9
$UCSNAME
  2

  9
$UCSORG
 10
0.0
 20
0.0
 30
0.0
  9
$UCSXDIR
 10
1.0
 20
0.0
 30
0.0
  9
$UCSYDIR
 10
0.0
 20
1.0
 30
0.0
  9
$UCSORTHOREF
  2

  9
$UCSORTHOVIEW
 70
     0
  9
$UCSORGTOP
 10
0.0
 20
0.0
 30
0.0
  9
$UCSORGBOTTOM
 10
0.0
 20
0.0
 30
0.0
  9
$UCSORGLEFT
 10
0.0
 20
0.0
 30
0.0
  9
$UCSORGRIGHT
 10
0.0
 20
0.0
 30
0.0
  9
$UCSORGFRONT
 10
0.0
 20
0.0
 30
0.0
  9
$UCSORGBACK
 10
0.0
 20
0.0
 30
0.0
  9
$PUCSBASE
  2

  9
$PUCSNAME
  2

  9
$PUCSORG
 10
0.0
 20
0.0
 30
0.0
  9
$PUCSXDIR
 10
1.0
 20
0.0
 30
0.0
  9
$PUCSYDIR
 10
0.0
 20
1.0
 30
0.0
  9
$PUCSORTHOREF
  2

  9
$PUCSORTHOVIEW
 70
     0
  9
$PUCSORGTOP
 10
0.0
 20
0.0
 30
0.0
  9
$PUCSORGBOTTOM
 10
0.0
 20
0.0
 30
0.0
  9
$PUCSORGLEFT
 10
0.0
 20
0.0
 30
0.0
  9
$PUCSORGRIGHT
 10
0.0
 20
0.0
 30
0.0
  9
$PUCSORGFRONT
 10
0.0
 20
0.0
 30
0.0
  9
$PUCSORGBACK
 10
0.0
 20
0.0
 30
0.0
  9
$USERI1
 70
     0
  9
$USERI2
 70
     0
  9
$USERI3
 70
     0
  9
$USERI4
 70
     0
  9
$USERI5
 70
     0
  9
$USERR1
 40
20.0
  9
$USERR2
 40
0.0
  9
$USERR3
 40
0.0
  9
$USERR4
 40
0.0
  9
$USERR5
 40
0.0
  9
$WORLDVIEW
 70
     1
  9
$SHADEDGE
 70
     3
  9
$SHADEDIF
 70
    70
  9
$TILEMODE
 70
     1
  9
$MAXACTVP
 70
    64
  9
$PINSBASE
 10
0.0
 20
0.0
 30
0.0
  9
$PLIMCHECK
 70
     0
  9
$PEXTMIN
 10
1.000000000000000E+20
 20
1.000000000000000E+20
 30
1.000000000000000E+20
  9
$PEXTMAX
 10
-1.000000000000000E+20
 20
-1.000000000000000E+20
 30
-1.000000000000000E+20
  9
$PLIMMIN
 10
0.0
 20
0.0
  9
$PLIMMAX
 10
12.0
 20
9.0
  9
$UNITMODE
 70
     0
  9
$VISRETAIN
 70
     1
  9
$PLINEGEN
 70
     0
  9
$PSLTSCALE
 70
     1
  9
$TREEDEPTH
 70
  3020
  9
$CMLSTYLE
  2
Standard
  9
$CMLJUST
 70
     0
  9
$CMLSCALE
 40
1.0
  9
$PROXYGRAPHICS
 70
     1
  9
$MEASUREMENT
 70
     0
  9
$CELWEIGHT
370
    -1
  9
$ENDCAPS
280
     0
  9
$JOINSTYLE
280
     0
  9
$LWDISPLAY
290
     0
  9
$INSUNITS
 70
     0
  9
$HYPERLINKBASE
  1

  9
$STYLESHEET
  1

  9
$XEDIT
290
     1
  9
$CEPSNTYPE
380
     0
  9
$PSTYLEMODE
290
     1
  9
$FINGERPRINTGUID
  2
{948ED664-E924-4C2F-90AA-9C1D05378B9D}
  9
$VERSIONGUID
  2
{CF6AC1EF-A1E3-456A-BBFC-63422C731A3A}
  9
$EXTNAMES
290
     1
  9
$PSVPSCALE
 40
0.0
  9
$OLESTARTUP
290
     0
  0
ENDSEC
  0
SECTION
  2
CLASSES
  0
CLASS
  1
ACDBDICTIONARYWDFLT
  2
AcDbDictionaryWithDefault
  3
ObjectDBX Classes
 90
        0
280
     0
281
     0
  0
CLASS
  1
MATERIAL
  2
AcDbMaterial
  3
ObjectDBX Classes
 90
     1153
280
     0
281
     0
  0
CLASS
  1
VISUALSTYLE
  2
AcDbVisualStyle
  3
ObjectDBX Classes
 90
     4095
280
     0
281
     0
  0
CLASS
  1
SCALE
  2
AcDbScale
  3
ObjectDBX Classes
 90
     1153
280
     0
281
     0
  0
CLASS
  1
TABLESTYLE
  2
AcDbTableStyle
  3
ObjectDBX Classes
 90
     4095
280
     0
281
     0
  0
CLASS
  1
MLEADERSTYLE
  2
AcDbMLeaderStyle
  3
ACDB_MLEADERSTYLE_CLASS
 90
     4095
280
     0
281
     0
  0
CLASS
  1
AMGSETTINGSOBJ
  2
AmgSettingsObj
  3
"AcadM|Product Description: AutoCAD Mechanical|Company: Autodesk, Inc."
 90
     1024
280
     0
281
     0
  0
CLASS
  1
ACME_DOCUMENT
  2
AcMeDbDoc
  3
AcMeServices
 90
     1024
280
     0
281
     0
  0
CLASS
  1
ACMESCOPE
  2
AcMeScope
  3
AcMeServices
 90
     1024
280
     0
281
     0
  0
CLASS
  1
ACMECOMMANDHISTORY
  2
AcMeCommandHistory
  3
AcMeServices
 90
     1024
280
     0
281
     0
  0
CLASS
  1
ACIMSYSVARMAN
  2
AcImSysVarManager
  3
AcMeServices
 90
     1024
280
     0
281
     0
  0
CLASS
  1
ACIMREALSYSVAR
  2
AcImRealSysVar
  3
AcMeServices
 90
     1024
280
     0
281
     0
  0
CLASS
  1
ACIMINTSYSVAR
  2
AcImIntSysVar
  3
AcMeServices
 90
     1024
280
     0
281
     0
  0
CLASS
  1
ACMEDRAWINGMAN
  2
AcMeDrawingMan
  3
AcMeServices
 90
     1024
280
     0
281
     0
  0
CLASS
  1
ACMEVIEW
  2
AcMeView
  3
AcMeServices
 90
     1024
280
     0
281
     0
  0
CLASS
  1
ACDBENTITYCACHE
  2
AcMeEntityCache
  3
AcMeServices
 90
     1024
280
     0
281
     0
  0
CLASS
  1
GSMANAGER
  2
AcMeGSManager
  3
AcMeServices
 90
     1024
280
     0
281
     0
  0
CLASS
  1
AMDTINTERNALREACTOR
  2
AmdtInternalReactor
  3
AcMeServices
 90
     1024
280
     0
281
     0
  0
CLASS
  1
ACMESTATEMGR
  2
AcMeStateMgr
  3
AcMeServices
 90
     1024
280
     0
281
     0
  0
CLASS
  1
ACGREFMASTER
  2
AcGrefMaster
  3
AcAttribServices
 90
     1024
280
     0
281
     0
  0
CLASS
  1
AM_DRAWING_MGR
  2
AcDmDwgMgr
  3
AcMechDwgViewMgmt
 90
     1024
280
     0
281
     0
  0
CLASS
  1
AM_DWG_DOCUMENT
  2
AcDmDwgDocument
  3
AcMechDwgViewMgmt
 90
     1024
280
     0
281
     0
  0
CLASS
  1
AM_DWG_SHEET
  2
AcDmSheet
  3
AcMechDwgViewMgmt
 90
     1024
280
     0
281
     0
  0
CLASS
  1
AM_VIEWDIMPARMAP
  2
AcDmViewDimParMap
  3
AcMechDwgViewMgmt
 90
     1024
280
     0
281
     0
  0
CLASS
  1
AM_DWGMGR_NAME
  2
AcDmDwgMgrName
  3
AcMechDwgViewMgmt
 90
     1024
280
     0
281
     0
  0
CLASS
  1
ACME_DATABASE
  2
AcMeDbDatabase
  3
AcMeServices
 90
     1024
280
     0
281
     0
  0
CLASS
  1
ACRFINSADJUSTERMGR
  2
AcRfInsAdjusterMgr
  3
AcMeServices
 90
     1024
280
     0
281
     0
  0
CLASS
  1
ACGREFACADMASTER
  2
AcGrefacadMaster
  3
AcGrefServices
 90
     1024
280
     0
281
     0
  0
CLASS
  1
AMDTMENUSTATEMGR
  2
AmdtMenuStateMgr
  3
McadcomServices
 90
     1024
280
     0
281
     0
  0
CLASS
  1
AMDTMCOMMENUSTATE
  2
AmdtMcomMenuState
  3
McadcomServices
 90
     1024
280
     0
281
     0
  0
CLASS
  1
AMIMASTER
  2
AmiMaster
  3
AmiServices
 90
     1024
280
     0
281
     0
  0
CLASS
  1
ASAPP
  2
AcAsAppObject
  3
AutoSurfServices
 90
     1024
280
     0
281
     0
  0
CLASS
  1
IM_STATIC_MAN
  2
AcImStaticVarManager
  3
AcMeServices
 90
     1024
280
     0
281
     0
  0
CLASS
  1
ACIMSTRSYSVAR
  2
AcImStrSysVar
  3
AcMeServices
 90
     1024
280
     0
281
     0
  0
CLASS
  1
ACIMDBLSTATICVAR
  2
AcImDblStaticVar
  3
AcMeServices
 90
     1024
280
     0
281
     0
  0
CLASS
  1
ACIMSTRSTATICVAR
  2
AcImStrStaticVar
  3
AcMeServices
 90
     1024
280
     0
281
     0
  0
CLASS
  1
ACIMINTSTATICVAR
  2
AcImIntStaticVar
  3
AcMeServices
 90
     1024
280
     0
281
     0
  0
CLASS
  1
ACASGREFMASTER
  2
AcAsGrefMaster
  3
AutoSurfResolverServices
 90
     1024
280
     0
281
     0
  0
CLASS
  1
ACADGREFMODULE
  2
AcAdGrefModule
  3
AdGrefServices
 90
     1024
280
     0
281
     0
  0
CLASS
  1
AMDTMAPISURFMOUDULE
  2
AmdtMApiSurfModule
  3
MApiSurfServices
 90
     1024
280
     0
281
     0
  0
CLASS
  1
MAPIAMMOUDLE
  2
MApiAmModule
  3
MApiAmServices
 90
     1024
280
     0
281
     0
  0
CLASS
  1
AMDTADMENUSTATE
  2
AmdtAdMenuState
  3
DesignerServices
 90
     1024
280
     0
281
     0
  0
CLASS
  1
ADAPPL
  2
AcAdAppl
  3
DesignerServices
 90
     1024
280
     0
281
     0
  0
CLASS
  1
DEPMGR
  2
AcAdDepMgr
  3
DesignerServices
 90
     1024
280
     0
281
     0
  0
CLASS
  1
PARAMMGR
  2
AcAdParamMgr
  3
DesignerServices
 90
     1024
280
     0
281
     0
  0
CLASS
  1
PARAMSCOPE
  2
AcAdParamScope
  3
DesignerServices
 90
     1024
280
     0
281
     0
  0
CLASS
  1
NAMEDAPPL
  2
AcAdNamedAppl
  3
DesignerServices
 90
     1024
280
     0
281
     0
  0
CLASS
  1
AMDTDMMENUSTATE
  2
AmdtDmMenuState
  3
AcMechDwgViewMgmt
 90
     1024
280
     0
281
     0
  0
CLASS
  1
MAPIADMODULE
  2
MApiAdModule
  3
MApiAdServices
 90
     1024
280
     0
281
     0
  0
CLASS
  1
AMDTAMMENUSTATE
  2
AmdtAmMenuState
  3
DesignerAssemblies
 90
     1024
280
     0
281
     0
  0
CLASS
  1
ACAMPROJECT
  2
AcAmProject
  3
DesignerAssemblies
 90
     1024
280
     0
281
     0
  0
CLASS
  1
ACAMGRCOMPDEF
  2
AcAmGrCompDef
  3
DesignerAssemblies
 90
     1024
280
     0
281
     0
  0
CLASS
  1
ACCMCONTEXT
  2
AcCmContext
  3
DesignerAssemblies
 90
     1024
280
     0
281
     0
  0
CLASS
  1
ACAMCOMPDEF
  2
AcAmCompDef
  3
DesignerAssemblies
 90
     1024
280
     0
281
     0
  0
CLASS
  1
ACAMCOMPDEFMGR
  2
AcAmCompDefMgr
  3
DesignerAssemblies
 90
     1024
280
     0
281
     0
  0
CLASS
  1
AMCONTEXTMGR
  2
AcAmContextMgr
  3
DesignerAssemblies
 90
     1024
280
     0
281
     0
  0
CLASS
  1
ACAMCONTEXTMODELER
  2
AcAmContextModeler
  3
DesignerAssemblies
 90
     1024
280
     0
281
     0
  0
CLASS
  1
ACMDATADICTIONARY
  2
AcmDataDictionary
  3
"AcmSymBB|Product Description: AutoCAD Mechanical|Company: Autodesk, Inc."
 90
     1024
280
     0
281
     0
  0
CLASS
  1
ACMDATAENTRYBLOCK
  2
AcmDataEntryBlock
  3
AcmSymBB|Product Description: AutoCAD Mechanical|Company: Autodesk, Inc.
 90
     1024
280
     0
281
     0
  0
CLASS
  1
ACRFATTGENMGR
  2
AcRfAttGeneralMgr
  3
AcAttribServices
 90
     1024
280
     0
281
     0
  0
CLASS
  1
ACRFOBJATTMGR
  2
AcRfObjAttGroupMgr
  3
AcAttribServices
 90
     1024
280
     0
281
     0
  0
CLASS
  1
ACRFMCADAPIATTHOLDER
  2
AcRfMCADAPIAttHolder
  3
AcAttribServices
 90
     1024
280
     0
281
     0
  0
CLASS
  1
AMDTSYSATTR
  2
AmdtSystemAttribute
  3
AcAttribServices
 90
     1024
280
     0
281
     0
  0
CLASS
  1
CATALOGSTATE
  2
AcAmCatalogState
  3
DesignerAssemblies
 90
     1024
280
     0
281
     0
  0
CLASS
  1
ACAMGRCOMPDEFSET
  2
AcAmGrCompDefSet
  3
DesignerAssemblies
 90
     1024
280
     0
281
     0
  0
CLASS
  1
AMDTBROWSERDBTAB
  2
AmdtBrowserDbTab
  3
McadcomServices
 90
     1024
280
     0
281
     0
  0
CLASS
  1
CBROWSERAPPOBJECT
  2
CBrowserAppObject
  3
McadcomServices
 90
     1024
280
     0
281
     0
  0
CLASS
  1
DM_PLACEHOLDER
  2
AcDmSelsetPlaceholder
  3
AcMechDwgViewMgmt
 90
     1024
280
     0
281
     0
  0
CLASS
  1
ACMSTANDARDANSI
  2
AcmStandardANSI
  3
"Amdt_StdImp|Product Description: AutoCAD Mechanical|Company: Autodesk, Inc."
 90
     1024
280
     0
281
     0
  0
CLASS
  1
ACMSURFSTANDARDANSI
  2
AcmSurfTextStdANSI
  3
"Amdt_StdImp|Product Description: AutoCAD Mechanical|Company: Autodesk, Inc."
 90
     1024
280
     0
281
     0
  0
CLASS
  1
ACMFCFSTANDARDANSI
  2
AcmFCFStdANSI
  3
"Amdt_StdImp|Product Description: AutoCAD Mechanical|Company: Autodesk, Inc."
 90
     1024
280
     0
281
     0
  0
CLASS
  1
ACMWELDSTANDARDANSI
  2
AcmWeldingStdANSI
  3
"Amdt_StdImp|Product Description: AutoCAD Mechanical|Company: Autodesk, Inc."
 90
     1024
280
     0
281
     0
  0
CLASS
  1
ACMIDSTANDARDANSI
  2
AcmIdStdANSI
  3
"Amdt_StdImp|Product Description: AutoCAD Mechanical|Company: Autodesk, Inc."
 90
     1024
280
     0
281
     0
  0
CLASS
  1
ACMDATUMSTANDARDANSI
  2
AcmDatumStdANSI
  3
"Amdt_StdImp|Product Description: AutoCAD Mechanical|Company: Autodesk, Inc."
 90
     1024
280
     0
281
     0
  0
CLASS
  1
ACMBOMSTANDARDANSI
  2
AcmBOMStdANSI
  3
"Amdt_StdImp|Product Description: AutoCAD Mechanical|Company: Autodesk, Inc."
 90
     1024
280
     0
281
     0
  0
CLASS
  1
ACMDETAILSTANDARDANSI
  2
AmdtDetailSymStdANSI
  3
"Amdt_StdImp|Product Description: AutoCAD Mechanical|Company: Autodesk, Inc."
 90
     1024
280
     0
281
     0
  0
CLASS
  1
ACMSECTIONSTANDARDANSI
  2
AmdtSectionSymStdANSI
  3
"Amdt_StdImp|Product Description: AutoCAD Mechanical|Company: Autodesk, Inc."
 90
     1024
280
     0
281
     0
  0
CLASS
  1
ACMCENTERLINESTANDARDANSI
  2
AmdtCenterLineStdANSI
  3
"Amdt_StdImp|Product Description: AutoCAD Mechanical|Company: Autodesk, Inc."
 90
     1024
280
     0
281
     0
  0
CLASS
  1
ACMTHREADLINESTANDARDANSI
  2
AmdtThreadLineStdANSI
  3
"Amdt_StdImp|Product Description: AutoCAD Mechanical|Company: Autodesk, Inc."
 90
     1024
280
     0
281
     0
  0
CLASS
  1
ACMNOTESTANDARDANSI
  2
AmdtNoteStdANSI
  3
"Amdt_StdImp|Product Description: AutoCAD Mechanical|Company: Autodesk, Inc."
 90
     1024
280
     0
281
     0
  0
CLASS
  1
ACMTAPERSTANDARDANSI
  2
AcmTaperStdANSI
  3
"Amdt_StdImp|Product Description: AutoCAD Mechanical|Company: Autodesk, Inc."
 90
     1024
280
     0
281
     0
  0
CLASS
  1
ACMANOOTATIONVIEWSTANDARDANSI
  2
AmdtAnViewStdANSI
  3
"Amdt_StdImp|Product Description: AutoCAD Mechanical|Company: Autodesk, Inc."
 90
     1024
280
     0
281
     0
  0
CLASS
  1
ACAMGLAYSTD
  2
AcAmgLayStd
  3
"AmgLay|Product Description: AutoCAD Mechanical|Company: Autodesk, Inc."
 90
     1024
280
     0
281
     0
  0
CLASS
  1
ACAMGDIMSTD
  2
AcAmgDimStd
  3
"AmgDim|Product Description: AutoCAD Mechanical|Company: Autodesk, Inc."
 90
     1024
280
     0
281
     0
  0
CLASS
  1
ACAMGHOLECHARTSTDANSI
  2
AcAmgHoleChartStdANSI
  3
AmgDim|Product Description: AutoCAD Mechanical|Company: Autodesk, Inc.
 90
     1024
280
     0
281
     0
  0
CLASS
  1
AMGOBJPROPCFG
  2
AmgObjPropCfg
  3
"AmgLay|Product Description: AutoCAD Mechanical|Company: Autodesk, Inc."
 90
     1025
280
     0
281
     0
  0
CLASS
  1
ACAMGTITLESTD
  2
AcAmgTitleStd
  3
"AmgTitle|Product Description: AutoCAD Mechanical|Company: Autodesk, Inc."
 90
     4095
280
     0
281
     0
  0
CLASS
  1
AMDTNOTETEMPLATEDB
  2
AmdtNoteTemplateDB
  3
AcmSymBB|Product Description: AutoCAD Mechanical|Company: Autodesk, Inc.
 90
     1024
280
     0
281
     0
  0
CLASS
  1
LAYER_INDEX
  2
AcDbLayerIndex
  3
ObjectDBX Classes
 90
        0
280
     0
281
     0
  0
CLASS
  1
IDBUFFER
  2
AcDbIdBuffer
  3
ObjectDBX Classes
 90
        0
280
     0
281
     0
  0
CLASS
  1
DICTIONARYVAR
  2
AcDbDictionaryVar
  3
ObjectDBX Classes
 90
        0
280
     0
281
     0
  0
CLASS
  1
CELLSTYLEMAP
  2
AcDbCellStyleMap
  3
ObjectDBX Classes
 90
     1152
280
     0
281
     0
  0
CLASS
  1
ACDBPLACEHOLDER
  2
AcDbPlaceHolder
  3
ObjectDBX Classes
 90
        0
280
     0
281
     0
  0
CLASS
  1
LAYOUT
  2
AcDbLayout
  3
ObjectDBX Classes
 90
        0
280
     0
281
     0
  0
ENDSEC
  0
SECTION
  2
TABLES
  0
TABLE
  2
VPORT
  5
2AAA
330
0
100
AcDbSymbolTable
 70
     1
  0
VPORT
  5
2B1A
330
2AAA
100
AcDbSymbolTableRecord
100
AcDbViewportTableRecord
  2
*ACTIVE
 70
     0
 10
0.0
 20
0.0
 11
1.0
 21
1.0
 12
0.0
 22
0.0
 13
0.0
 23
0.0
 14
1.0
 24
1.0
 15
0.0
 25
0.0
 16
0.0
 26
0.0
 36
1.0
 17
179.0084979252507
 27
-136.9857691891793
 37
0.0
 40
1894.334091642721
 41
1.712555066079295
 42
50.0
 43
0.0
 44
0.0
 50
0.0
 51
0.0
 71
     0
 72
   100
 73
     1
 74
     0
 75
     0
 76
     0
 77
     0
 78
     0
281
     0
 65
     0
110
0.0
120
0.0
130
0.0
111
1.0
121
0.0
131
0.0
112
0.0
122
1.0
132
0.0
 79
     0
146
0.0
  0
ENDTAB
  0
TABLE
  2
LTYPE
  5
2AA7
330
0
100
AcDbSymbolTable
 70
    19
  0
LTYPE
  5
2B04
330
2AA7
100
AcDbSymbolTableRecord
100
AcDbLinetypeTableRecord
  2
ByBlock
 70
     0
  3

 72
    65
 73
     0
 40
0.0
  0
LTYPE
  5
2B05
330
2AA7
100
AcDbSymbolTableRecord
100
AcDbLinetypeTableRecord
  2
ByLayer
 70
     0
  3

 72
    65
 73
     0
 40
0.0
  0
LTYPE
  5
2B06
330
2AA7
100
AcDbSymbolTableRecord
100
AcDbLinetypeTableRecord
  2
CONTINUOUS
 70
     0
  3
実線
 72
    65
 73
     0
 40
0.0
  0
LTYPE
  5
2B1B
330
2AA7
100
AcDbSymbolTableRecord
100
AcDbLinetypeTableRecord
  2
DASHDOT
 70
     0
  3
____ _ ____ _ ____ _ ____ _ ____ _ ____ _ ____
 72
    65
 73
     4
 40
5.5
 49
4.0
 74
     0
 49
-0.6
 74
     0
 49
0.3
 74
     0
 49
-0.6
 74
     0
  0
LTYPE
  5
2B1C
330
2AA7
100
AcDbSymbolTableRecord
100
AcDbLinetypeTableRecord
  2
HIDDEN
 70
     0
  3
Hidden __ __ __ __ __ __ __ __ __ __ __ __ __ _
 72
    65
 73
     2
 40
0.375
 49
0.25
 74
     0
 49
-0.125
 74
     0
  0
LTYPE
  5
2B1D
330
2AA7
100
AcDbSymbolTableRecord
100
AcDbLinetypeTableRecord
  2
PHANTOM2
 70
     0
  3
Phantom (.5x) ___ _ _ ___ _ _ ___ _ _ ___ _ _
 72
    65
 73
     6
 40
1.25
 49
0.625
 74
     0
 49
-0.125
 74
     0
 49
0.125
 74
     0
 49
-0.125
 74
     0
 49
0.125
 74
     0
 49
-0.125
 74
     0
  0
LTYPE
  5
2B1E
330
2AA7
100
AcDbSymbolTableRecord
100
AcDbLinetypeTableRecord
  2
CENTER
 70
     0
  3
Center ____ _ ____ _ ____ _ ____ _ ____ _ ____
 72
    65
 73
     4
 40
2.0
 49
1.25
 74
     0
 49
-0.25
 74
     0
 49
0.25
 74
     0
 49
-0.25
 74
     0
  0
LTYPE
  5
2B1F
330
2AA7
100
AcDbSymbolTableRecord
100
AcDbLinetypeTableRecord
  2
ASULTYPE
 70
     0
  3
実線
 72
    65
 73
     2
 40
3.0
 49
2.5
 74
     0
 49
0.5
 74
     0
  0
LTYPE
  5
2B20
330
2AA7
100
AcDbSymbolTableRecord
100
AcDbLinetypeTableRecord
  2
ASVLTYPE
 70
     0
  3
__ __ __ __ __ __ __ __ __ __ __ __ __ __ __ __ __ __ __ __ __
 72
    65
 73
     2
 40
0.75
 49
0.5
 74
     0
 49
-0.25
 74
     0
  0
LTYPE
  5
2B21
330
2AA7
100
AcDbSymbolTableRecord
100
AcDbLinetypeTableRecord
  2
AM_ISO02W050
 70
     0
  3
__ __ __ __ __ __ __ __ __ __ __ __ __ __ __
 72
    65
 73
     2
 40
7.5
 49
6.0
 74
     0
 49
-1.5
 74
     0
  0
LTYPE
  5
2B22
330
2AA7
100
AcDbSymbolTableRecord
100
AcDbLinetypeTableRecord
  2
AM_ISO08W050
 70
     0
  3
____ . ____ . ____ . ____ . ____ . ____ . ____
 72
    65
 73
     4
 40
18.0
 49
12.0
 74
     0
 49
-1.5
 74
     0
 49
3.0
 74
     0
 49
-1.5
 74
     0
  0
LTYPE
  5
2B23
330
2AA7
100
AcDbSymbolTableRecord
100
AcDbLinetypeTableRecord
  2
AM_ISO09W050
 70
     0
  3
_____ . . _____ . . _____ . . ____ .. ____
 72
    65
 73
     6
 40
22.5
 49
12.0
 74
     0
 49
-1.5
 74
     0
 49
3.0
 74
     0
 49
-1.5
 74
     0
 49
3.0
 74
     0
 49
-1.5
 74
     0
  0
LTYPE
  5
2B24
330
2AA7
100
AcDbSymbolTableRecord
100
AcDbLinetypeTableRecord
  2
AMCONSTR
 70
     0
  3
_______________________
 72
    65
 73
     2
 40
9999.0
 49
9999.0
 74
     0
 49
0.0
 74
     0
  0
LTYPE
  5
2B25
330
2AA7
100
AcDbSymbolTableRecord
100
AcDbLinetypeTableRecord
  2
AM_ISO08W050X2
 70
     0
  3
__ . __ . __ . __ . __ . __
 72
    65
 73
     4
 40
9.0
 49
6.0
 74
     0
 49
-0.75
 74
     0
 49
1.5
 74
     0
 49
-0.75
 74
     0
  0
LTYPE
  5
2B26
330
2AA7
100
AcDbSymbolTableRecord
100
AcDbLinetypeTableRecord
  2
AM_ISO02W050X2
 70
     0
  3
 _ _ _ _ _ _ _ _ _ _ _ _
 72
    65
 73
     2
 40
3.75
 49
3.0
 74
     0
 49
-0.75
 74
     0
  0
LTYPE
  5
2B27
330
2AA7
100
AcDbSymbolTableRecord
100
AcDbLinetypeTableRecord
  2
AMZIGZAG
 70
     0
  3
/\/-/\/-/\/-/\/-/\/-/\/
 72
    65
 73
     2
 40
11.0001
 49
0.0001
 74
     0
 49
-11.0
 74
     0
  0
LTYPE
  5
2B28
330
2AA7
100
AcDbSymbolTableRecord
100
AcDbLinetypeTableRecord
  2
CENTER2
 70
     0
  3
Center (.5x) ___ _ ___ _ ___ _ ___ _ ___ _ ___
 72
    65
 73
     4
 40
1.125
 49
0.75
 74
     0
 49
-0.125
 74
     0
 49
0.125
 74
     0
 49
-0.125
 74
     0
  0
LTYPE
  5
2B29
330
2AA7
100
AcDbSymbolTableRecord
100
AcDbLinetypeTableRecord
  2
HIDDEN2
 70
     0
  3
Hidden (.5x) _ _ _ _ _ _ _ _ _ _ _ _ _ _ _ _ _
 72
    65
 73
     2
 40
0.1875
 49
0.125
 74
     0
 49
-0.0625
 74
     0
  0
LTYPE
  5
2B2A
330
2AA7
100
AcDbSymbolTableRecord
100
AcDbLinetypeTableRecord
  2
AMZIGZAG2
 70
     0
  3
/\/-/\/-/\/-/\/-/\/-/\/
 72
    65
 73
     2
 40
0.4401
 49
0.0001
 74
     0
 49
-0.4400000000000003
 74
     0
  0
LTYPE
  5
2B2B
330
2AA7
100
AcDbSymbolTableRecord
100
AcDbLinetypeTableRecord
  2
ACANSTGB
 70
     0
  3
__ . . __ . .
 72
    65
 73
     6
 40
0.35433070866
 49
0.15748031496
 74
     0
 49
-0.03937007874
 74
     0
 49
0.03937007874
 74
     0
 49
-0.03937007874
 74
     0
 49
0.03937007874
 74
     0
 49
-0.03937007874
 74
     0
  0
LTYPE
  5
2B2C
330
2AA7
100
AcDbSymbolTableRecord
100
AcDbLinetypeTableRecord
  2
ACANSTGL
 70
     0
  3
_ _ _ _ _
 72
    65
 73
     2
 40
0.11811023622
 49
0.07874015748
 74
     0
 49
-0.03937007874
 74
     0
  0
ENDTAB
  0
TABLE
  2
LAYER
  5
2AA4
330
0
100
AcDbSymbolTable
 70
    12
  0
LAYER
  5
2AFE
102
{ACAD_XDICTIONARY
360
2CC6
102
}
330
2AA4
100
AcDbSymbolTableRecord
100
AcDbLayerTableRecord
  2
0
 70
     0
 62
     7
  6
CONTINUOUS
370
    -3
390
2AB1
  0
LAYER
  5
2B2D
102
{ACAD_XDICTIONARY
360
2CC8
102
}
330
2AA4
100
AcDbSymbolTableRecord
100
AcDbLayerTableRecord
  2
OUTLINE
 70
     0
 62
     3
  6
CONTINUOUS
370
    -3
390
2AB1
  0
LAYER
  5
2B2E
102
{ACAD_XDICTIONARY
360
2CCA
102
}
330
2AA4
100
AcDbSymbolTableRecord
100
AcDbLayerTableRecord
  2
SIZE
 70
     0
 62
    30
  6
CONTINUOUS
370
    -3
390
2AB1
  0
LAYER
  5
2B2F
102
{ACAD_XDICTIONARY
360
2CCC
102
}
330
2AA4
100
AcDbSymbolTableRecord
100
AcDbLayerTableRecord
  2
BASIS
 70
     0
 62
     6
  6
DASHDOT
370
    -3
390
2AB1
  0
LAYER
  5
2B30
102
{ACAD_XDICTIONARY
360
2CCE
102
}
330
2AA4
100
AcDbSymbolTableRecord
100
AcDbLayerTableRecord
  2
DETAIL
 70
     0
 62
     5
  6
CONTINUOUS
370
    -3
390
2AB1
  0
LAYER
  5
2B31
102
{ACAD_XDICTIONARY
360
2CD0
102
}
330
2AA4
100
AcDbSymbolTableRecord
100
AcDbLayerTableRecord
  2
ARRANGE
 70
     0
 62
     1
  6
CONTINUOUS
370
    -3
390
2AB1
  0
LAYER
  5
2B32
330
2AA4
100
AcDbSymbolTableRecord
100
AcDbLayerTableRecord
  2
DEFPOINTS
 70
     0
 62
     7
  6
CONTINUOUS
290
     0
370
    -3
390
2AB1
  0
LAYER
  5
2B33
102
{ACAD_XDICTIONARY
360
2CD2
102
}
330
2AA4
100
AcDbSymbolTableRecord
100
AcDbLayerTableRecord
  2
ETC
 70
     0
 62
    61
  6
CONTINUOUS
370
    -3
390
2AB1
  0
LAYER
  5
2B34
102
{ACAD_XDICTIONARY
360
2CD4
102
}
330
2AA4
100
AcDbSymbolTableRecord
100
AcDbLayerTableRecord
  2
FIX
 70
     0
 62
    11
  6
CONTINUOUS
370
    -3
390
2AB1
  0
LAYER
  5
2B35
102
{ACAD_XDICTIONARY
360
2CD6
102
}
330
2AA4
100
AcDbSymbolTableRecord
100
AcDbLayerTableRecord
  2
NOTE
 70
     0
 62
     4
  6
CONTINUOUS
370
    -3
390
2AB1
  0
LAYER
  5
2B36
102
{ACAD_XDICTIONARY
360
2CD8
102
}
330
2AA4
100
AcDbSymbolTableRecord
100
AcDbLayerTableRecord
  2
SERVICESPACE
 70
     0
 62
     2
  6
DASHDOT
370
    -3
390
2AB1
  0
LAYER
  5
2B37
102
{ACAD_XDICTIONARY
360
2CDA
102
}
330
2AA4
100
AcDbSymbolTableRecord
100
AcDbLayerTableRecord
  2
SYMBOLLINE
 70
     0
 62
    15
  6
CONTINUOUS
370
    -3
390
2AB1
  0
ENDTAB
  0
TABLE
  2
STYLE
  5
2AA5
330
0
100
AcDbSymbolTable
 70
     5
  0
STYLE
  5
2AFF
330
2AA5
100
AcDbSymbolTableRecord
100
AcDbTextStyleTableRecord
  2
STANDARD
 70
     0
 40
64.0
 41
0.9
 50
0.0
 71
     0
 42
64.0
  3
SIMPLEX.shx
  4
BIGFONT.shx
  0
STYLE
  5
2B03
330
2AA5
100
AcDbSymbolTableRecord
100
AcDbTextStyleTableRecord
  2
ANNOTATIVE
 70
     0
 40
0.0
 41
1.0
 50
0.0
 71
     0
 42
0.2
  3
txt
  4

1001
ACADANNOTATIVE
1000
AnnotativeData
1002
{
1070
     1
1070
     1
1002
}
  0
STYLE
  5
2B38
330
2AA5
100
AcDbSymbolTableRecord
100
AcDbTextStyleTableRecord
  2

 70
     1
 40
0.0
 41
1.0
 50
0.0
 71
     0
 42
64.0
  3
genltshp.shx
  4

  0
STYLE
  5
2B39
330
2AA5
100
AcDbSymbolTableRecord
100
AcDbTextStyleTableRecord
  2
ACANSTS
 70
     0
 40
1.0
 41
1.0
 50
0.0
 71
     0
 42
64.0
  3
romans.shx
  4
extfont.shx
  0
STYLE
  5
2B3A
330
2AA5
100
AcDbSymbolTableRecord
100
AcDbTextStyleTableRecord
  2
ACANSGDT
 70
     0
 40
0.0
 41
1.0
 50
0.0
 71
     0
 42
64.0
  3
amgdt.shx
  4

  0
ENDTAB
  0
TABLE
  2
VIEW
  5
2AA8
330
0
100
AcDbSymbolTable
 70
     1
  0
VIEW
  5
2B3B
330
2AA8
100
AcDbSymbolTableRecord
100
AcDbViewTableRecord
  2
ALL
 70
     0
 40
4282.619807999997
 10
0.0
 20
41.30990399999999
 41
5940.0
 11
0.0
 21
0.0
 31
1.0
 12
0.0
 22
0.0
 32
0.0
 42
50.0
 43
0.0
 44
0.0
 50
0.0
 71
     0
281
     0
 72
     1
110
0.0
120
0.0
130
0.0
111
1.0
121
0.0
131
0.0
112
0.0
122
1.0
132
0.0
 79
     0
146
0.0
  0
ENDTAB
  0
TABLE
  2
UCS
  5
2AA9
330
0
100
AcDbSymbolTable
 70
     0
  0
ENDTAB
  0
TABLE
  2
APPID
  5
2AAB
330
0
100
AcDbSymbolTable
 70
    28
  0
APPID
  5
2B00
330
2AAB
100
AcDbSymbolTableRecord
100
AcDbRegAppTableRecord
  2
ACAD
 70
     0
  0
APPID
  5
2B07
330
2AAB
100
AcDbSymbolTableRecord
100
AcDbRegAppTableRecord
  2
ACADANNOTATIVE
 70
     0
  0
APPID
  5
2B11
330
2AAB
100
AcDbSymbolTableRecord
100
AcDbRegAppTableRecord
  2
ACAD_MLEADERVER
 70
     0
  0
APPID
  5
2B3C
330
2AAB
100
AcDbSymbolTableRecord
100
AcDbRegAppTableRecord
  2
GENIUS_GENDIM_13
 70
     0
  0
APPID
  5
2B3D
330
2AAB
100
AcDbSymbolTableRecord
100
AcDbRegAppTableRecord
  2
GENIUS_GENDTOL_13
 70
     0
  0
APPID
  5
2B3E
330
2AAB
100
AcDbSymbolTableRecord
100
AcDbRegAppTableRecord
  2
GENIUS_GE3DTOL_13
 70
     0
  0
APPID
  5
2B3F
330
2AAB
100
AcDbSymbolTableRecord
100
AcDbRegAppTableRecord
  2
MCAD_NO_VIS
 70
     0
  0
APPID
  5
2B40
330
2AAB
100
AcDbSymbolTableRecord
100
AcDbRegAppTableRecord
  2
ACAD_TEMP_GRAPHIC
 70
     0
  0
APPID
  5
2B41
330
2AAB
100
AcDbSymbolTableRecord
100
AcDbRegAppTableRecord
  2
AD_DRAW
 70
     0
  0
APPID
  5
2B42
330
2AAB
100
AcDbSymbolTableRecord
100
AcDbRegAppTableRecord
  2
ACATTRIBSERVICES
 70
     0
  0
APPID
  5
2B43
330
2AAB
100
AcDbSymbolTableRecord
100
AcDbRegAppTableRecord
  2
ASURF_PCURVE_APPNAME
 70
     0
  0
APPID
  5
2B44
330
2AAB
100
AcDbSymbolTableRecord
100
AcDbRegAppTableRecord
  2
AMG_3D2D_5_0
 70
     0
  0
APPID
  5
2B45
330
2AAB
100
AcDbSymbolTableRecord
100
AcDbRegAppTableRecord
  2
DESIGNERASSEMBLIES
 70
     0
  0
APPID
  5
2B46
330
2AAB
100
AcDbSymbolTableRecord
100
AcDbRegAppTableRecord
  2
ACADM_DIM_EDIT
 70
     0
  0
APPID
  5
2B47
330
2AAB
100
AcDbSymbolTableRecord
100
AcDbRegAppTableRecord
  2
AMDT_DM_ADJ
 70
     0
  0
APPID
  5
2B48
330
2AAB
100
AcDbSymbolTableRecord
100
AcDbRegAppTableRecord
  2
ACAD_DSTYLE_DIMARC_LENGTH_
 70
     0
  0
APPID
  5
2B49
330
2AAB
100
AcDbSymbolTableRecord
100
AcDbRegAppTableRecord
  2
ACAD_DSTYLE_DIMJOGGED_JOGA
 70
     0
  0
APPID
  5
2B4A
330
2AAB
100
AcDbSymbolTableRecord
100
AcDbRegAppTableRecord
  2
ACAD_PSEXT
 70
     0
  0
APPID
  5
2B4B
330
2AAB
100
AcDbSymbolTableRecord
100
AcDbRegAppTableRecord
  2
ACAD_EXEMPT_FROM_CAD_STANDARDS
 70
     0
  0
APPID
  5
2B4C
330
2AAB
100
AcDbSymbolTableRecord
100
AcDbRegAppTableRecord
  2
ACAD_DSTYLE_DIMJAG
 70
     0
  0
APPID
  5
2B4D
330
2AAB
100
AcDbSymbolTableRecord
100
AcDbRegAppTableRecord
  2
ACAD_DSTYLE_DIMTALN
 70
     0
  0
APPID
  5
2B4E
330
2AAB
100
AcDbSymbolTableRecord
100
AcDbRegAppTableRecord
  2
AMG_3D2D_5_00
 70
     0
  0
APPID
  5
2B4F
330
2AAB
100
AcDbSymbolTableRecord
100
AcDbRegAppTableRecord
  2
AMG_3D2D_5_01
 70
     0
  0
APPID
  5
2C6D
330
2AAB
100
AcDbSymbolTableRecord
100
AcDbRegAppTableRecord
  2
AMG_3D2D_5.0
 70
     0
  0
APPID
  5
2D03
330
2AAB
100
AcDbSymbolTableRecord
100
AcDbRegAppTableRecord
  2
ACAD_DSTYLE_DIMARC_LENGTH_SYMBOL
 70
     0
  0
APPID
  5
2D04
330
2AAB
100
AcDbSymbolTableRecord
100
AcDbRegAppTableRecord
  2
ACAD_DSTYLE_DIM_LINETYPE
 70
     0
  0
APPID
  5
2D05
330
2AAB
100
AcDbSymbolTableRecord
100
AcDbRegAppTableRecord
  2
ACAD_DSTYLE_DIM_EXT1_LINETYPE
 70
     0
  0
APPID
  5
2D06
330
2AAB
100
AcDbSymbolTableRecord
100
AcDbRegAppTableRecord
  2
ACAD_DSTYLE_DIM_EXT2_LINETYPE
 70
     0
  0
ENDTAB
  0
TABLE
  2
DIMSTYLE
  5
2AAC
330
0
100
AcDbSymbolTable
 70
    10
100
AcDbDimStyleTable
 71
     1
340
2B50
  0
DIMSTYLE
105
2B01
330
2AAC
100
AcDbSymbolTableRecord
100
AcDbDimStyleTableRecord
  2
STANDARD
 70
     0
 41
12.0
 42
20.0
 44
20.0
 77
     1
 78
     8
140
64.0
141
0.0
147
10.0
275
     1
279
     2
284
     7
285
     7
286
     7
340
2AFF
  0
DIMSTYLE
105
2B02
330
2AAC
100
AcDbSymbolTableRecord
100
AcDbDimStyleTableRecord
  2
ANNOTATIVE
 70
     0
275
     1
279
     2
284
     7
285
     7
286
     7
340
2AFF
1001
ACADANNOTATIVE
1000
AnnotativeData
1002
{
1070
     1
1070
     1
1002
}
  0
DIMSTYLE
105
2B50
330
2AAC
100
AcDbSymbolTableRecord
100
AcDbDimStyleTableRecord
  2
AM_ANSI
 70
     0
  4
mm
 41
0.12
 42
0.05
 43
0.5
 44
0.1
 47
0.1
 48
0.1
 78
     7
 79
     2
140
0.12
141
0.0
146
0.71
147
0.06
176
   256
177
   256
178
     2
274
     4
284
     7
340
2AFF
371
    -1
372
    -1
1001
ACAD_DSTYLE_DIMARC_LENGTH_SYMBOL
1070
   379
1070
     1
1001
ACAD_DSTYLE_DIM_LINETYPE
1070
   380
1005
2B04
1001
ACAD_DSTYLE_DIM_EXT1_LINETYPE
1070
   381
1005
2B04
1001
ACAD_DSTYLE_DIM_EXT2_LINETYPE
1070
   382
1005
2B04
  0
DIMSTYLE
105
2B51
330
2AAC
100
AcDbSymbolTableRecord
100
AcDbDimStyleTableRecord
  2
AM_ANSI$3
 70
     0
  4
mm
 41
0.12
 42
0.05
 43
0.5
 44
0.1
 47
0.1
 48
0.1
 78
     7
 79
     2
140
0.12
141
0.0
146
0.71
147
0.06
176
   256
177
   256
178
     2
274
     4
284
     7
288
     1
289
     0
340
2AFF
371
    -1
372
    -1
1001
ACAD_DSTYLE_DIMARC_LENGTH_SYMBOL
1070
   379
1070
     1
1001
ACAD_DSTYLE_DIM_LINETYPE
1070
   380
1005
2B04
1001
ACAD_DSTYLE_DIM_EXT1_LINETYPE
1070
   381
1005
2B04
1001
ACAD_DSTYLE_DIM_EXT2_LINETYPE
1070
   382
1005
2B04
  0
DIMSTYLE
105
2B52
330
2AAC
100
AcDbSymbolTableRecord
100
AcDbDimStyleTableRecord
  2
AM_ANSI$4
 70
     0
  4
mm
 41
0.12
 42
0.05
 43
0.5
 44
0.1
 47
0.1
 48
0.1
 78
     7
 79
     2
140
0.12
141
0.0
146
0.71
147
0.06
176
   256
177
   256
178
     2
274
     4
284
     7
340
2AFF
371
    -1
372
    -1
1001
ACAD_DSTYLE_DIMARC_LENGTH_SYMBOL
1070
   379
1070
     1
1001
ACAD_DSTYLE_DIM_LINETYPE
1070
   380
1005
2B04
1001
ACAD_DSTYLE_DIM_EXT1_LINETYPE
1070
   381
1005
2B04
1001
ACAD_DSTYLE_DIM_EXT2_LINETYPE
1070
   382
1005
2B04
  0
DIMSTYLE
105
2B53
330
2AAC
100
AcDbSymbolTableRecord
100
AcDbDimStyleTableRecord
  2
AM_ANSI$7
 70
     0
  4
mm
 41
0.12
 42
0.05
 43
0.5
 44
0.1
 47
0.1
 48
0.1
 78
     7
 79
     2
140
0.12
141
0.0
146
0.71
147
0.06
176
   256
177
   256
178
     2
274
     4
284
     7
340
2AFF
371
    -1
372
    -1
1001
ACAD_DSTYLE_DIMARC_LENGTH_SYMBOL
1070
   379
1070
     1
1001
ACAD_DSTYLE_DIM_LINETYPE
1070
   380
1005
2B04
1001
ACAD_DSTYLE_DIM_EXT1_LINETYPE
1070
   381
1005
2B04
1001
ACAD_DSTYLE_DIM_EXT2_LINETYPE
1070
   382
1005
2B04
  0
DIMSTYLE
105
2B54
330
2AAC
100
AcDbSymbolTableRecord
100
AcDbDimStyleTableRecord
  2
AM_ANSI$SF
 70
     0
  4
mm
 41
0.12
 42
0.05
 43
0.5
 44
0.1
 47
0.1
 48
0.1
 75
     1
 76
     1
 78
     7
 79
     2
140
0.12
141
0.0
146
0.71
147
0.06
176
   256
177
   256
178
     2
274
     4
284
     7
340
2AFF
371
    -1
372
    -1
1001
ACAD_DSTYLE_DIMARC_LENGTH_SYMBOL
1070
   379
1070
     1
1001
ACAD_DSTYLE_DIM_LINETYPE
1070
   380
1005
2B04
1001
ACAD_DSTYLE_DIM_EXT1_LINETYPE
1070
   381
1005
2B04
1001
ACAD_DSTYLE_DIM_EXT2_LINETYPE
1070
   382
1005
2B04
  0
DIMSTYLE
105
2B55
330
2AAC
100
AcDbSymbolTableRecord
100
AcDbDimStyleTableRecord
  2
AM_ANSI$SH
 70
     0
  4
mm
 41
0.12
 42
0.05
 43
0.5
 44
0.1
 47
0.1
 48
0.1
 75
     1
 76
     1
 78
     7
 79
     2
140
0.12
141
0.0
146
0.71
147
0.06
173
     1
176
   256
177
   256
178
     2
274
     4
284
     7
340
2AFF
343
2B75
371
    -1
372
    -1
1001
ACAD_DSTYLE_DIMARC_LENGTH_SYMBOL
1070
   379
1070
     1
1001
ACAD_DSTYLE_DIM_LINETYPE
1070
   380
1005
2B04
1001
ACAD_DSTYLE_DIM_EXT1_LINETYPE
1070
   381
1005
2B04
1001
ACAD_DSTYLE_DIM_EXT2_LINETYPE
1070
   382
1005
2B04
  0
DIMSTYLE
105
2B56
330
2AAC
100
AcDbSymbolTableRecord
100
AcDbDimStyleTableRecord
  2
STANDARD1
 70
     0
 40
6.0
 41
2.5
 42
0.625
 43
6.0
 44
1.25
 47
1.0
 48
0.5
 77
     1
 78
     8
140
2.5
141
0.0
146
0.6
147
1.0
173
     1
275
     1
279
     2
284
     7
285
     7
286
     7
340
2AFF
  0
DIMSTYLE
105
2B57
330
2AAC
100
AcDbSymbolTableRecord
100
AcDbDimStyleTableRecord
  2
STANDARD$0
 70
     0
 41
12.0
 42
20.0
 44
20.0
 73
     0
 74
     0
 77
     1
 78
     8
140
64.0
141
0.0
147
10.0
275
     1
279
     2
284
     7
285
     7
286
     7
340
2AFF
  0
ENDTAB
  0
TABLE
  2
BLOCK_RECORD
  5
2AA3
330
0
100
AcDbSymbolTable
 70
    71
  0
BLOCK_RECORD
  5
2B16
102
{ACAD_XDICTIONARY
360
2CDC
102
}
330
2AA3
100
AcDbSymbolTableRecord
100
AcDbBlockTableRecord
  2
*Model_Space
340
2B19
  0
BLOCK_RECORD
  5
2B12
330
2AA3
100
AcDbSymbolTableRecord
100
AcDbBlockTableRecord
  2
*Paper_Space
340
2B15
  0
BLOCK_RECORD
  5
2B5F
330
2AA3
100
AcDbSymbolTableRecord
100
AcDbBlockTableRecord
  2
$MODEL_SPACE
340
0
  0
BLOCK_RECORD
  5
2B61
330
2AA3
100
AcDbSymbolTableRecord
100
AcDbBlockTableRecord
  2
$PAPER_SPACE
340
0
  0
BLOCK_RECORD
  5
2B63
330
2AA3
100
AcDbSymbolTableRecord
100
AcDbBlockTableRecord
  2
_ORIGIN
340
0
  0
BLOCK_RECORD
  5
2B65
330
2AA3
100
AcDbSymbolTableRecord
100
AcDbBlockTableRecord
  2
_DOTBLANK
340
0
102
{BLKREFS
331
1299
331
129A
331
11AA
331
11AB
331
E80
331
E81
331
1123
331
1124
331
11C2
331
11C3
331
11EC
331
11ED
331
11F9
331
11FA
331
1287
331
1288
331
1417
331
1418
331
1423
331
1424
331
142F
331
1430
331
143B
331
143C
331
166E
331
166F
331
1677
331
1678
331
1680
331
1681
331
1689
331
168A
331
1696
331
1697
331
16A3
331
16A4
331
16AF
331
16B0
331
16BB
331
16BC
331
16C7
331
16C8
331
16D3
331
16D4
331
1D86
331
1D87
331
1D8F
331
1D90
331
1D98
331
1D99
331
1DA1
331
1DA2
331
1DAB
331
1DAC
331
1DB5
331
1DB6
331
2A53
331
2A54
331
2A58
331
2A59
331
2A5D
331
2A5E
331
2A62
331
2A63
102
}
  0
BLOCK_RECORD
  5
2B67
330
2AA3
100
AcDbSymbolTableRecord
100
AcDbBlockTableRecord
  2
_OPEN30
340
0
102
{BLKREFS
331
2088
331
25A0
102
}
  0
BLOCK_RECORD
  5
2B69
330
2AA3
100
AcDbSymbolTableRecord
100
AcDbBlockTableRecord
  2
*D5
340
0
  0
BLOCK_RECORD
  5
2B6B
330
2AA3
100
AcDbSymbolTableRecord
100
AcDbBlockTableRecord
  2
*U6
340
0
102
{BLKREFS
331
129B
102
}
  0
BLOCK_RECORD
  5
2B6D
330
2AA3
100
AcDbSymbolTableRecord
100
AcDbBlockTableRecord
  2
*D7
340
0
  0
BLOCK_RECORD
  5
2B6F
330
2AA3
100
AcDbSymbolTableRecord
100
AcDbBlockTableRecord
  2
*U8
340
0
102
{BLKREFS
331
11AC
102
}
  0
BLOCK_RECORD
  5
2B71
330
2AA3
100
AcDbSymbolTableRecord
100
AcDbBlockTableRecord
  2
*D9
340
0
  0
BLOCK_RECORD
  5
2B73
330
2AA3
100
AcDbSymbolTableRecord
100
AcDbBlockTableRecord
  2
*U10
340
0
102
{BLKREFS
331
E82
102
}
  0
BLOCK_RECORD
  5
2B75
330
2AA3
100
AcDbSymbolTableRecord
100
AcDbBlockTableRecord
  2
GENAXEH
340
0
  0
BLOCK_RECORD
  5
2B77
330
2AA3
100
AcDbSymbolTableRecord
100
AcDbBlockTableRecord
  2
*D12
340
0
  0
BLOCK_RECORD
  5
2B79
330
2AA3
100
AcDbSymbolTableRecord
100
AcDbBlockTableRecord
  2
*U13
340
0
102
{BLKREFS
331
1125
102
}
  0
BLOCK_RECORD
  5
2B7B
330
2AA3
100
AcDbSymbolTableRecord
100
AcDbBlockTableRecord
  2
*D14
340
0
  0
BLOCK_RECORD
  5
2B7D
330
2AA3
100
AcDbSymbolTableRecord
100
AcDbBlockTableRecord
  2
*U15
340
0
102
{BLKREFS
331
11C4
102
}
  0
BLOCK_RECORD
  5
2B7F
330
2AA3
100
AcDbSymbolTableRecord
100
AcDbBlockTableRecord
  2
*D16
340
0
  0
BLOCK_RECORD
  5
2B81
330
2AA3
100
AcDbSymbolTableRecord
100
AcDbBlockTableRecord
  2
*U17
340
0
102
{BLKREFS
331
11EE
102
}
  0
BLOCK_RECORD
  5
2B83
330
2AA3
100
AcDbSymbolTableRecord
100
AcDbBlockTableRecord
  2
*D18
340
0
  0
BLOCK_RECORD
  5
2B85
330
2AA3
100
AcDbSymbolTableRecord
100
AcDbBlockTableRecord
  2
*U19
340
0
102
{BLKREFS
331
11FB
102
}
  0
BLOCK_RECORD
  5
2B87
330
2AA3
100
AcDbSymbolTableRecord
100
AcDbBlockTableRecord
  2
*D20
340
0
  0
BLOCK_RECORD
  5
2B89
330
2AA3
100
AcDbSymbolTableRecord
100
AcDbBlockTableRecord
  2
*U21
340
0
102
{BLKREFS
331
1289
102
}
  0
BLOCK_RECORD
  5
2B8B
330
2AA3
100
AcDbSymbolTableRecord
100
AcDbBlockTableRecord
  2
*D22
340
0
  0
BLOCK_RECORD
  5
2B8D
330
2AA3
100
AcDbSymbolTableRecord
100
AcDbBlockTableRecord
  2
*U23
340
0
102
{BLKREFS
331
1419
102
}
  0
BLOCK_RECORD
  5
2B8F
330
2AA3
100
AcDbSymbolTableRecord
100
AcDbBlockTableRecord
  2
*D24
340
0
  0
BLOCK_RECORD
  5
2B91
330
2AA3
100
AcDbSymbolTableRecord
100
AcDbBlockTableRecord
  2
*U25
340
0
102
{BLKREFS
331
1425
102
}
  0
BLOCK_RECORD
  5
2B93
330
2AA3
100
AcDbSymbolTableRecord
100
AcDbBlockTableRecord
  2
*D26
340
0
  0
BLOCK_RECORD
  5
2B95
330
2AA3
100
AcDbSymbolTableRecord
100
AcDbBlockTableRecord
  2
*U27
340
0
102
{BLKREFS
331
1431
102
}
  0
BLOCK_RECORD
  5
2B97
330
2AA3
100
AcDbSymbolTableRecord
100
AcDbBlockTableRecord
  2
*D28
340
0
  0
BLOCK_RECORD
  5
2B99
330
2AA3
100
AcDbSymbolTableRecord
100
AcDbBlockTableRecord
  2
*U29
340
0
102
{BLKREFS
331
143D
102
}
  0
BLOCK_RECORD
  5
2B9B
330
2AA3
100
AcDbSymbolTableRecord
100
AcDbBlockTableRecord
  2
*D30
340
0
  0
BLOCK_RECORD
  5
2B9D
330
2AA3
100
AcDbSymbolTableRecord
100
AcDbBlockTableRecord
  2
*U31
340
0
102
{BLKREFS
331
1670
102
}
  0
BLOCK_RECORD
  5
2B9F
330
2AA3
100
AcDbSymbolTableRecord
100
AcDbBlockTableRecord
  2
*D32
340
0
  0
BLOCK_RECORD
  5
2BA1
330
2AA3
100
AcDbSymbolTableRecord
100
AcDbBlockTableRecord
  2
*U33
340
0
102
{BLKREFS
331
1679
102
}
  0
BLOCK_RECORD
  5
2BA3
330
2AA3
100
AcDbSymbolTableRecord
100
AcDbBlockTableRecord
  2
*D34
340
0
  0
BLOCK_RECORD
  5
2BA5
330
2AA3
100
AcDbSymbolTableRecord
100
AcDbBlockTableRecord
  2
*U35
340
0
102
{BLKREFS
331
1682
102
}
  0
BLOCK_RECORD
  5
2BA7
330
2AA3
100
AcDbSymbolTableRecord
100
AcDbBlockTableRecord
  2
*D36
340
0
  0
BLOCK_RECORD
  5
2BA9
330
2AA3
100
AcDbSymbolTableRecord
100
AcDbBlockTableRecord
  2
*U37
340
0
102
{BLKREFS
331
168B
102
}
  0
BLOCK_RECORD
  5
2BAB
330
2AA3
100
AcDbSymbolTableRecord
100
AcDbBlockTableRecord
  2
*U38
340
0
  0
BLOCK_RECORD
  5
2BAD
330
2AA3
100
AcDbSymbolTableRecord
100
AcDbBlockTableRecord
  2
*D39
340
0
  0
BLOCK_RECORD
  5
2BAF
330
2AA3
100
AcDbSymbolTableRecord
100
AcDbBlockTableRecord
  2
*U40
340
0
102
{BLKREFS
331
1698
102
}
  0
BLOCK_RECORD
  5
2BB1
330
2AA3
100
AcDbSymbolTableRecord
100
AcDbBlockTableRecord
  2
*D41
340
0
  0
BLOCK_RECORD
  5
2BB3
330
2AA3
100
AcDbSymbolTableRecord
100
AcDbBlockTableRecord
  2
*U42
340
0
102
{BLKREFS
331
16A5
102
}
  0
BLOCK_RECORD
  5
2BB5
330
2AA3
100
AcDbSymbolTableRecord
100
AcDbBlockTableRecord
  2
*D43
340
0
  0
BLOCK_RECORD
  5
2BB7
330
2AA3
100
AcDbSymbolTableRecord
100
AcDbBlockTableRecord
  2
*U44
340
0
102
{BLKREFS
331
16B1
102
}
  0
BLOCK_RECORD
  5
2BB9
330
2AA3
100
AcDbSymbolTableRecord
100
AcDbBlockTableRecord
  2
*D45
340
0
  0
BLOCK_RECORD
  5
2BBB
330
2AA3
100
AcDbSymbolTableRecord
100
AcDbBlockTableRecord
  2
*U46
340
0
102
{BLKREFS
331
16BD
102
}
  0
BLOCK_RECORD
  5
2BBD
330
2AA3
100
AcDbSymbolTableRecord
100
AcDbBlockTableRecord
  2
*D47
340
0
  0
BLOCK_RECORD
  5
2BBF
330
2AA3
100
AcDbSymbolTableRecord
100
AcDbBlockTableRecord
  2
*U48
340
0
102
{BLKREFS
331
16C9
102
}
  0
BLOCK_RECORD
  5
2BC1
330
2AA3
100
AcDbSymbolTableRecord
100
AcDbBlockTableRecord
  2
*D49
340
0
  0
BLOCK_RECORD
  5
2BC3
330
2AA3
100
AcDbSymbolTableRecord
100
AcDbBlockTableRecord
  2
*U50
340
0
102
{BLKREFS
331
16D5
102
}
  0
BLOCK_RECORD
  5
2BC5
330
2AA3
100
AcDbSymbolTableRecord
100
AcDbBlockTableRecord
  2
*D51
340
0
  0
BLOCK_RECORD
  5
2BC7
330
2AA3
100
AcDbSymbolTableRecord
100
AcDbBlockTableRecord
  2
*U52
340
0
102
{BLKREFS
331
1D88
102
}
  0
BLOCK_RECORD
  5
2BC9
330
2AA3
100
AcDbSymbolTableRecord
100
AcDbBlockTableRecord
  2
*D53
340
0
  0
BLOCK_RECORD
  5
2BCB
330
2AA3
100
AcDbSymbolTableRecord
100
AcDbBlockTableRecord
  2
*U54
340
0
102
{BLKREFS
331
1D91
102
}
  0
BLOCK_RECORD
  5
2BCD
330
2AA3
100
AcDbSymbolTableRecord
100
AcDbBlockTableRecord
  2
*D55
340
0
  0
BLOCK_RECORD
  5
2BCF
330
2AA3
100
AcDbSymbolTableRecord
100
AcDbBlockTableRecord
  2
*U56
340
0
102
{BLKREFS
331
1D9A
102
}
  0
BLOCK_RECORD
  5
2BD1
330
2AA3
100
AcDbSymbolTableRecord
100
AcDbBlockTableRecord
  2
*D57
340
0
  0
BLOCK_RECORD
  5
2BD3
330
2AA3
100
AcDbSymbolTableRecord
100
AcDbBlockTableRecord
  2
*U58
340
0
102
{BLKREFS
331
1DA3
102
}
  0
BLOCK_RECORD
  5
2BD5
330
2AA3
100
AcDbSymbolTableRecord
100
AcDbBlockTableRecord
  2
*D59
340
0
  0
BLOCK_RECORD
  5
2BD7
330
2AA3
100
AcDbSymbolTableRecord
100
AcDbBlockTableRecord
  2
*U60
340
0
102
{BLKREFS
331
1DAD
102
}
  0
BLOCK_RECORD
  5
2BD9
330
2AA3
100
AcDbSymbolTableRecord
100
AcDbBlockTableRecord
  2
*D61
340
0
  0
BLOCK_RECORD
  5
2BDB
330
2AA3
100
AcDbSymbolTableRecord
100
AcDbBlockTableRecord
  2
*U62
340
0
102
{BLKREFS
331
1DB7
102
}
  0
BLOCK_RECORD
  5
2BDD
330
2AA3
100
AcDbSymbolTableRecord
100
AcDbBlockTableRecord
  2
*U63
340
0
  0
BLOCK_RECORD
  5
2BDF
330
2AA3
100
AcDbSymbolTableRecord
100
AcDbBlockTableRecord
  2
*U64
340
0
  0
BLOCK_RECORD
  5
2BE1
330
2AA3
100
AcDbSymbolTableRecord
100
AcDbBlockTableRecord
  2
*U65
340
0
  0
BLOCK_RECORD
  5
2BE3
330
2AA3
100
AcDbSymbolTableRecord
100
AcDbBlockTableRecord
  2
*U66
340
0
102
{BLKREFS
331
2A37
102
}
  0
BLOCK_RECORD
  5
2BE5
330
2AA3
100
AcDbSymbolTableRecord
100
AcDbBlockTableRecord
  2
*U67
340
0
102
{BLKREFS
331
2A38
102
}
  0
BLOCK_RECORD
  5
2BE7
330
2AA3
100
AcDbSymbolTableRecord
100
AcDbBlockTableRecord
  2
*X68
340
0
102
{BLKREFS
331
2A4A
102
}
  0
BLOCK_RECORD
  5
2BE9
330
2AA3
100
AcDbSymbolTableRecord
100
AcDbBlockTableRecord
  2
*X69
340
0
102
{BLKREFS
331
2A4B
102
}
  0
ENDTAB
  0
ENDSEC
  0
SECTION
  2
BLOCKS
  0
BLOCK
  5
2B17
330
2B16
100
AcDbEntity
  8
0
100
AcDbBlockBegin
  2
*Model_Space
 70
     0
 10
0.0
 20
0.0
 30
0.0
  3
*Model_Space
  1

  0
ENDBLK
  5
2B18
330
2B16
100
AcDbEntity
  8
0
100
AcDbBlockEnd
  0
BLOCK
  5
2B13
330
2B12
100
AcDbEntity
 67
     1
  8
0
100
AcDbBlockBegin
  2
*Paper_Space
 70
     0
 10
0.0
 20
0.0
 30
0.0
  3
*Paper_Space
  1

  0
ENDBLK
  5
2B14
330
2B12
100
AcDbEntity
 67
     1
  8
0
100
AcDbBlockEnd
  0
BLOCK
  5
2B60
330
2B5F
100
AcDbEntity
  8
0
100
AcDbBlockBegin
  2
$MODEL_SPACE
 70
     0
 10
0.0
 20
0.0
 30
0.0
  3
$MODEL_SPACE
  1

  0
ENDBLK
  5
23F8
330
2B5F
100
AcDbEntity
  8
0
100
AcDbBlockEnd
  0
BLOCK
  5
2B62
330
2B61
100
AcDbEntity
  8
0
100
AcDbBlockBegin
  2
$PAPER_SPACE
 70
     0
 10
0.0
 20
0.0
 30
0.0
  3
$PAPER_SPACE
  1

  0
ENDBLK
  5
23F4
330
2B61
100
AcDbEntity
  8
0
100
AcDbBlockEnd
  0
BLOCK
  5
2B64
330
2B63
100
AcDbEntity
  8
0
100
AcDbBlockBegin
  2
_ORIGIN
 70
     0
 10
0.0
 20
0.0
 30
0.0
  3
_ORIGIN
  1

  0
CIRCLE
  5
880
330
2B63
100
AcDbEntity
  8
0
  6
Continuous
 62
     7
100
AcDbCircle
 10
0.0
 20
0.0
 30
0.0
 40
0.5
  0
LINE
  5
881
330
2B63
100
AcDbEntity
  8
0
  6
Continuous
 62
     7
100
AcDbLine
 10
0.0
 20
0.0
 30
0.0
 11
-1.0
 21
0.0
 31
0.0
  0
ENDBLK
  5
882
330
2B63
100
AcDbEntity
  8
0
100
AcDbBlockEnd
  0
BLOCK
  5
2B66
330
2B65
100
AcDbEntity
  8
0
 62
     1
100
AcDbBlockBegin
  2
_DOTBLANK
 70
     0
 10
0.0
 20
0.0
 30
0.0
  3
_DOTBLANK
  1

  0
CIRCLE
  5
AB3
330
2B65
100
AcDbEntity
  8
0
  6
ByBlock
 62
     0
100
AcDbCircle
 10
0.0
 20
0.0
 30
0.0
 40
0.5
  0
LINE
  5
AB4
330
2B65
100
AcDbEntity
  8
0
  6
ByBlock
 62
     0
100
AcDbLine
 10
-0.5
 20
0.0
 30
0.0
 11
-1.0
 21
0.0
 31
0.0
  0
ENDBLK
  5
AB6
330
2B65
100
AcDbEntity
  8
0
 62
     1
100
AcDbBlockEnd
  0
BLOCK
  5
2B68
330
2B67
100
AcDbEntity
  8
0
 62
     1
100
AcDbBlockBegin
  2
_OPEN30
 70
     0
 10
0.0
 20
0.0
 30
0.0
  3
_OPEN30
  1

  0
LINE
  5
AB8
330
2B67
100
AcDbEntity
  8
0
  6
ByBlock
 62
     0
100
AcDbLine
 10
-1.0
 20
0.26794919
 30
0.0
 11
0.0
 21
0.0
 31
0.0
  0
LINE
  5
AB9
330
2B67
100
AcDbEntity
  8
0
  6
ByBlock
 62
     0
100
AcDbLine
 10
0.0
 20
0.0
 30
0.0
 11
-1.0
 21
-0.26794919
 31
0.0
  0
LINE
  5
ABA
330
2B67
100
AcDbEntity
  8
0
  6
ByBlock
 62
     0
100
AcDbLine
 10
0.0
 20
0.0
 30
0.0
 11
-1.0
 21
0.0
 31
0.0
  0
ENDBLK
  5
ABC
330
2B67
100
AcDbEntity
  8
0
 62
     1
100
AcDbBlockEnd
  0
BLOCK
  5
2B6A
330
2B69
100
AcDbEntity
  8
0
100
AcDbBlockBegin
  2
*D5
 70
     1
 10
0.0
 20
0.0
 30
0.0
  3
*D5
  1

  0
LINE
  5
1296
330
2B69
100
AcDbEntity
  8
SIZE
 62
     0
100
AcDbLine
 10
-134.5
 20
-320.0
 30
0.0
 11
-134.5
 21
-468.0173952306001
 31
0.0
  0
LINE
  5
1297
330
2B69
100
AcDbEntity
  8
SIZE
 62
     0
100
AcDbLine
 10
134.5
 20
-320.0
 30
0.0
 11
134.5
 21
-468.0173952306001
 31
0.0
  0
LINE
  5
1298
330
2B69
100
AcDbEntity
  8
SIZE
 62
     0
100
AcDbLine
 10
-122.5
 20
-448.0173952306
 30
0.0
 11
122.5
 21
-448.0173952306
 31
0.0
  0
INSERT
  5
1299
330
2B69
100
AcDbEntity
  8
SIZE
 62
     0
100
AcDbBlockReference
  2
_DOTBLANK
 10
-134.5
 20
-448.0173952306
 30
0.0
 41
12.0
 42
12.0
 43
12.0
 50
180.0
  0
INSERT
  5
129A
330
2B69
100
AcDbEntity
  8
SIZE
 62
     0
100
AcDbBlockReference
  2
_DOTBLANK
 10
134.5
 20
-448.0173952306
 30
0.0
 41
12.0
 42
12.0
 43
12.0
  0
INSERT
  5
129B
330
2B69
100
AcDbEntity
  8
0
100
AcDbBlockReference
  2
*U6
 10
0.0
 20
0.0
 30
0.0
  0
POINT
  5
129C
330
2B69
100
AcDbEntity
  8
DEFPOINTS
 62
     0
100
AcDbPoint
 10
-134.5
 20
-300.0
 30
0.0
  0
POINT
  5
129D
330
2B69
100
AcDbEntity
  8
DEFPOINTS
 62
     0
100
AcDbPoint
 10
134.5
 20
-300.0
 30
0.0
  0
POINT
  5
129E
330
2B69
100
AcDbEntity
  8
DEFPOINTS
 62
     0
100
AcDbPoint
 10
134.5
 20
-448.0173952306
 30
0.0
  0
ENDBLK
  5
D72
330
2B69
100
AcDbEntity
  8
0
100
AcDbBlockEnd
  0
BLOCK
  5
2B6C
330
2B6B
100
AcDbEntity
  8
0
100
AcDbBlockBegin
  2
*U6
 70
     1
 10
0.0
 20
0.0
 30
0.0
  3
*U6
  1

  0
TEXT
  5
1EF5
330
2B6B
100
AcDbEntity
  8
SIZE
 62
     0
100
AcDbText
 10
-72.68571428571426
 20
-438.0173952305999
 30
0.0
 40
64.0
  1
269
 41
0.9
100
AcDbText
  0
ENDBLK
  5
1EF7
330
2B6B
100
AcDbEntity
  8
0
100
AcDbBlockEnd
  0
BLOCK
  5
2B6E
330
2B6D
100
AcDbEntity
  8
0
100
AcDbBlockBegin
  2
*D7
 70
     1
 10
0.0
 20
0.0
 30
0.0
  3
*D7
  1

  0
LINE
  5
11A7
330
2B6D
100
AcDbEntity
  8
SIZE
  6
Continuous
 62
     0
100
AcDbLine
 10
143.5
 20
-300.0
 30
0.0
 11
304.6432844803791
 21
-300.0
 31
0.0
  0
LINE
  5
11A8
330
2B6D
100
AcDbEntity
  8
SIZE
  6
Continuous
 62
     0
100
AcDbLine
 10
177.5
 20
-0.0000000000000057
 30
0.0
 11
304.6432844803792
 21
-0.0000000000000417
 31
0.0
  0
LINE
  5
11A9
330
2B6D
100
AcDbEntity
  8
SIZE
  6
Continuous
 62
     0
100
AcDbLine
 10
284.6432844803791
 20
-288.0000000000001
 30
0.0
 11
284.6432844803792
 21
-12.00000000000003
 31
0.0
  0
INSERT
  5
11AA
330
2B6D
100
AcDbEntity
  8
SIZE
  6
Continuous
 62
     0
100
AcDbBlockReference
  2
_DOTBLANK
 10
284.6432844803791
 20
-300.0
 30
0.0
 41
12.0
 42
12.0
 43
12.0
 50
270.0
  0
INSERT
  5
11AB
330
2B6D
100
AcDbEntity
  8
SIZE
  6
Continuous
 62
     0
100
AcDbBlockReference
  2
_DOTBLANK
 10
284.6432844803792
 20
-0.000000000000036
 30
0.0
 41
12.0
 42
12.0
 43
12.0
 50
90.0
  0
INSERT
  5
11AC
330
2B6D
100
AcDbEntity
  8
0
100
AcDbBlockReference
  2
*U8
 10
0.0
 20
0.0
 30
0.0
  0
POINT
  5
11AD
330
2B6D
100
AcDbEntity
  8
DEFPOINTS
  6
Continuous
 62
     0
100
AcDbPoint
 10
123.5
 20
-300.0
 30
0.0
  0
POINT
  5
11AE
330
2B6D
100
AcDbEntity
  8
DEFPOINTS
  6
Continuous
 62
     0
100
AcDbPoint
 10
157.5
 20
0.0
 30
0.0
  0
POINT
  5
11AF
330
2B6D
100
AcDbEntity
  8
DEFPOINTS
  6
Continuous
 62
     0
100
AcDbPoint
 10
284.6432844803792
 20
-0.000000000000036
 30
0.0
  0
ENDBLK
  5
E11
330
2B6D
100
AcDbEntity
  8
0
100
AcDbBlockEnd
  0
BLOCK
  5
2B70
330
2B6F
100
AcDbEntity
  8
0
100
AcDbBlockBegin
  2
*U8
 70
     1
 10
0.0
 20
0.0
 30
0.0
  3
*U8
  1

  0
TEXT
  5
1EE1
330
2B6F
100
AcDbEntity
  8
SIZE
 62
     0
100
AcDbText
 10
274.6432844803792
 20
-224.0571428571429
 30
0.0
 40
64.0
  1
300
 50
90.0
 41
0.9
100
AcDbText
  0
ENDBLK
  5
1EE3
330
2B6F
100
AcDbEntity
  8
0
100
AcDbBlockEnd
  0
BLOCK
  5
2B72
330
2B71
100
AcDbEntity
  8
0
100
AcDbBlockBegin
  2
*D9
 70
     1
 10
0.0
 20
0.0
 30
0.0
  3
*D9
  1

  0
LINE
  5
E7D
330
2B71
100
AcDbEntity
  8
SIZE
 62
     0
100
AcDbLine
 10
-139.9999999999998
 20
32.46448280219375
 30
0.0
 11
-139.9999999999998
 21
136.4516878685508
 31
0.0
  0
LINE
  5
E7E
330
2B71
100
AcDbEntity
  8
SIZE
 62
     0
100
AcDbLine
 10
140.0
 20
32.46448280219375
 30
0.0
 11
140.0
 21
136.4516878685508
 31
0.0
  0
LINE
  5
E7F
330
2B71
100
AcDbEntity
  8
SIZE
 62
     0
100
AcDbLine
 10
-128.0
 20
116.4516878685508
 30
0.0
 11
128.0
 21
116.4516878685508
 31
0.0
  0
INSERT
  5
E80
330
2B71
100
AcDbEntity
  8
SIZE
 62
     0
100
AcDbBlockReference
  2
_DOTBLANK
 10
-139.9999999999998
 20
116.4516878685508
 30
0.0
 41
12.0
 42
12.0
 43
12.0
 50
180.0
  0
INSERT
  5
E81
330
2B71
100
AcDbEntity
  8
SIZE
 62
     0
100
AcDbBlockReference
  2
_DOTBLANK
 10
140.0
 20
116.4516878685508
 30
0.0
 41
12.0
 42
12.0
 43
12.0
  0
INSERT
  5
E82
330
2B71
100
AcDbEntity
  8
0
100
AcDbBlockReference
  2
*U10
 10
0.0
 20
0.0
 30
0.0
  0
POINT
  5
E83
330
2B71
100
AcDbEntity
  8
DEFPOINTS
 62
     0
100
AcDbPoint
 10
-139.9999999999998
 20
12.46448280219374
 30
0.0
  0
POINT
  5
E84
330
2B71
100
AcDbEntity
  8
DEFPOINTS
 62
     0
100
AcDbPoint
 10
140.0
 20
12.46448280219374
 30
0.0
  0
POINT
  5
E85
330
2B71
100
AcDbEntity
  8
DEFPOINTS
 62
     0
100
AcDbPoint
 10
140.0
 20
116.4516878685508
 30
0.0
  0
ENDBLK
  5
E7C
330
2B71
100
AcDbEntity
  8
0
100
AcDbBlockEnd
  0
BLOCK
  5
2B74
330
2B73
100
AcDbEntity
  8
0
100
AcDbBlockBegin
  2
*U10
 70
     1
 10
0.0
 20
0.0
 30
0.0
  3
*U10
  1

  0
TEXT
  5
1ED8
330
2B73
100
AcDbEntity
  8
SIZE
 62
     0
100
AcDbText
 10
-74.05714285714281
 20
126.4516878685508
 30
0.0
 40
64.0
  1
280
 41
0.9
100
AcDbText
  0
ENDBLK
  5
1EDA
330
2B73
100
AcDbEntity
  8
0
100
AcDbBlockEnd
  0
BLOCK
  5
2B76
330
2B75
100
AcDbEntity
  8
0
100
AcDbBlockBegin
  2
GENAXEH
 70
     0
 10
0.0
 20
0.0
 30
0.0
  3
GENAXEH
  1

  0
LINE
  5
FDB
330
2B75
100
AcDbEntity
  8
0
100
AcDbLine
 10
-1.0
 20
0.0
 30
0.0
 11
1.0
 21
0.0
 31
0.0
  0
ENDBLK
  5
FDD
330
2B75
100
AcDbEntity
  8
0
100
AcDbBlockEnd
  0
BLOCK
  5
2B78
330
2B77
100
AcDbEntity
  8
0
100
AcDbBlockBegin
  2
*D12
 70
     1
 10
0.0
 20
0.0
 30
0.0
  3
*D12
  1

  0
LINE
  5
1120
330
2B77
100
AcDbEntity
  8
SIZE
 62
     0
100
AcDbLine
 10
-157.5
 20
20.0
 30
0.0
 11
-157.5
 21
245.5794621189598
 31
0.0
  0
LINE
  5
1121
330
2B77
100
AcDbEntity
  8
SIZE
 62
     0
100
AcDbLine
 10
157.5
 20
20.0
 30
0.0
 11
157.5
 21
245.5794621189598
 31
0.0
  0
LINE
  5
1122
330
2B77
100
AcDbEntity
  8
SIZE
 62
     0
100
AcDbLine
 10
-145.5
 20
225.5794621189598
 30
0.0
 11
145.5
 21
225.5794621189598
 31
0.0
  0
INSERT
  5
1123
330
2B77
100
AcDbEntity
  8
SIZE
 62
     0
100
AcDbBlockReference
  2
_DOTBLANK
 10
-157.5
 20
225.5794621189598
 30
0.0
 41
12.0
 42
12.0
 43
12.0
 50
180.0
  0
INSERT
  5
1124
330
2B77
100
AcDbEntity
  8
SIZE
 62
     0
100
AcDbBlockReference
  2
_DOTBLANK
 10
157.5
 20
225.5794621189598
 30
0.0
 41
12.0
 42
12.0
 43
12.0
  0
INSERT
  5
1125
330
2B77
100
AcDbEntity
  8
0
100
AcDbBlockReference
  2
*U13
 10
0.0
 20
0.0
 30
0.0
  0
POINT
  5
1126
330
2B77
100
AcDbEntity
  8
DEFPOINTS
 62
     0
100
AcDbPoint
 10
-157.5
 20
0.0
 30
0.0
  0
POINT
  5
1127
330
2B77
100
AcDbEntity
  8
DEFPOINTS
 62
     0
100
AcDbPoint
 10
157.5
 20
0.0
 30
0.0
  0
POINT
  5
1128
330
2B77
100
AcDbEntity
  8
DEFPOINTS
 62
     0
100
AcDbPoint
 10
157.5
 20
225.5794621189598
 30
0.0
  0
ENDBLK
  5
111F
330
2B77
100
AcDbEntity
  8
0
100
AcDbBlockEnd
  0
BLOCK
  5
2B7A
330
2B79
100
AcDbEntity
  8
0
100
AcDbBlockBegin
  2
*U13
 70
     1
 10
0.0
 20
0.0
 30
0.0
  3
*U13
  1

  0
TEXT
  5
1EDD
330
2B79
100
AcDbEntity
  8
SIZE
 62
     0
100
AcDbText
 10
-68.57142857142857
 20
235.5794621189599
 30
0.0
 40
64.0
  1
315
 41
0.9
100
AcDbText
  0
ENDBLK
  5
1EDF
330
2B79
100
AcDbEntity
  8
0
100
AcDbBlockEnd
  0
BLOCK
  5
2B7C
330
2B7B
100
AcDbEntity
  8
0
100
AcDbBlockBegin
  2
*D14
 70
     1
 10
0.0
 20
0.0
 30
0.0
  3
*D14
  1

  0
LINE
  5
11BD
330
2B7B
100
AcDbEntity
  8
NOTE
 62
     0
100
AcDbLine
 10
-123.4999999999999
 20
-320.0
 30
0.0
 11
-123.4999999999999
 21
-354.9529861856111
 31
0.0
  0
LINE
  5
11BE
330
2B7B
100
AcDbEntity
  8
NOTE
 62
     0
100
AcDbLine
 10
-133.4999999999998
 20
-331.2126909923287
 30
0.0
 11
-133.4999999999998
 21
-354.9529861856111
 31
0.0
  0
LINE
  5
11BF
330
2B7B
100
AcDbEntity
  8
NOTE
 62
     0
100
AcDbLine
 10
-111.4999999999999
 20
-334.9529861856112
 30
0.0
 11
-99.4999999999999
 21
-334.9529861856112
 31
0.0
  0
LINE
  5
11C0
330
2B7B
100
AcDbEntity
  8
NOTE
 62
     0
100
AcDbLine
 10
-145.4999999999998
 20
-334.9529861856112
 30
0.0
 11
-157.4999999999998
 21
-334.9529861856112
 31
0.0
  0
LINE
  5
11C1
330
2B7B
100
AcDbEntity
  8
NOTE
 62
     0
100
AcDbLine
 10
-123.4999999999999
 20
-334.9529861856112
 30
0.0
 11
-133.4999999999998
 21
-334.9529861856112
 31
0.0
  0
INSERT
  5
11C2
330
2B7B
100
AcDbEntity
  8
NOTE
 62
     0
100
AcDbBlockReference
  2
_DOTBLANK
 10
-123.4999999999999
 20
-334.9529861856112
 30
0.0
 41
12.0
 42
12.0
 43
12.0
 50
180.0
  0
INSERT
  5
11C3
330
2B7B
100
AcDbEntity
  8
NOTE
 62
     0
100
AcDbBlockReference
  2
_DOTBLANK
 10
-133.4999999999998
 20
-334.9529861856112
 30
0.0
 41
12.0
 42
12.0
 43
12.0
  0
INSERT
  5
11C4
330
2B7B
100
AcDbEntity
  8
0
100
AcDbBlockReference
  2
*U15
 10
0.0
 20
0.0
 30
0.0
  0
POINT
  5
11C5
330
2B7B
100
AcDbEntity
  8
DEFPOINTS
 62
     0
100
AcDbPoint
 10
-123.4999999999999
 20
-300.0
 30
0.0
  0
POINT
  5
11C6
330
2B7B
100
AcDbEntity
  8
DEFPOINTS
 62
     0
100
AcDbPoint
 10
-133.4999999999998
 20
-311.2126909923287
 30
0.0
  0
POINT
  5
11C7
330
2B7B
100
AcDbEntity
  8
DEFPOINTS
 62
     0
100
AcDbPoint
 10
-133.4999999999998
 20
-334.9529861856112
 30
0.0
  0
ENDBLK
  5
11BC
330
2B7B
100
AcDbEntity
  8
0
100
AcDbBlockEnd
  0
BLOCK
  5
2B7E
330
2B7D
100
AcDbEntity
  8
0
100
AcDbBlockBegin
  2
*U15
 70
     1
 10
0.0
 20
0.0
 30
0.0
  3
*U15
  1

  0
TEXT
  5
1EE5
330
2B7D
100
AcDbEntity
  8
NOTE
 62
     0
100
AcDbText
 10
-169.642857142857
 20
-324.9529861856112
 30
0.0
 40
64.0
  1
10
 41
0.9
100
AcDbText
  0
ENDBLK
  5
1EE7
330
2B7D
100
AcDbEntity
  8
0
100
AcDbBlockEnd
  0
BLOCK
  5
2B80
330
2B7F
100
AcDbEntity
  8
0
100
AcDbBlockBegin
  2
*D16
 70
     1
 10
0.0
 20
0.0
 30
0.0
  3
*D16
  1

  0
LINE
  5
11E7
330
2B7F
100
AcDbEntity
  8
NOTE
 62
     0
100
AcDbLine
 10
-135.5
 20
-333.2126909923287
 30
0.0
 11
-135.5
 21
-386.2569421441843
 31
0.0
  0
LINE
  5
11E8
330
2B7F
100
AcDbEntity
  8
NOTE
 62
     0
100
AcDbLine
 10
-123.4999999999999
 20
-320.0
 30
0.0
 11
-123.4999999999999
 21
-386.2569421441843
 31
0.0
  0
LINE
  5
11E9
330
2B7F
100
AcDbEntity
  8
NOTE
 62
     0
100
AcDbLine
 10
-147.5
 20
-366.2569421441844
 30
0.0
 11
-159.5
 21
-366.2569421441844
 31
0.0
  0
LINE
  5
11EA
330
2B7F
100
AcDbEntity
  8
NOTE
 62
     0
100
AcDbLine
 10
-111.4999999999999
 20
-366.2569421441844
 30
0.0
 11
-99.4999999999999
 21
-366.2569421441844
 31
0.0
  0
LINE
  5
11EB
330
2B7F
100
AcDbEntity
  8
NOTE
 62
     0
100
AcDbLine
 10
-135.5
 20
-366.2569421441844
 30
0.0
 11
-123.4999999999999
 21
-366.2569421441844
 31
0.0
  0
INSERT
  5
11EC
330
2B7F
100
AcDbEntity
  8
NOTE
 62
     0
100
AcDbBlockReference
  2
_DOTBLANK
 10
-135.5
 20
-366.2569421441844
 30
0.0
 41
12.0
 42
12.0
 43
12.0
  0
INSERT
  5
11ED
330
2B7F
100
AcDbEntity
  8
NOTE
 62
     0
100
AcDbBlockReference
  2
_DOTBLANK
 10
-123.4999999999999
 20
-366.2569421441844
 30
0.0
 41
12.0
 42
12.0
 43
12.0
 50
180.0
  0
INSERT
  5
11EE
330
2B7F
100
AcDbEntity
  8
0
100
AcDbBlockReference
  2
*U17
 10
0.0
 20
0.0
 30
0.0
  0
POINT
  5
11EF
330
2B7F
100
AcDbEntity
  8
DEFPOINTS
 62
     0
100
AcDbPoint
 10
-135.5
 20
-313.2126909923287
 30
0.0
  0
POINT
  5
11F0
330
2B7F
100
AcDbEntity
  8
DEFPOINTS
 62
     0
100
AcDbPoint
 10
-123.4999999999999
 20
-300.0
 30
0.0
  0
POINT
  5
11F1
330
2B7F
100
AcDbEntity
  8
DEFPOINTS
 62
     0
100
AcDbPoint
 10
-123.4999999999999
 20
-366.2569421441844
 30
0.0
  0
ENDBLK
  5
11E6
330
2B7F
100
AcDbEntity
  8
0
100
AcDbBlockEnd
  0
BLOCK
  5
2B82
330
2B81
100
AcDbEntity
  8
0
100
AcDbBlockBegin
  2
*U17
 70
     1
 10
0.0
 20
0.0
 30
0.0
  3
*U17
  1

  0
TEXT
  5
1EE9
330
2B81
100
AcDbEntity
  8
NOTE
 62
     0
100
AcDbText
 10
-170.642857142857
 20
-356.2569421441843
 30
0.0
 40
64.0
  1
12
 41
0.9
100
AcDbText
  0
ENDBLK
  5
1EEB
330
2B81
100
AcDbEntity
  8
0
100
AcDbBlockEnd
  0
BLOCK
  5
2B84
330
2B83
100
AcDbEntity
  8
0
100
AcDbBlockBegin
  2
*D18
 70
     1
 10
0.0
 20
0.0
 30
0.0
  3
*D18
  1

  0
LINE
  5
11F6
330
2B83
100
AcDbEntity
  8
NOTE
 62
     0
100
AcDbLine
 10
-123.4999999999999
 20
-320.0
 30
0.0
 11
-123.4999999999999
 21
-583.8286022818904
 31
0.0
  0
LINE
  5
11F7
330
2B83
100
AcDbEntity
  8
NOTE
 62
     0
100
AcDbLine
 10
123.5
 20
-320.0
 30
0.0
 11
123.5
 21
-583.8286022818904
 31
0.0
  0
LINE
  5
11F8
330
2B83
100
AcDbEntity
  8
NOTE
 62
     0
100
AcDbLine
 10
-111.4999999999999
 20
-563.8286022818904
 30
0.0
 11
111.5
 21
-563.8286022818904
 31
0.0
  0
INSERT
  5
11F9
330
2B83
100
AcDbEntity
  8
NOTE
 62
     0
100
AcDbBlockReference
  2
_DOTBLANK
 10
-123.4999999999999
 20
-563.8286022818904
 30
0.0
 41
12.0
 42
12.0
 43
12.0
 50
180.0
  0
INSERT
  5
11FA
330
2B83
100
AcDbEntity
  8
NOTE
 62
     0
100
AcDbBlockReference
  2
_DOTBLANK
 10
123.5
 20
-563.8286022818904
 30
0.0
 41
12.0
 42
12.0
 43
12.0
  0
INSERT
  5
11FB
330
2B83
100
AcDbEntity
  8
0
100
AcDbBlockReference
  2
*U19
 10
0.0
 20
0.0
 30
0.0
  0
POINT
  5
11FC
330
2B83
100
AcDbEntity
  8
DEFPOINTS
 62
     0
100
AcDbPoint
 10
-123.4999999999999
 20
-300.0
 30
0.0
  0
POINT
  5
11FD
330
2B83
100
AcDbEntity
  8
DEFPOINTS
 62
     0
100
AcDbPoint
 10
123.5
 20
-300.0
 30
0.0
  0
POINT
  5
11FE
330
2B83
100
AcDbEntity
  8
DEFPOINTS
 62
     0
100
AcDbPoint
 10
123.5
 20
-563.8286022818904
 30
0.0
  0
ENDBLK
  5
11F5
330
2B83
100
AcDbEntity
  8
0
100
AcDbBlockEnd
  0
BLOCK
  5
2B86
330
2B85
100
AcDbEntity
  8
0
100
AcDbBlockBegin
  2
*U19
 70
     1
 10
0.0
 20
0.0
 30
0.0
  3
*U19
  1

  0
TEXT
  5
1EED
330
2B85
100
AcDbEntity
  8
NOTE
 62
     0
100
AcDbText
 10
-74.05714285714281
 20
-553.8286022818904
 30
0.0
 40
64.0
  1
247
 41
0.9
100
AcDbText
  0
ENDBLK
  5
1EEF
330
2B85
100
AcDbEntity
  8
0
100
AcDbBlockEnd
  0
BLOCK
  5
2B88
330
2B87
100
AcDbEntity
  8
0
100
AcDbBlockBegin
  2
*D20
 70
     1
 10
0.0
 20
0.0
 30
0.0
  3
*D20
  1

  0
LINE
  5
1284
330
2B87
100
AcDbEntity
  8
NOTE
 62
     0
100
AcDbLine
 10
-123.5
 20
12.0
 30
0.0
 11
-123.5
 21
71.83630134534229
 31
0.0
  0
LINE
  5
1285
330
2B87
100
AcDbEntity
  8
NOTE
 62
     0
100
AcDbLine
 10
123.5
 20
12.0
 30
0.0
 11
123.5
 21
71.83630134534229
 31
0.0
  0
LINE
  5
1286
330
2B87
100
AcDbEntity
  8
NOTE
 62
     0
100
AcDbLine
 10
-111.5
 20
51.83630134534229
 30
0.0
 11
111.5
 21
51.83630134534229
 31
0.0
  0
INSERT
  5
1287
330
2B87
100
AcDbEntity
  8
NOTE
 62
     0
100
AcDbBlockReference
  2
_DOTBLANK
 10
-123.5
 20
51.83630134534229
 30
0.0
 41
12.0
 42
12.0
 43
12.0
 50
180.0
  0
INSERT
  5
1288
330
2B87
100
AcDbEntity
  8
NOTE
 62
     0
100
AcDbBlockReference
  2
_DOTBLANK
 10
123.5
 20
51.83630134534229
 30
0.0
 41
12.0
 42
12.0
 43
12.0
  0
INSERT
  5
1289
330
2B87
100
AcDbEntity
  8
0
100
AcDbBlockReference
  2
*U21
 10
0.0
 20
0.0
 30
0.0
  0
POINT
  5
128A
330
2B87
100
AcDbEntity
  8
DEFPOINTS
 62
     0
100
AcDbPoint
 10
-123.5
 20
-8.0
 30
0.0
  0
POINT
  5
128B
330
2B87
100
AcDbEntity
  8
DEFPOINTS
 62
     0
100
AcDbPoint
 10
123.5
 20
-8.0
 30
0.0
  0
POINT
  5
128C
330
2B87
100
AcDbEntity
  8
DEFPOINTS
 62
     0
100
AcDbPoint
 10
123.5
 20
51.83630134534229
 30
0.0
  0
ENDBLK
  5
1283
330
2B87
100
AcDbEntity
  8
0
100
AcDbBlockEnd
  0
BLOCK
  5
2B8A
330
2B89
100
AcDbEntity
  8
0
100
AcDbBlockBegin
  2
*U21
 70
     1
 10
0.0
 20
0.0
 30
0.0
  3
*U21
  1

  0
TEXT
  5
1EF1
330
2B89
100
AcDbEntity
  8
NOTE
 62
     0
100
AcDbText
 10
-74.05714285714283
 20
61.83630134534229
 30
0.0
 40
64.0
  1
247
 41
0.9
100
AcDbText
  0
ENDBLK
  5
1EF3
330
2B89
100
AcDbEntity
  8
0
100
AcDbBlockEnd
  0
BLOCK
  5
2B8C
330
2B8B
100
AcDbEntity
  8
0
100
AcDbBlockBegin
  2
*D22
 70
     1
 10
0.0
 20
0.0
 30
0.0
  3
*D22
  1

  0
LINE
  5
1414
330
2B8B
100
AcDbEntity
  8
SIZE
 62
     0
100
AcDbLine
 10
-22313.11521613997
 20
7365.702971374808
 30
0.0
 11
-22313.11521613997
 21
7217.685576144207
 31
0.0
  0
LINE
  5
1415
330
2B8B
100
AcDbEntity
  8
SIZE
 62
     0
100
AcDbLine
 10
-22044.11521613997
 20
7365.702971374808
 30
0.0
 11
-22044.11521613997
 21
7217.685576144207
 31
0.0
  0
LINE
  5
1416
330
2B8B
100
AcDbEntity
  8
SIZE
 62
     0
100
AcDbLine
 10
-22301.11521613997
 20
7237.685576144207
 30
0.0
 11
-22056.11521613997
 21
7237.685576144207
 31
0.0
  0
INSERT
  5
1417
330
2B8B
100
AcDbEntity
  8
SIZE
 62
     0
100
AcDbBlockReference
  2
_DOTBLANK
 10
-22313.11521613997
 20
7237.685576144207
 30
0.0
 41
12.0
 42
12.0
 43
12.0
 50
180.0
  0
INSERT
  5
1418
330
2B8B
100
AcDbEntity
  8
SIZE
 62
     0
100
AcDbBlockReference
  2
_DOTBLANK
 10
-22044.11521613997
 20
7237.685576144207
 30
0.0
 41
12.0
 42
12.0
 43
12.0
  0
INSERT
  5
1419
330
2B8B
100
AcDbEntity
  8
0
100
AcDbBlockReference
  2
*U23
 10
0.0
 20
0.0
 30
0.0
  0
POINT
  5
141A
330
2B8B
100
AcDbEntity
  8
DEFPOINTS
 62
     0
100
AcDbPoint
 10
-22313.11521613997
 20
7385.702971374808
 30
0.0
  0
POINT
  5
141B
330
2B8B
100
AcDbEntity
  8
DEFPOINTS
 62
     0
100
AcDbPoint
 10
-22044.11521613997
 20
7385.702971374808
 30
0.0
  0
POINT
  5
141C
330
2B8B
100
AcDbEntity
  8
DEFPOINTS
 62
     0
100
AcDbPoint
 10
-22044.11521613997
 20
7237.685576144207
 30
0.0
  0
ENDBLK
  5
141D
330
2B8B
100
AcDbEntity
  8
0
100
AcDbBlockEnd
  0
BLOCK
  5
2B8E
330
2B8D
100
AcDbEntity
  8
0
100
AcDbBlockBegin
  2
*U23
 70
     1
 10
0.0
 20
0.0
 30
0.0
  3
*U23
  1

  0
TEXT
  5
1EF9
330
2B8D
100
AcDbEntity
  8
SIZE
 62
     0
100
AcDbText
 10
-22251.30093042568
 20
7247.685576144205
 30
0.0
 40
64.0
  1
269
 41
0.9
100
AcDbText
  0
ENDBLK
  5
1EFB
330
2B8D
100
AcDbEntity
  8
0
100
AcDbBlockEnd
  0
BLOCK
  5
2B90
330
2B8F
100
AcDbEntity
  8
0
100
AcDbBlockBegin
  2
*D24
 70
     1
 10
0.0
 20
0.0
 30
0.0
  3
*D24
  1

  0
LINE
  5
1420
330
2B8F
100
AcDbEntity
  8
SIZE
  6
Continuous
 62
     0
100
AcDbLine
 10
-22035.11521613997
 20
7385.702971374808
 30
0.0
 11
-21873.97193165959
 21
7385.702971374808
 31
0.0
  0
LINE
  5
1421
330
2B8F
100
AcDbEntity
  8
SIZE
  6
Continuous
 62
     0
100
AcDbLine
 10
-22001.11521613997
 20
7685.702971374808
 30
0.0
 11
-21873.97193165959
 21
7685.702971374808
 31
0.0
  0
LINE
  5
1422
330
2B8F
100
AcDbEntity
  8
SIZE
  6
Continuous
 62
     0
100
AcDbLine
 10
-21893.97193165959
 20
7397.702971374808
 30
0.0
 11
-21893.97193165959
 21
7673.702971374808
 31
0.0
  0
INSERT
  5
1423
330
2B8F
100
AcDbEntity
  8
SIZE
  6
Continuous
 62
     0
100
AcDbBlockReference
  2
_DOTBLANK
 10
-21893.97193165959
 20
7385.702971374808
 30
0.0
 41
12.0
 42
12.0
 43
12.0
 50
270.0
  0
INSERT
  5
1424
330
2B8F
100
AcDbEntity
  8
SIZE
  6
Continuous
 62
     0
100
AcDbBlockReference
  2
_DOTBLANK
 10
-21893.97193165959
 20
7685.702971374808
 30
0.0
 41
12.0
 42
12.0
 43
12.0
 50
90.0
  0
INSERT
  5
1425
330
2B8F
100
AcDbEntity
  8
0
100
AcDbBlockReference
  2
*U25
 10
0.0
 20
0.0
 30
0.0
  0
POINT
  5
1426
330
2B8F
100
AcDbEntity
  8
DEFPOINTS
  6
Continuous
 62
     0
100
AcDbPoint
 10
-22055.11521613997
 20
7385.702971374808
 30
0.0
  0
POINT
  5
1427
330
2B8F
100
AcDbEntity
  8
DEFPOINTS
  6
Continuous
 62
     0
100
AcDbPoint
 10
-22021.11521613997
 20
7685.702971374808
 30
0.0
  0
POINT
  5
1428
330
2B8F
100
AcDbEntity
  8
DEFPOINTS
  6
Continuous
 62
     0
100
AcDbPoint
 10
-21893.97193165959
 20
7685.702971374808
 30
0.0
  0
ENDBLK
  5
1429
330
2B8F
100
AcDbEntity
  8
0
100
AcDbBlockEnd
  0
BLOCK
  5
2B92
330
2B91
100
AcDbEntity
  8
0
100
AcDbBlockBegin
  2
*U25
 70
     1
 10
0.0
 20
0.0
 30
0.0
  3
*U25
  1

  0
TEXT
  5
1EFD
330
2B91
100
AcDbEntity
  8
SIZE
 62
     0
100
AcDbText
 10
-21903.97193165959
 20
7461.645828517662
 30
0.0
 40
64.0
  1
300
 50
90.0
 41
0.9
100
AcDbText
  0
ENDBLK
  5
1EFF
330
2B91
100
AcDbEntity
  8
0
100
AcDbBlockEnd
  0
BLOCK
  5
2B94
330
2B93
100
AcDbEntity
  8
0
100
AcDbBlockBegin
  2
*D26
 70
     1
 10
0.0
 20
0.0
 30
0.0
  3
*D26
  1

  0
LINE
  5
142C
330
2B93
100
AcDbEntity
  8
SIZE
 62
     0
100
AcDbLine
 10
-22318.61521613997
 20
7718.167454177002
 30
0.0
 11
-22318.61521613997
 21
7822.154659243358
 31
0.0
  0
LINE
  5
142D
330
2B93
100
AcDbEntity
  8
SIZE
 62
     0
100
AcDbLine
 10
-22038.61521613997
 20
7718.167454177002
 30
0.0
 11
-22038.61521613997
 21
7822.154659243358
 31
0.0
  0
LINE
  5
142E
330
2B93
100
AcDbEntity
  8
SIZE
 62
     0
100
AcDbLine
 10
-22306.61521613997
 20
7802.154659243358
 30
0.0
 11
-22050.61521613997
 21
7802.154659243358
 31
0.0
  0
INSERT
  5
142F
330
2B93
100
AcDbEntity
  8
SIZE
 62
     0
100
AcDbBlockReference
  2
_DOTBLANK
 10
-22318.61521613997
 20
7802.154659243358
 30
0.0
 41
12.0
 42
12.0
 43
12.0
 50
180.0
  0
INSERT
  5
1430
330
2B93
100
AcDbEntity
  8
SIZE
 62
     0
100
AcDbBlockReference
  2
_DOTBLANK
 10
-22038.61521613997
 20
7802.154659243358
 30
0.0
 41
12.0
 42
12.0
 43
12.0
  0
INSERT
  5
1431
330
2B93
100
AcDbEntity
  8
0
100
AcDbBlockReference
  2
*U27
 10
0.0
 20
0.0
 30
0.0
  0
POINT
  5
1432
330
2B93
100
AcDbEntity
  8
DEFPOINTS
 62
     0
100
AcDbPoint
 10
-22318.61521613997
 20
7698.167454177002
 30
0.0
  0
POINT
  5
1433
330
2B93
100
AcDbEntity
  8
DEFPOINTS
 62
     0
100
AcDbPoint
 10
-22038.61521613997
 20
7698.167454177002
 30
0.0
  0
POINT
  5
1434
330
2B93
100
AcDbEntity
  8
DEFPOINTS
 62
     0
100
AcDbPoint
 10
-22038.61521613997
 20
7802.154659243358
 30
0.0
  0
ENDBLK
  5
1435
330
2B93
100
AcDbEntity
  8
0
100
AcDbBlockEnd
  0
BLOCK
  5
2B96
330
2B95
100
AcDbEntity
  8
0
100
AcDbBlockBegin
  2
*U27
 70
     1
 10
0.0
 20
0.0
 30
0.0
  3
*U27
  1

  0
TEXT
  5
1F01
330
2B95
100
AcDbEntity
  8
SIZE
 62
     0
100
AcDbText
 10
-22252.6723589971
 20
7812.154659243358
 30
0.0
 40
64.0
  1
280
 41
0.9
100
AcDbText
  0
ENDBLK
  5
1F03
330
2B95
100
AcDbEntity
  8
0
100
AcDbBlockEnd
  0
BLOCK
  5
2B98
330
2B97
100
AcDbEntity
  8
0
100
AcDbBlockBegin
  2
*D28
 70
     1
 10
0.0
 20
0.0
 30
0.0
  3
*D28
  1

  0
LINE
  5
1438
330
2B97
100
AcDbEntity
  8
SIZE
 62
     0
100
AcDbLine
 10
-22336.11521613997
 20
7705.702971374808
 30
0.0
 11
-22336.11521613997
 21
7931.282433493766
 31
0.0
  0
LINE
  5
1439
330
2B97
100
AcDbEntity
  8
SIZE
 62
     0
100
AcDbLine
 10
-22021.11521613997
 20
7705.702971374808
 30
0.0
 11
-22021.11521613997
 21
7931.282433493766
 31
0.0
  0
LINE
  5
143A
330
2B97
100
AcDbEntity
  8
SIZE
 62
     0
100
AcDbLine
 10
-22324.11521613997
 20
7911.282433493766
 30
0.0
 11
-22033.11521613997
 21
7911.282433493766
 31
0.0
  0
INSERT
  5
143B
330
2B97
100
AcDbEntity
  8
SIZE
 62
     0
100
AcDbBlockReference
  2
_DOTBLANK
 10
-22336.11521613997
 20
7911.282433493766
 30
0.0
 41
12.0
 42
12.0
 43
12.0
 50
180.0
  0
INSERT
  5
143C
330
2B97
100
AcDbEntity
  8
SIZE
 62
     0
100
AcDbBlockReference
  2
_DOTBLANK
 10
-22021.11521613997
 20
7911.282433493766
 30
0.0
 41
12.0
 42
12.0
 43
12.0
  0
INSERT
  5
143D
330
2B97
100
AcDbEntity
  8
0
100
AcDbBlockReference
  2
*U29
 10
0.0
 20
0.0
 30
0.0
  0
POINT
  5
143E
330
2B97
100
AcDbEntity
  8
DEFPOINTS
 62
     0
100
AcDbPoint
 10
-22336.11521613997
 20
7685.702971374808
 30
0.0
  0
POINT
  5
143F
330
2B97
100
AcDbEntity
  8
DEFPOINTS
 62
     0
100
AcDbPoint
 10
-22021.11521613997
 20
7685.702971374808
 30
0.0
  0
POINT
  5
1440
330
2B97
100
AcDbEntity
  8
DEFPOINTS
 62
     0
100
AcDbPoint
 10
-22021.11521613997
 20
7911.282433493766
 30
0.0
  0
ENDBLK
  5
1441
330
2B97
100
AcDbEntity
  8
0
100
AcDbBlockEnd
  0
BLOCK
  5
2B9A
330
2B99
100
AcDbEntity
  8
0
100
AcDbBlockBegin
  2
*U29
 70
     1
 10
0.0
 20
0.0
 30
0.0
  3
*U29
  1

  0
TEXT
  5
1F05
330
2B99
100
AcDbEntity
  8
SIZE
 62
     0
100
AcDbText
 10
-22247.18664471139
 20
7921.282433493766
 30
0.0
 40
64.0
  1
315
 41
0.9
100
AcDbText
  0
ENDBLK
  5
1F07
330
2B99
100
AcDbEntity
  8
0
100
AcDbBlockEnd
  0
BLOCK
  5
2B9C
330
2B9B
100
AcDbEntity
  8
0
100
AcDbBlockBegin
  2
*D30
 70
     1
 10
0.0
 20
0.0
 30
0.0
  3
*D30
  1

  0
LINE
  5
166B
330
2B9B
100
AcDbEntity
  8
SIZE
 62
     0
100
AcDbLine
 10
-134.5
 20
-320.0
 30
0.0
 11
-134.5
 21
-468.0173952306001
 31
0.0
  0
LINE
  5
166C
330
2B9B
100
AcDbEntity
  8
SIZE
 62
     0
100
AcDbLine
 10
134.5
 20
-320.0
 30
0.0
 11
134.5
 21
-468.0173952306001
 31
0.0
  0
LINE
  5
166D
330
2B9B
100
AcDbEntity
  8
SIZE
 62
     0
100
AcDbLine
 10
-122.5
 20
-448.0173952306
 30
0.0
 11
122.5
 21
-448.0173952306
 31
0.0
  0
INSERT
  5
166E
330
2B9B
100
AcDbEntity
  8
SIZE
 62
     0
100
AcDbBlockReference
  2
_DOTBLANK
 10
-134.5
 20
-448.0173952306
 30
0.0
 41
12.0
 42
12.0
 43
12.0
 50
180.0
  0
INSERT
  5
166F
330
2B9B
100
AcDbEntity
  8
SIZE
 62
     0
100
AcDbBlockReference
  2
_DOTBLANK
 10
134.5
 20
-448.0173952306
 30
0.0
 41
12.0
 42
12.0
 43
12.0
  0
INSERT
  5
1670
330
2B9B
100
AcDbEntity
  8
0
100
AcDbBlockReference
  2
*U31
 10
0.0
 20
0.0
 30
0.0
  0
POINT
  5
1671
330
2B9B
100
AcDbEntity
  8
DEFPOINTS
 62
     0
100
AcDbPoint
 10
-134.5
 20
-300.0
 30
0.0
  0
POINT
  5
1672
330
2B9B
100
AcDbEntity
  8
DEFPOINTS
 62
     0
100
AcDbPoint
 10
134.5
 20
-300.0
 30
0.0
  0
POINT
  5
1673
330
2B9B
100
AcDbEntity
  8
DEFPOINTS
 62
     0
100
AcDbPoint
 10
134.5
 20
-448.0173952306
 30
0.0
  0
ENDBLK
  5
14A7
330
2B9B
100
AcDbEntity
  8
0
100
AcDbBlockEnd
  0
BLOCK
  5
2B9E
330
2B9D
100
AcDbEntity
  8
0
100
AcDbBlockBegin
  2
*U31
 70
     1
 10
0.0
 20
0.0
 30
0.0
  3
*U31
  1

  0
TEXT
  5
1F09
330
2B9D
100
AcDbEntity
  8
SIZE
 62
     0
100
AcDbText
 10
-72.68571428571426
 20
-438.0173952306002
 30
0.0
 40
64.0
  1
269
 41
0.9
100
AcDbText
  0
ENDBLK
  5
1F0B
330
2B9D
100
AcDbEntity
  8
0
100
AcDbBlockEnd
  0
BLOCK
  5
2BA0
330
2B9F
100
AcDbEntity
  8
0
100
AcDbBlockBegin
  2
*D32
 70
     1
 10
0.0
 20
0.0
 30
0.0
  3
*D32
  1

  0
LINE
  5
1674
330
2B9F
100
AcDbEntity
  8
SIZE
  6
Continuous
 62
     0
100
AcDbLine
 10
143.5
 20
-300.0
 30
0.0
 11
304.6432844803784
 21
-300.0
 31
0.0
  0
LINE
  5
1675
330
2B9F
100
AcDbEntity
  8
SIZE
  6
Continuous
 62
     0
100
AcDbLine
 10
177.5
 20
-0.0000000000000057
 30
0.0
 11
304.6432844803785
 21
-0.0000000000000417
 31
0.0
  0
LINE
  5
1676
330
2B9F
100
AcDbEntity
  8
SIZE
  6
Continuous
 62
     0
100
AcDbLine
 10
284.6432844803784
 20
-288.0000000000001
 30
0.0
 11
284.6432844803785
 21
-12.00000000000003
 31
0.0
  0
INSERT
  5
1677
330
2B9F
100
AcDbEntity
  8
SIZE
  6
Continuous
 62
     0
100
AcDbBlockReference
  2
_DOTBLANK
 10
284.6432844803784
 20
-300.0
 30
0.0
 41
12.0
 42
12.0
 43
12.0
 50
270.0
  0
INSERT
  5
1678
330
2B9F
100
AcDbEntity
  8
SIZE
  6
Continuous
 62
     0
100
AcDbBlockReference
  2
_DOTBLANK
 10
284.6432844803785
 20
-0.000000000000036
 30
0.0
 41
12.0
 42
12.0
 43
12.0
 50
90.0
  0
INSERT
  5
1679
330
2B9F
100
AcDbEntity
  8
0
100
AcDbBlockReference
  2
*U33
 10
0.0
 20
0.0
 30
0.0
  0
POINT
  5
167A
330
2B9F
100
AcDbEntity
  8
DEFPOINTS
  6
Continuous
 62
     0
100
AcDbPoint
 10
123.5
 20
-300.0
 30
0.0
  0
POINT
  5
167B
330
2B9F
100
AcDbEntity
  8
DEFPOINTS
  6
Continuous
 62
     0
100
AcDbPoint
 10
157.5
 20
0.0
 30
0.0
  0
POINT
  5
167C
330
2B9F
100
AcDbEntity
  8
DEFPOINTS
  6
Continuous
 62
     0
100
AcDbPoint
 10
284.6432844803785
 20
-0.000000000000036
 30
0.0
  0
ENDBLK
  5
14B3
330
2B9F
100
AcDbEntity
  8
0
100
AcDbBlockEnd
  0
BLOCK
  5
2BA2
330
2BA1
100
AcDbEntity
  8
0
100
AcDbBlockBegin
  2
*U33
 70
     1
 10
0.0
 20
0.0
 30
0.0
  3
*U33
  1

  0
TEXT
  5
1F0D
330
2BA1
100
AcDbEntity
  8
SIZE
 62
     0
100
AcDbText
 10
274.6432844803785
 20
-224.0571428571429
 30
0.0
 40
64.0
  1
300
 50
90.0
 41
0.9
100
AcDbText
  0
ENDBLK
  5
1F0F
330
2BA1
100
AcDbEntity
  8
0
100
AcDbBlockEnd
  0
BLOCK
  5
2BA4
330
2BA3
100
AcDbEntity
  8
0
100
AcDbBlockBegin
  2
*D34
 70
     1
 10
0.0
 20
0.0
 30
0.0
  3
*D34
  1

  0
LINE
  5
167D
330
2BA3
100
AcDbEntity
  8
SIZE
 62
     0
100
AcDbLine
 10
-140.0
 20
32.46448280219375
 30
0.0
 11
-140.0
 21
136.4516878685507
 31
0.0
  0
LINE
  5
167E
330
2BA3
100
AcDbEntity
  8
SIZE
 62
     0
100
AcDbLine
 10
140.0
 20
32.46448280219375
 30
0.0
 11
140.0
 21
136.4516878685507
 31
0.0
  0
LINE
  5
167F
330
2BA3
100
AcDbEntity
  8
SIZE
 62
     0
100
AcDbLine
 10
-128.0
 20
116.4516878685508
 30
0.0
 11
128.0
 21
116.4516878685508
 31
0.0
  0
INSERT
  5
1680
330
2BA3
100
AcDbEntity
  8
SIZE
 62
     0
100
AcDbBlockReference
  2
_DOTBLANK
 10
-140.0
 20
116.4516878685508
 30
0.0
 41
12.0
 42
12.0
 43
12.0
 50
180.0
  0
INSERT
  5
1681
330
2BA3
100
AcDbEntity
  8
SIZE
 62
     0
100
AcDbBlockReference
  2
_DOTBLANK
 10
140.0
 20
116.4516878685508
 30
0.0
 41
12.0
 42
12.0
 43
12.0
  0
INSERT
  5
1682
330
2BA3
100
AcDbEntity
  8
0
100
AcDbBlockReference
  2
*U35
 10
0.0
 20
0.0
 30
0.0
  0
POINT
  5
1683
330
2BA3
100
AcDbEntity
  8
DEFPOINTS
 62
     0
100
AcDbPoint
 10
-140.0
 20
12.46448280219374
 30
0.0
  0
POINT
  5
1684
330
2BA3
100
AcDbEntity
  8
DEFPOINTS
 62
     0
100
AcDbPoint
 10
140.0
 20
12.46448280219374
 30
0.0
  0
POINT
  5
1685
330
2BA3
100
AcDbEntity
  8
DEFPOINTS
 62
     0
100
AcDbPoint
 10
140.0
 20
116.4516878685508
 30
0.0
  0
ENDBLK
  5
14BF
330
2BA3
100
AcDbEntity
  8
0
100
AcDbBlockEnd
  0
BLOCK
  5
2BA6
330
2BA5
100
AcDbEntity
  8
0
100
AcDbBlockBegin
  2
*U35
 70
     1
 10
0.0
 20
0.0
 30
0.0
  3
*U35
  1

  0
TEXT
  5
1F11
330
2BA5
100
AcDbEntity
  8
SIZE
 62
     0
100
AcDbText
 10
-74.05714285714283
 20
126.4516878685507
 30
0.0
 40
64.0
  1
280
 41
0.9
100
AcDbText
  0
ENDBLK
  5
1F13
330
2BA5
100
AcDbEntity
  8
0
100
AcDbBlockEnd
  0
BLOCK
  5
2BA8
330
2BA7
100
AcDbEntity
  8
0
100
AcDbBlockBegin
  2
*D36
 70
     1
 10
0.0
 20
0.0
 30
0.0
  3
*D36
  1

  0
LINE
  5
1686
330
2BA7
100
AcDbEntity
  8
SIZE
 62
     0
100
AcDbLine
 10
-157.5
 20
20.0
 30
0.0
 11
-157.5
 21
245.5794621189598
 31
0.0
  0
LINE
  5
1687
330
2BA7
100
AcDbEntity
  8
SIZE
 62
     0
100
AcDbLine
 10
157.5
 20
20.0
 30
0.0
 11
157.5
 21
245.5794621189598
 31
0.0
  0
LINE
  5
1688
330
2BA7
100
AcDbEntity
  8
SIZE
 62
     0
100
AcDbLine
 10
-145.5
 20
225.5794621189598
 30
0.0
 11
145.5
 21
225.5794621189598
 31
0.0
  0
INSERT
  5
1689
330
2BA7
100
AcDbEntity
  8
SIZE
 62
     0
100
AcDbBlockReference
  2
_DOTBLANK
 10
-157.5
 20
225.5794621189598
 30
0.0
 41
12.0
 42
12.0
 43
12.0
 50
180.0
  0
INSERT
  5
168A
330
2BA7
100
AcDbEntity
  8
SIZE
 62
     0
100
AcDbBlockReference
  2
_DOTBLANK
 10
157.5
 20
225.5794621189598
 30
0.0
 41
12.0
 42
12.0
 43
12.0
  0
INSERT
  5
168B
330
2BA7
100
AcDbEntity
  8
0
100
AcDbBlockReference
  2
*U37
 10
0.0
 20
0.0
 30
0.0
  0
POINT
  5
168C
330
2BA7
100
AcDbEntity
  8
DEFPOINTS
 62
     0
100
AcDbPoint
 10
-157.5
 20
0.0
 30
0.0
  0
POINT
  5
168D
330
2BA7
100
AcDbEntity
  8
DEFPOINTS
 62
     0
100
AcDbPoint
 10
157.5
 20
0.0
 30
0.0
  0
POINT
  5
168E
330
2BA7
100
AcDbEntity
  8
DEFPOINTS
 62
     0
100
AcDbPoint
 10
157.5
 20
225.5794621189598
 30
0.0
  0
ENDBLK
  5
14CB
330
2BA7
100
AcDbEntity
  8
0
100
AcDbBlockEnd
  0
BLOCK
  5
2BAA
330
2BA9
100
AcDbEntity
  8
0
100
AcDbBlockBegin
  2
*U37
 70
     1
 10
0.0
 20
0.0
 30
0.0
  3
*U37
  1

  0
TEXT
  5
1F15
330
2BA9
100
AcDbEntity
  8
SIZE
 62
     0
100
AcDbText
 10
-68.57142857142857
 20
235.5794621189598
 30
0.0
 40
64.0
  1
315
 41
0.9
100
AcDbText
  0
ENDBLK
  5
1F17
330
2BA9
100
AcDbEntity
  8
0
100
AcDbBlockEnd
  0
BLOCK
  5
2BAC
330
2BAB
100
AcDbEntity
  8
0
100
AcDbBlockBegin
  2
*U38
 70
     1
 10
0.0
 20
0.0
 30
0.0
  3
*U38
  1

  0
ENDBLK
  5
15CF
330
2BAB
100
AcDbEntity
  8
0
100
AcDbBlockEnd
  0
BLOCK
  5
2BAE
330
2BAD
100
AcDbEntity
  8
0
100
AcDbBlockBegin
  2
*D39
 70
     1
 10
0.0
 20
0.0
 30
0.0
  3
*D39
  1

  0
LINE
  5
1692
330
2BAD
100
AcDbEntity
  8
SIZE
 62
     0
100
AcDbLine
 10
-25844.51823276502
 20
7685.702971374808
 30
0.0
 11
-25981.04465488371
 21
7685.702971374808
 31
0.0
  0
LINE
  5
1693
330
2BAD
100
AcDbEntity
  8
SIZE
 62
     0
100
AcDbLine
 10
-25844.51823276502
 20
7677.702971374808
 30
0.0
 11
-25981.04465488371
 21
7677.702971374808
 31
0.0
  0
LINE
  5
1694
330
2BAD
100
AcDbEntity
  8
SIZE
 62
     0
100
AcDbLine
 10
-25961.04465488371
 20
7697.702971374808
 30
0.0
 11
-25961.04465488371
 21
7709.702971374809
 31
0.0
  0
LINE
  5
1695
330
2BAD
100
AcDbEntity
  8
SIZE
 62
     0
100
AcDbLine
 10
-25961.04465488371
 20
7665.70297137481
 30
0.0
 11
-25961.04465488371
 21
7595.302971374808
 31
0.0
  0
INSERT
  5
1696
330
2BAD
100
AcDbEntity
  8
SIZE
 62
     0
100
AcDbBlockReference
  2
_DOTBLANK
 10
-25961.04465488371
 20
7685.702971374808
 30
0.0
 41
12.0
 42
12.0
 43
12.0
 50
270.0
  0
INSERT
  5
1697
330
2BAD
100
AcDbEntity
  8
SIZE
 62
     0
100
AcDbBlockReference
  2
_DOTBLANK
 10
-25961.04465488371
 20
7677.702971374808
 30
0.0
 41
12.0
 42
12.0
 43
12.0
 50
90.0
  0
INSERT
  5
1698
330
2BAD
100
AcDbEntity
  8
0
100
AcDbBlockReference
  2
*U40
 10
0.0
 20
0.0
 30
0.0
  0
POINT
  5
1699
330
2BAD
100
AcDbEntity
  8
DEFPOINTS
 62
     0
100
AcDbPoint
 10
-25824.51823276501
 20
7685.702971374808
 30
0.0
  0
POINT
  5
169A
330
2BAD
100
AcDbEntity
  8
DEFPOINTS
 62
     0
100
AcDbPoint
 10
-25824.51823276501
 20
7677.702971374808
 30
0.0
  0
POINT
  5
169B
330
2BAD
100
AcDbEntity
  8
DEFPOINTS
 62
     0
100
AcDbPoint
 10
-25961.04465488371
 20
7677.702971374808
 30
0.0
  0
ENDBLK
  5
169C
330
2BAD
100
AcDbEntity
  8
0
100
AcDbBlockEnd
  0
BLOCK
  5
2BB0
330
2BAF
100
AcDbEntity
  8
0
100
AcDbBlockBegin
  2
*U40
 70
     1
 10
0.0
 20
0.0
 30
0.0
  3
*U40
  1

  0
TEXT
  5
1F19
330
2BAF
100
AcDbEntity
  8
SIZE
 62
     0
100
AcDbText
 10
-25971.04465488371
 20
7605.302971374804
 30
0.0
 40
64.0
  1
8
 50
90.0
 41
0.9
100
AcDbText
  0
ENDBLK
  5
1F1B
330
2BAF
100
AcDbEntity
  8
0
100
AcDbBlockEnd
  0
BLOCK
  5
2BB2
330
2BB1
100
AcDbEntity
  8
0
100
AcDbBlockBegin
  2
*D41
 70
     1
 10
0.0
 20
0.0
 30
0.0
  3
*D41
  1

  0
LINE
  5
169F
330
2BB1
100
AcDbEntity
  8
SIZE
 62
     0
100
AcDbLine
 10
-25512.51823276502
 20
7385.702971374808
 30
0.0
 11
-25362.37494828464
 21
7385.702971374808
 31
0.0
  0
LINE
  5
16A0
330
2BB1
100
AcDbEntity
  8
SIZE
 62
     0
100
AcDbLine
 10
-25523.51823276501
 20
7373.702971374808
 30
0.0
 11
-25362.37494828464
 21
7373.702971374808
 31
0.0
  0
LINE
  5
16A1
330
2BB1
100
AcDbEntity
  8
SIZE
 62
     0
100
AcDbLine
 10
-25382.37494828464
 20
7397.702971374808
 30
0.0
 11
-25382.37494828464
 21
7409.70297137481
 31
0.0
  0
LINE
  5
16A2
330
2BB1
100
AcDbEntity
  8
SIZE
 62
     0
100
AcDbLine
 10
-25382.37494828464
 20
7361.702971374808
 30
0.0
 11
-25382.37494828464
 21
7244.674399946237
 31
0.0
  0
INSERT
  5
16A3
330
2BB1
100
AcDbEntity
  8
SIZE
 62
     0
100
AcDbBlockReference
  2
_DOTBLANK
 10
-25382.37494828464
 20
7385.702971374808
 30
0.0
 41
12.0
 42
12.0
 43
12.0
 50
270.0
  0
INSERT
  5
16A4
330
2BB1
100
AcDbEntity
  8
SIZE
 62
     0
100
AcDbBlockReference
  2
_DOTBLANK
 10
-25382.37494828464
 20
7373.702971374808
 30
0.0
 41
12.0
 42
12.0
 43
12.0
 50
90.0
  0
INSERT
  5
16A5
330
2BB1
100
AcDbEntity
  8
0
100
AcDbBlockReference
  2
*U42
 10
0.0
 20
0.0
 30
0.0
  0
POINT
  5
16A6
330
2BB1
100
AcDbEntity
  8
DEFPOINTS
 62
     0
100
AcDbPoint
 10
-25532.51823276502
 20
7385.702971374808
 30
0.0
  0
POINT
  5
16A7
330
2BB1
100
AcDbEntity
  8
DEFPOINTS
 62
     0
100
AcDbPoint
 10
-25543.51823276502
 20
7373.702971374808
 30
0.0
  0
POINT
  5
16A8
330
2BB1
100
AcDbEntity
  8
DEFPOINTS
 62
     0
100
AcDbPoint
 10
-25382.37494828464
 20
7373.702971374808
 30
0.0
  0
ENDBLK
  5
16A9
330
2BB1
100
AcDbEntity
  8
0
100
AcDbBlockEnd
  0
BLOCK
  5
2BB4
330
2BB3
100
AcDbEntity
  8
0
100
AcDbBlockBegin
  2
*U42
 70
     1
 10
0.0
 20
0.0
 30
0.0
  3
*U42
  1

  0
TEXT
  5
1F1D
330
2BB3
100
AcDbEntity
  8
SIZE
 62
     0
100
AcDbText
 10
-25392.37494828464
 20
7256.045828517662
 30
0.0
 40
64.0
  1
12
 50
90.0
 41
0.9
100
AcDbText
  0
ENDBLK
  5
1F1F
330
2BB3
100
AcDbEntity
  8
0
100
AcDbBlockEnd
  0
BLOCK
  5
2BB6
330
2BB5
100
AcDbEntity
  8
0
100
AcDbBlockBegin
  2
*D43
 70
     1
 10
0.0
 20
0.0
 30
0.0
  3
*D43
  1

  0
LINE
  5
16AC
330
2BB5
100
AcDbEntity
  8
SIZE
 62
     0
100
AcDbLine
 10
-25801.51823276501
 20
7365.702971374808
 30
0.0
 11
-25801.51823276501
 21
7217.685576144207
 31
0.0
  0
LINE
  5
16AD
330
2BB5
100
AcDbEntity
  8
SIZE
 62
     0
100
AcDbLine
 10
-25532.51823276502
 20
7365.702971374808
 30
0.0
 11
-25532.51823276502
 21
7217.685576144207
 31
0.0
  0
LINE
  5
16AE
330
2BB5
100
AcDbEntity
  8
SIZE
 62
     0
100
AcDbLine
 10
-25789.51823276502
 20
7237.685576144207
 30
0.0
 11
-25544.51823276501
 21
7237.685576144207
 31
0.0
  0
INSERT
  5
16AF
330
2BB5
100
AcDbEntity
  8
SIZE
 62
     0
100
AcDbBlockReference
  2
_DOTBLANK
 10
-25801.51823276501
 20
7237.685576144207
 30
0.0
 41
12.0
 42
12.0
 43
12.0
 50
180.0
  0
INSERT
  5
16B0
330
2BB5
100
AcDbEntity
  8
SIZE
 62
     0
100
AcDbBlockReference
  2
_DOTBLANK
 10
-25532.51823276502
 20
7237.685576144207
 30
0.0
 41
12.0
 42
12.0
 43
12.0
  0
INSERT
  5
16B1
330
2BB5
100
AcDbEntity
  8
0
100
AcDbBlockReference
  2
*U44
 10
0.0
 20
0.0
 30
0.0
  0
POINT
  5
16B2
330
2BB5
100
AcDbEntity
  8
DEFPOINTS
 62
     0
100
AcDbPoint
 10
-25801.51823276501
 20
7385.702971374808
 30
0.0
  0
POINT
  5
16B3
330
2BB5
100
AcDbEntity
  8
DEFPOINTS
 62
     0
100
AcDbPoint
 10
-25532.51823276502
 20
7385.702971374808
 30
0.0
  0
POINT
  5
16B4
330
2BB5
100
AcDbEntity
  8
DEFPOINTS
 62
     0
100
AcDbPoint
 10
-25532.51823276502
 20
7237.685576144207
 30
0.0
  0
ENDBLK
  5
16B5
330
2BB5
100
AcDbEntity
  8
0
100
AcDbBlockEnd
  0
BLOCK
  5
2BB8
330
2BB7
100
AcDbEntity
  8
0
100
AcDbBlockBegin
  2
*U44
 70
     1
 10
0.0
 20
0.0
 30
0.0
  3
*U44
  1

  0
TEXT
  5
1F21
330
2BB7
100
AcDbEntity
  8
SIZE
 62
     0
100
AcDbText
 10
-25739.70394705074
 20
7247.685576144205
 30
0.0
 40
64.0
  1
269
 41
0.9
100
AcDbText
  0
ENDBLK
  5
1F23
330
2BB7
100
AcDbEntity
  8
0
100
AcDbBlockEnd
  0
BLOCK
  5
2BBA
330
2BB9
100
AcDbEntity
  8
0
100
AcDbBlockBegin
  2
*D45
 70
     1
 10
0.0
 20
0.0
 30
0.0
  3
*D45
  1

  0
LINE
  5
16B8
330
2BB9
100
AcDbEntity
  8
SIZE
 62
     0
100
AcDbLine
 10
-25512.51823276502
 20
7385.702971374808
 30
0.0
 11
-25362.37494828464
 21
7385.702971374808
 31
0.0
  0
LINE
  5
16B9
330
2BB9
100
AcDbEntity
  8
SIZE
 62
     0
100
AcDbLine
 10
-25489.51823276501
 20
7685.702971374808
 30
0.0
 11
-25362.37494828464
 21
7685.702971374808
 31
0.0
  0
LINE
  5
16BA
330
2BB9
100
AcDbEntity
  8
SIZE
 62
     0
100
AcDbLine
 10
-25382.37494828464
 20
7397.702971374808
 30
0.0
 11
-25382.37494828464
 21
7673.702971374808
 31
0.0
  0
INSERT
  5
16BB
330
2BB9
100
AcDbEntity
  8
SIZE
 62
     0
100
AcDbBlockReference
  2
_DOTBLANK
 10
-25382.37494828464
 20
7385.702971374808
 30
0.0
 41
12.0
 42
12.0
 43
12.0
 50
270.0
  0
INSERT
  5
16BC
330
2BB9
100
AcDbEntity
  8
SIZE
 62
     0
100
AcDbBlockReference
  2
_DOTBLANK
 10
-25382.37494828464
 20
7685.702971374808
 30
0.0
 41
12.0
 42
12.0
 43
12.0
 50
90.0
  0
INSERT
  5
16BD
330
2BB9
100
AcDbEntity
  8
0
100
AcDbBlockReference
  2
*U46
 10
0.0
 20
0.0
 30
0.0
  0
POINT
  5
16BE
330
2BB9
100
AcDbEntity
  8
DEFPOINTS
 62
     0
100
AcDbPoint
 10
-25532.51823276502
 20
7385.702971374808
 30
0.0
  0
POINT
  5
16BF
330
2BB9
100
AcDbEntity
  8
DEFPOINTS
 62
     0
100
AcDbPoint
 10
-25509.51823276502
 20
7685.702971374808
 30
0.0
  0
POINT
  5
16C0
330
2BB9
100
AcDbEntity
  8
DEFPOINTS
 62
     0
100
AcDbPoint
 10
-25382.37494828464
 20
7685.702971374808
 30
0.0
  0
ENDBLK
  5
16C1
330
2BB9
100
AcDbEntity
  8
0
100
AcDbBlockEnd
  0
BLOCK
  5
2BBC
330
2BBB
100
AcDbEntity
  8
0
100
AcDbBlockBegin
  2
*U46
 70
     1
 10
0.0
 20
0.0
 30
0.0
  3
*U46
  1

  0
TEXT
  5
1F25
330
2BBB
100
AcDbEntity
  8
SIZE
 62
     0
100
AcDbText
 10
-25392.37494828464
 20
7461.645828517662
 30
0.0
 40
64.0
  1
300
 50
90.0
 41
0.9
100
AcDbText
  0
ENDBLK
  5
1F27
330
2BBB
100
AcDbEntity
  8
0
100
AcDbBlockEnd
  0
BLOCK
  5
2BBE
330
2BBD
100
AcDbEntity
  8
0
100
AcDbBlockBegin
  2
*D47
 70
     1
 10
0.0
 20
0.0
 30
0.0
  3
*D47
  1

  0
LINE
  5
16C4
330
2BBD
100
AcDbEntity
  8
SIZE
 62
     0
100
AcDbLine
 10
-25807.01823276501
 20
7718.167454177002
 30
0.0
 11
-25807.01823276501
 21
7822.154659243358
 31
0.0
  0
LINE
  5
16C5
330
2BBD
100
AcDbEntity
  8
SIZE
 62
     0
100
AcDbLine
 10
-25527.01823276501
 20
7718.167454177002
 30
0.0
 11
-25527.01823276501
 21
7822.154659243358
 31
0.0
  0
LINE
  5
16C6
330
2BBD
100
AcDbEntity
  8
SIZE
 62
     0
100
AcDbLine
 10
-25795.01823276502
 20
7802.154659243358
 30
0.0
 11
-25539.01823276501
 21
7802.154659243358
 31
0.0
  0
INSERT
  5
16C7
330
2BBD
100
AcDbEntity
  8
SIZE
 62
     0
100
AcDbBlockReference
  2
_DOTBLANK
 10
-25807.01823276501
 20
7802.154659243358
 30
0.0
 41
12.0
 42
12.0
 43
12.0
 50
180.0
  0
INSERT
  5
16C8
330
2BBD
100
AcDbEntity
  8
SIZE
 62
     0
100
AcDbBlockReference
  2
_DOTBLANK
 10
-25527.01823276501
 20
7802.154659243358
 30
0.0
 41
12.0
 42
12.0
 43
12.0
  0
INSERT
  5
16C9
330
2BBD
100
AcDbEntity
  8
0
100
AcDbBlockReference
  2
*U48
 10
0.0
 20
0.0
 30
0.0
  0
POINT
  5
16CA
330
2BBD
100
AcDbEntity
  8
DEFPOINTS
 62
     0
100
AcDbPoint
 10
-25807.01823276501
 20
7698.167454177002
 30
0.0
  0
POINT
  5
16CB
330
2BBD
100
AcDbEntity
  8
DEFPOINTS
 62
     0
100
AcDbPoint
 10
-25527.01823276501
 20
7698.167454177002
 30
0.0
  0
POINT
  5
16CC
330
2BBD
100
AcDbEntity
  8
DEFPOINTS
 62
     0
100
AcDbPoint
 10
-25527.01823276501
 20
7802.154659243358
 30
0.0
  0
ENDBLK
  5
16CD
330
2BBD
100
AcDbEntity
  8
0
100
AcDbBlockEnd
  0
BLOCK
  5
2BC0
330
2BBF
100
AcDbEntity
  8
0
100
AcDbBlockBegin
  2
*U48
 70
     1
 10
0.0
 20
0.0
 30
0.0
  3
*U48
  1

  0
TEXT
  5
1F29
330
2BBF
100
AcDbEntity
  8
SIZE
 62
     0
100
AcDbText
 10
-25741.07537562216
 20
7812.154659243358
 30
0.0
 40
64.0
  1
280
 41
0.9
100
AcDbText
  0
ENDBLK
  5
1F2B
330
2BBF
100
AcDbEntity
  8
0
100
AcDbBlockEnd
  0
BLOCK
  5
2BC2
330
2BC1
100
AcDbEntity
  8
0
100
AcDbBlockBegin
  2
*D49
 70
     1
 10
0.0
 20
0.0
 30
0.0
  3
*D49
  1

  0
LINE
  5
16D0
330
2BC1
100
AcDbEntity
  8
SIZE
 62
     0
100
AcDbLine
 10
-25824.51823276501
 20
7705.702971374808
 30
0.0
 11
-25824.51823276501
 21
7931.282433493766
 31
0.0
  0
LINE
  5
16D1
330
2BC1
100
AcDbEntity
  8
SIZE
 62
     0
100
AcDbLine
 10
-25509.51823276502
 20
7705.702971374808
 30
0.0
 11
-25509.51823276502
 21
7931.282433493766
 31
0.0
  0
LINE
  5
16D2
330
2BC1
100
AcDbEntity
  8
SIZE
 62
     0
100
AcDbLine
 10
-25812.51823276502
 20
7911.282433493766
 30
0.0
 11
-25521.51823276501
 21
7911.282433493766
 31
0.0
  0
INSERT
  5
16D3
330
2BC1
100
AcDbEntity
  8
SIZE
 62
     0
100
AcDbBlockReference
  2
_DOTBLANK
 10
-25824.51823276501
 20
7911.282433493766
 30
0.0
 41
12.0
 42
12.0
 43
12.0
 50
180.0
  0
INSERT
  5
16D4
330
2BC1
100
AcDbEntity
  8
SIZE
 62
     0
100
AcDbBlockReference
  2
_DOTBLANK
 10
-25509.51823276502
 20
7911.282433493766
 30
0.0
 41
12.0
 42
12.0
 43
12.0
  0
INSERT
  5
16D5
330
2BC1
100
AcDbEntity
  8
0
100
AcDbBlockReference
  2
*U50
 10
0.0
 20
0.0
 30
0.0
  0
POINT
  5
16D6
330
2BC1
100
AcDbEntity
  8
DEFPOINTS
 62
     0
100
AcDbPoint
 10
-25824.51823276501
 20
7685.702971374808
 30
0.0
  0
POINT
  5
16D7
330
2BC1
100
AcDbEntity
  8
DEFPOINTS
 62
     0
100
AcDbPoint
 10
-25509.51823276502
 20
7685.702971374808
 30
0.0
  0
POINT
  5
16D8
330
2BC1
100
AcDbEntity
  8
DEFPOINTS
 62
     0
100
AcDbPoint
 10
-25509.51823276502
 20
7911.282433493766
 30
0.0
  0
ENDBLK
  5
16D9
330
2BC1
100
AcDbEntity
  8
0
100
AcDbBlockEnd
  0
BLOCK
  5
2BC4
330
2BC3
100
AcDbEntity
  8
0
100
AcDbBlockBegin
  2
*U50
 70
     1
 10
0.0
 20
0.0
 30
0.0
  3
*U50
  1

  0
TEXT
  5
1F2D
330
2BC3
100
AcDbEntity
  8
SIZE
 62
     0
100
AcDbText
 10
-25735.58966133645
 20
7921.282433493766
 30
0.0
 40
64.0
  1
315
 41
0.9
100
AcDbText
  0
ENDBLK
  5
1F2F
330
2BC3
100
AcDbEntity
  8
0
100
AcDbBlockEnd
  0
BLOCK
  5
2BC6
330
2BC5
100
AcDbEntity
  8
0
100
AcDbBlockBegin
  2
*D51
 70
     1
 10
0.0
 20
0.0
 30
0.0
  3
*D51
  1

  0
LINE
  5
1D83
330
2BC5
100
AcDbEntity
  8
SIZE
 62
     0
100
AcDbLine
 10
-134.5
 20
-320.0
 30
0.0
 11
-134.5
 21
-468.0173952306001
 31
0.0
  0
LINE
  5
1D84
330
2BC5
100
AcDbEntity
  8
SIZE
 62
     0
100
AcDbLine
 10
134.5
 20
-320.0
 30
0.0
 11
134.5
 21
-468.0173952306001
 31
0.0
  0
LINE
  5
1D85
330
2BC5
100
AcDbEntity
  8
SIZE
 62
     0
100
AcDbLine
 10
-122.5
 20
-448.0173952306
 30
0.0
 11
122.5
 21
-448.0173952306
 31
0.0
  0
INSERT
  5
1D86
330
2BC5
100
AcDbEntity
  8
SIZE
 62
     0
100
AcDbBlockReference
  2
_DOTBLANK
 10
-134.5
 20
-448.0173952306
 30
0.0
 41
12.0
 42
12.0
 43
12.0
 50
180.0
  0
INSERT
  5
1D87
330
2BC5
100
AcDbEntity
  8
SIZE
 62
     0
100
AcDbBlockReference
  2
_DOTBLANK
 10
134.5
 20
-448.0173952306
 30
0.0
 41
12.0
 42
12.0
 43
12.0
  0
INSERT
  5
1D88
330
2BC5
100
AcDbEntity
  8
0
100
AcDbBlockReference
  2
*U52
 10
0.0
 20
0.0
 30
0.0
  0
POINT
  5
1D89
330
2BC5
100
AcDbEntity
  8
DEFPOINTS
 62
     0
100
AcDbPoint
 10
-134.5
 20
-300.0
 30
0.0
  0
POINT
  5
1D8A
330
2BC5
100
AcDbEntity
  8
DEFPOINTS
 62
     0
100
AcDbPoint
 10
134.5
 20
-300.0
 30
0.0
  0
POINT
  5
1D8B
330
2BC5
100
AcDbEntity
  8
DEFPOINTS
 62
     0
100
AcDbPoint
 10
134.5
 20
-448.0173952306
 30
0.0
  0
ENDBLK
  5
173D
330
2BC5
100
AcDbEntity
  8
0
100
AcDbBlockEnd
  0
BLOCK
  5
2BC8
330
2BC7
100
AcDbEntity
  8
0
100
AcDbBlockBegin
  2
*U52
 70
     1
 10
0.0
 20
0.0
 30
0.0
  3
*U52
  1

  0
TEXT
  5
1F31
330
2BC7
100
AcDbEntity
  8
SIZE
 62
     0
100
AcDbText
 10
-72.68571428571426
 20
-438.0173952306003
 30
0.0
 40
64.0
  1
269
 41
0.9
100
AcDbText
  0
ENDBLK
  5
1F33
330
2BC7
100
AcDbEntity
  8
0
100
AcDbBlockEnd
  0
BLOCK
  5
2BCA
330
2BC9
100
AcDbEntity
  8
0
100
AcDbBlockBegin
  2
*D53
 70
     1
 10
0.0
 20
0.0
 30
0.0
  3
*D53
  1

  0
LINE
  5
1D8C
330
2BC9
100
AcDbEntity
  8
SIZE
 62
     0
100
AcDbLine
 10
154.5
 20
-300.0
 30
0.0
 11
304.6432844803784
 21
-300.0
 31
0.0
  0
LINE
  5
1D8D
330
2BC9
100
AcDbEntity
  8
SIZE
 62
     0
100
AcDbLine
 10
177.5
 20
-0.0000000000000057
 30
0.0
 11
304.6432844803785
 21
-0.0000000000000417
 31
0.0
  0
LINE
  5
1D8E
330
2BC9
100
AcDbEntity
  8
SIZE
 62
     0
100
AcDbLine
 10
284.6432844803784
 20
-288.0
 30
0.0
 11
284.6432844803785
 21
-12.00000000000003
 31
0.0
  0
INSERT
  5
1D8F
330
2BC9
100
AcDbEntity
  8
SIZE
 62
     0
100
AcDbBlockReference
  2
_DOTBLANK
 10
284.6432844803784
 20
-300.0
 30
0.0
 41
12.0
 42
12.0
 43
12.0
 50
270.0
  0
INSERT
  5
1D90
330
2BC9
100
AcDbEntity
  8
SIZE
 62
     0
100
AcDbBlockReference
  2
_DOTBLANK
 10
284.6432844803785
 20
-0.000000000000036
 30
0.0
 41
12.0
 42
12.0
 43
12.0
 50
90.0
  0
INSERT
  5
1D91
330
2BC9
100
AcDbEntity
  8
0
100
AcDbBlockReference
  2
*U54
 10
0.0
 20
0.0
 30
0.0
  0
POINT
  5
1D92
330
2BC9
100
AcDbEntity
  8
DEFPOINTS
 62
     0
100
AcDbPoint
 10
134.5
 20
-300.0
 30
0.0
  0
POINT
  5
1D93
330
2BC9
100
AcDbEntity
  8
DEFPOINTS
 62
     0
100
AcDbPoint
 10
157.5
 20
0.0
 30
0.0
  0
POINT
  5
1D94
330
2BC9
100
AcDbEntity
  8
DEFPOINTS
 62
     0
100
AcDbPoint
 10
284.6432844803785
 20
-0.000000000000036
 30
0.0
  0
ENDBLK
  5
1749
330
2BC9
100
AcDbEntity
  8
0
100
AcDbBlockEnd
  0
BLOCK
  5
2BCC
330
2BCB
100
AcDbEntity
  8
0
100
AcDbBlockBegin
  2
*U54
 70
     1
 10
0.0
 20
0.0
 30
0.0
  3
*U54
  1

  0
TEXT
  5
1F35
330
2BCB
100
AcDbEntity
  8
SIZE
 62
     0
100
AcDbText
 10
274.6432844803785
 20
-224.0571428571429
 30
0.0
 40
64.0
  1
300
 50
90.0
 41
0.9
100
AcDbText
  0
ENDBLK
  5
1F37
330
2BCB
100
AcDbEntity
  8
0
100
AcDbBlockEnd
  0
BLOCK
  5
2BCE
330
2BCD
100
AcDbEntity
  8
0
100
AcDbBlockBegin
  2
*D55
 70
     1
 10
0.0
 20
0.0
 30
0.0
  3
*D55
  1

  0
LINE
  5
1D95
330
2BCD
100
AcDbEntity
  8
SIZE
 62
     0
100
AcDbLine
 10
-140.0
 20
32.46448280219375
 30
0.0
 11
-140.0
 21
136.4516878685508
 31
0.0
  0
LINE
  5
1D96
330
2BCD
100
AcDbEntity
  8
SIZE
 62
     0
100
AcDbLine
 10
140.0
 20
32.46448280219375
 30
0.0
 11
140.0
 21
136.4516878685508
 31
0.0
  0
LINE
  5
1D97
330
2BCD
100
AcDbEntity
  8
SIZE
 62
     0
100
AcDbLine
 10
-128.0
 20
116.4516878685508
 30
0.0
 11
128.0
 21
116.4516878685508
 31
0.0
  0
INSERT
  5
1D98
330
2BCD
100
AcDbEntity
  8
SIZE
 62
     0
100
AcDbBlockReference
  2
_DOTBLANK
 10
-140.0
 20
116.4516878685508
 30
0.0
 41
12.0
 42
12.0
 43
12.0
 50
180.0
  0
INSERT
  5
1D99
330
2BCD
100
AcDbEntity
  8
SIZE
 62
     0
100
AcDbBlockReference
  2
_DOTBLANK
 10
140.0
 20
116.4516878685508
 30
0.0
 41
12.0
 42
12.0
 43
12.0
  0
INSERT
  5
1D9A
330
2BCD
100
AcDbEntity
  8
0
100
AcDbBlockReference
  2
*U56
 10
0.0
 20
0.0
 30
0.0
  0
POINT
  5
1D9B
330
2BCD
100
AcDbEntity
  8
DEFPOINTS
 62
     0
100
AcDbPoint
 10
-140.0
 20
12.46448280219374
 30
0.0
  0
POINT
  5
1D9C
330
2BCD
100
AcDbEntity
  8
DEFPOINTS
 62
     0
100
AcDbPoint
 10
140.0
 20
12.46448280219374
 30
0.0
  0
POINT
  5
1D9D
330
2BCD
100
AcDbEntity
  8
DEFPOINTS
 62
     0
100
AcDbPoint
 10
140.0
 20
116.4516878685508
 30
0.0
  0
ENDBLK
  5
1755
330
2BCD
100
AcDbEntity
  8
0
100
AcDbBlockEnd
  0
BLOCK
  5
2BD0
330
2BCF
100
AcDbEntity
  8
0
100
AcDbBlockBegin
  2
*U56
 70
     1
 10
0.0
 20
0.0
 30
0.0
  3
*U56
  1

  0
TEXT
  5
1F39
330
2BCF
100
AcDbEntity
  8
SIZE
 62
     0
100
AcDbText
 10
-74.05714285714283
 20
126.4516878685508
 30
0.0
 40
64.0
  1
280
 41
0.9
100
AcDbText
  0
ENDBLK
  5
1F3B
330
2BCF
100
AcDbEntity
  8
0
100
AcDbBlockEnd
  0
BLOCK
  5
2BD2
330
2BD1
100
AcDbEntity
  8
0
100
AcDbBlockBegin
  2
*D57
 70
     1
 10
0.0
 20
0.0
 30
0.0
  3
*D57
  1

  0
LINE
  5
1D9E
330
2BD1
100
AcDbEntity
  8
SIZE
 62
     0
100
AcDbLine
 10
-157.5
 20
20.0
 30
0.0
 11
-157.5
 21
245.5794621189598
 31
0.0
  0
LINE
  5
1D9F
330
2BD1
100
AcDbEntity
  8
SIZE
 62
     0
100
AcDbLine
 10
157.5
 20
20.0
 30
0.0
 11
157.5
 21
245.5794621189598
 31
0.0
  0
LINE
  5
1DA0
330
2BD1
100
AcDbEntity
  8
SIZE
 62
     0
100
AcDbLine
 10
-145.5
 20
225.5794621189598
 30
0.0
 11
145.5
 21
225.5794621189598
 31
0.0
  0
INSERT
  5
1DA1
330
2BD1
100
AcDbEntity
  8
SIZE
 62
     0
100
AcDbBlockReference
  2
_DOTBLANK
 10
-157.5
 20
225.5794621189598
 30
0.0
 41
12.0
 42
12.0
 43
12.0
 50
180.0
  0
INSERT
  5
1DA2
330
2BD1
100
AcDbEntity
  8
SIZE
 62
     0
100
AcDbBlockReference
  2
_DOTBLANK
 10
157.5
 20
225.5794621189598
 30
0.0
 41
12.0
 42
12.0
 43
12.0
  0
INSERT
  5
1DA3
330
2BD1
100
AcDbEntity
  8
0
100
AcDbBlockReference
  2
*U58
 10
0.0
 20
0.0
 30
0.0
  0
POINT
  5
1DA4
330
2BD1
100
AcDbEntity
  8
DEFPOINTS
 62
     0
100
AcDbPoint
 10
-157.5
 20
0.0
 30
0.0
  0
POINT
  5
1DA5
330
2BD1
100
AcDbEntity
  8
DEFPOINTS
 62
     0
100
AcDbPoint
 10
157.5
 20
0.0
 30
0.0
  0
POINT
  5
1DA6
330
2BD1
100
AcDbEntity
  8
DEFPOINTS
 62
     0
100
AcDbPoint
 10
157.5
 20
225.5794621189598
 30
0.0
  0
ENDBLK
  5
1761
330
2BD1
100
AcDbEntity
  8
0
100
AcDbBlockEnd
  0
BLOCK
  5
2BD4
330
2BD3
100
AcDbEntity
  8
0
100
AcDbBlockBegin
  2
*U58
 70
     1
 10
0.0
 20
0.0
 30
0.0
  3
*U58
  1

  0
TEXT
  5
1F3D
330
2BD3
100
AcDbEntity
  8
SIZE
 62
     0
100
AcDbText
 10
-68.57142857142857
 20
235.5794621189599
 30
0.0
 40
64.0
  1
315
 41
0.9
100
AcDbText
  0
ENDBLK
  5
1F3F
330
2BD3
100
AcDbEntity
  8
0
100
AcDbBlockEnd
  0
BLOCK
  5
2BD6
330
2BD5
100
AcDbEntity
  8
0
100
AcDbBlockBegin
  2
*D59
 70
     1
 10
0.0
 20
0.0
 30
0.0
  3
*D59
  1

  0
LINE
  5
1DA7
330
2BD5
100
AcDbEntity
  8
SIZE
 62
     0
100
AcDbLine
 10
-177.5
 20
0.0000000000000057
 30
0.0
 11
-314.0264221186908
 21
0.0000000000000443
 31
0.0
  0
LINE
  5
1DA8
330
2BD5
100
AcDbEntity
  8
SIZE
 62
     0
100
AcDbLine
 10
-177.5
 20
-7.999999999999993
 30
0.0
 11
-314.0264221186908
 21
-7.999999999999958
 31
0.0
  0
LINE
  5
1DA9
330
2BD5
100
AcDbEntity
  8
SIZE
 62
     0
100
AcDbLine
 10
-294.0264221186908
 20
12.00000000000003
 30
0.0
 11
-294.0264221186908
 21
24.00000000000004
 31
0.0
  0
LINE
  5
1DAA
330
2BD5
100
AcDbEntity
  8
SIZE
 62
     0
100
AcDbLine
 10
-294.0264221186908
 20
-19.99999999999996
 30
0.0
 11
-294.0264221186908
 21
-90.39999999999997
 31
0.0
  0
INSERT
  5
1DAB
330
2BD5
100
AcDbEntity
  8
SIZE
 62
     0
100
AcDbBlockReference
  2
_DOTBLANK
 10
-294.0264221186908
 20
0.0000000000000387
 30
0.0
 41
12.0
 42
12.0
 43
12.0
 50
270.0
  0
INSERT
  5
1DAC
330
2BD5
100
AcDbEntity
  8
SIZE
 62
     0
100
AcDbBlockReference
  2
_DOTBLANK
 10
-294.0264221186908
 20
-7.999999999999961
 30
0.0
 41
12.0
 42
12.0
 43
12.0
 50
90.0
  0
INSERT
  5
1DAD
330
2BD5
100
AcDbEntity
  8
0
100
AcDbBlockReference
  2
*U60
 10
0.0
 20
0.0
 30
0.0
  0
POINT
  5
1DAE
330
2BD5
100
AcDbEntity
  8
DEFPOINTS
 62
     0
100
AcDbPoint
 10
-157.5
 20
0.0
 30
0.0
  0
POINT
  5
1DAF
330
2BD5
100
AcDbEntity
  8
DEFPOINTS
 62
     0
100
AcDbPoint
 10
-157.5
 20
-8.000000000000003
 30
0.0
  0
POINT
  5
1DB0
330
2BD5
100
AcDbEntity
  8
DEFPOINTS
 62
     0
100
AcDbPoint
 10
-294.0264221186908
 20
-7.999999999999961
 30
0.0
  0
ENDBLK
  5
176D
330
2BD5
100
AcDbEntity
  8
0
100
AcDbBlockEnd
  0
BLOCK
  5
2BD8
330
2BD7
100
AcDbEntity
  8
0
100
AcDbBlockBegin
  2
*U60
 70
     1
 10
0.0
 20
0.0
 30
0.0
  3
*U60
  1

  0
TEXT
  5
1F41
330
2BD7
100
AcDbEntity
  8
SIZE
 62
     0
100
AcDbText
 10
-304.0264221186908
 20
-80.4
 30
0.0
 40
64.0
  1
8
 50
90.0
 41
0.9
100
AcDbText
  0
ENDBLK
  5
1F43
330
2BD7
100
AcDbEntity
  8
0
100
AcDbBlockEnd
  0
BLOCK
  5
2BDA
330
2BD9
100
AcDbEntity
  8
0
100
AcDbBlockBegin
  2
*D61
 70
     1
 10
0.0
 20
0.0
 30
0.0
  3
*D61
  1

  0
LINE
  5
1DB1
330
2BD9
100
AcDbEntity
  8
SIZE
 62
     0
100
AcDbLine
 10
154.5
 20
-300.0
 30
0.0
 11
304.6432844803785
 21
-300.0
 31
0.0
  0
LINE
  5
1DB2
330
2BD9
100
AcDbEntity
  8
SIZE
 62
     0
100
AcDbLine
 10
143.5
 20
-312.0
 30
0.0
 11
304.6432844803785
 21
-312.0
 31
0.0
  0
LINE
  5
1DB3
330
2BD9
100
AcDbEntity
  8
SIZE
 62
     0
100
AcDbLine
 10
284.6432844803785
 20
-288.0
 30
0.0
 11
284.6432844803785
 21
-276.0
 31
0.0
  0
LINE
  5
1DB4
330
2BD9
100
AcDbEntity
  8
SIZE
 62
     0
100
AcDbLine
 10
284.6432844803785
 20
-324.0000000000001
 30
0.0
 11
284.6432844803784
 21
-438.2857142857143
 31
0.0
  0
INSERT
  5
1DB5
330
2BD9
100
AcDbEntity
  8
SIZE
 62
     0
100
AcDbBlockReference
  2
_DOTBLANK
 10
284.6432844803785
 20
-300.0
 30
0.0
 41
12.0
 42
12.0
 43
12.0
 50
270.0
  0
INSERT
  5
1DB6
330
2BD9
100
AcDbEntity
  8
SIZE
 62
     0
100
AcDbBlockReference
  2
_DOTBLANK
 10
284.6432844803785
 20
-312.0
 30
0.0
 41
12.0
 42
12.0
 43
12.0
 50
90.0
  0
INSERT
  5
1DB7
330
2BD9
100
AcDbEntity
  8
0
100
AcDbBlockReference
  2
*U62
 10
0.0
 20
0.0
 30
0.0
  0
POINT
  5
1DB8
330
2BD9
100
AcDbEntity
  8
DEFPOINTS
 62
     0
100
AcDbPoint
 10
134.5
 20
-300.0
 30
0.0
  0
POINT
  5
1DB9
330
2BD9
100
AcDbEntity
  8
DEFPOINTS
 62
     0
100
AcDbPoint
 10
123.5
 20
-312.0
 30
0.0
  0
POINT
  5
1DBA
330
2BD9
100
AcDbEntity
  8
DEFPOINTS
 62
     0
100
AcDbPoint
 10
284.6432844803785
 20
-312.0
 30
0.0
  0
ENDBLK
  5
177B
330
2BD9
100
AcDbEntity
  8
0
100
AcDbBlockEnd
  0
BLOCK
  5
2BDC
330
2BDB
100
AcDbEntity
  8
0
100
AcDbBlockBegin
  2
*U62
 70
     1
 10
0.0
 20
0.0
 30
0.0
  3
*U62
  1

  0
TEXT
  5
1F45
330
2BDB
100
AcDbEntity
  8
SIZE
 62
     0
100
AcDbText
 10
274.6432844803785
 20
-428.2857142857142
 30
0.0
 40
64.0
  1
12
 50
90.0
 41
0.9
100
AcDbText
  0
ENDBLK
  5
1F47
330
2BDB
100
AcDbEntity
  8
0
100
AcDbBlockEnd
  0
BLOCK
  5
2BDE
330
2BDD
100
AcDbEntity
  8
0
100
AcDbBlockBegin
  2
*U63
 70
     1
 10
0.0
 20
0.0
 30
0.0
  3
*U63
  1

  0
ENDBLK
  5
1D57
330
2BDD
100
AcDbEntity
  8
0
100
AcDbBlockEnd
  0
BLOCK
  5
2BE0
330
2BDF
100
AcDbEntity
  8
0
100
AcDbBlockBegin
  2
*U64
 70
     1
 10
0.0
 20
0.0
 30
0.0
  3
*U64
  1

  0
INSERT
  5
2088
330
2BDF
100
AcDbEntity
  8
NOTE
100
AcDbBlockReference
  2
_OPEN30
 10
-140.0
 20
0.0
 30
0.0
 41
12.0
 42
12.0
 43
12.0
 50
312.6090116116894
  0
POLYLINE
  5
2089
330
2BDF
100
AcDbEntity
  8
NOTE
100
AcDb2dPolyline
 66
     1
 10
0.0
 20
0.0
 30
0.0
  0
VERTEX
  5
2124
330
2089
100
AcDbEntity
  8
NOTE
100
AcDbVertex
100
AcDb2dVertex
 10
-148.1239008361894
 20
8.831887408915472
 30
0.0
  0
VERTEX
  5
2125
330
2089
100
AcDbEntity
  8
NOTE
100
AcDbVertex
100
AcDb2dVertex
 10
-227.8693999922543
 20
95.52709505801338
 30
0.0
  0
VERTEX
  5
2126
330
2089
100
AcDbEntity
  8
NOTE
100
AcDbVertex
100
AcDb2dVertex
 10
-773.7093999922541
 20
95.52709505801338
 30
0.0
  0
SEQEND
  5
2127
330
2089
100
AcDbEntity
  8
NOTE
  0
ENDBLK
  5
208A
330
2BDF
100
AcDbEntity
  8
0
100
AcDbBlockEnd
  0
BLOCK
  5
2BE2
330
2BE1
100
AcDbEntity
  8
0
100
AcDbBlockBegin
  2
*U65
 70
     1
 10
0.0
 20
0.0
 30
0.0
  3
*U65
  1

  0
TEXT
  5
208D
330
2BE1
100
AcDbEntity
  8
NOTE
100
AcDbText
 10
-773.7093999922541
 20
113.5270950580134
 30
0.0
 40
64.0
  1
4×φ10取付穴
 41
0.9
100
AcDbText
  0
ENDBLK
  5
208E
330
2BE1
100
AcDbEntity
  8
0
100
AcDbBlockEnd
  0
BLOCK
  5
2BE4
330
2BE3
100
AcDbEntity
  8
0
100
AcDbBlockBegin
  2
*U66
 70
     1
 10
0.0
 20
0.0
 30
0.0
  3
*U66
  1

  0
INSERT
  5
25A0
330
2BE3
100
AcDbEntity
  8
NOTE
100
AcDbBlockReference
  2
_OPEN30
 10
-450.0
 20
0.0
 30
0.0
 41
12.0
 42
12.0
 43
12.0
 50
312.6090116116889
  0
POLYLINE
  5
25A1
330
2BE3
100
AcDbEntity
  8
NOTE
100
AcDb2dPolyline
 66
     1
 10
0.0
 20
0.0
 30
0.0
  0
VERTEX
  5
25A2
330
25A1
100
AcDbEntity
  8
NOTE
100
AcDbVertex
100
AcDb2dVertex
 10
-458.1239008361894
 20
8.831887408915555
 30
0.0
  0
VERTEX
  5
25A3
330
25A1
100
AcDbEntity
  8
NOTE
100
AcDbVertex
100
AcDb2dVertex
 10
-537.8693999922525
 20
95.52709505801338
 30
0.0
  0
VERTEX
  5
25A4
330
25A1
100
AcDbEntity
  8
NOTE
100
AcDbVertex
100
AcDb2dVertex
 10
-1127.595114277967
 20
95.52709505801338
 30
0.0
  0
SEQEND
  5
25A5
330
25A1
100
AcDbEntity
  8
NOTE
  0
ENDBLK
  5
25A6
330
2BE3
100
AcDbEntity
  8
0
100
AcDbBlockEnd
  0
BLOCK
  5
2BE6
330
2BE5
100
AcDbEntity
  8
0
100
AcDbBlockBegin
  2
*U67
 70
     1
 10
0.0
 20
0.0
 30
0.0
  3
*U67
  1

  0
TEXT
  5
25A9
330
2BE5
100
AcDbEntity
  8
NOTE
100
AcDbText
 10
-1127.595114277967
 20
113.5270950580134
 30
0.0
 40
64.0
  1
16×φ15取付穴
 41
0.9
100
AcDbText
  0
ENDBLK
  5
25AA
330
2BE5
100
AcDbEntity
  8
0
100
AcDbBlockEnd
  0
BLOCK
  5
2BE8
330
2BE7
100
AcDbEntity
  8
0
100
AcDbBlockBegin
  2
*X68
 70
     1
 10
0.0
 20
0.0
 30
0.0
  3
*X68
  1

  0
LINE
  5
25AD
330
2BE7
100
AcDbEntity
  8
0
 62
     0
100
AcDbLine
 10
410.5804404953742
 20
-771.0000000000016
 30
0.0
 11
411.4999999999945
 21
-770.3869618956668
 31
0.0
  0
LINE
  5
25AE
330
2BE7
100
AcDbEntity
  8
0
 62
     0
100
AcDbLine
 10
406.0804792014876
 20
-771.0000000000027
 30
0.0
 11
411.4999999999927
 21
-767.3869953602507
 31
0.0
  0
LINE
  5
25AF
330
2BE7
100
AcDbEntity
  8
0
 62
     0
100
AcDbLine
 10
401.5805179076031
 20
-771.0000000000016
 30
0.0
 11
411.4999999999945
 21
-764.3870288248364
 31
0.0
  0
LINE
  5
25B0
330
2BE7
100
AcDbEntity
  8
0
 62
     0
100
AcDbLine
 10
397.0805566137169
 20
-771.0000000000027
 30
0.0
 11
411.4999999999927
 21
-761.3870622894202
 31
0.0
  0
LINE
  5
25B1
330
2BE7
100
AcDbEntity
  8
0
 62
     0
100
AcDbLine
 10
392.5805953198324
 20
-771.0000000000016
 30
0.0
 11
411.4999999999945
 21
-758.387095754004
 31
0.0
  0
LINE
  5
25B2
330
2BE7
100
AcDbEntity
  8
0
 62
     0
100
AcDbLine
 10
388.080634025946
 20
-771.0000000000016
 30
0.0
 11
411.4999999999927
 21
-755.3871292185864
 31
0.0
  0
LINE
  5
25B3
330
2BE7
100
AcDbEntity
  8
0
 62
     0
100
AcDbLine
 10
383.5806727320614
 20
-771.0000000000016
 30
0.0
 11
411.4999999999945
 21
-752.3871626831716
 31
0.0
  0
LINE
  5
25B4
330
2BE7
100
AcDbEntity
  8
0
 62
     0
100
AcDbLine
 10
379.0807114381769
 20
-771.0000000000016
 30
0.0
 11
411.4999999999945
 21
-749.3871961477542
 31
0.0
  0
LINE
  5
25B5
330
2BE7
100
AcDbEntity
  8
0
 62
     0
100
AcDbLine
 10
374.5807501442905
 20
-771.0000000000004
 30
0.0
 11
411.4999999999945
 21
-746.3872296123382
 31
0.0
  0
LINE
  5
25B6
330
2BE7
100
AcDbEntity
  8
0
 62
     0
100
AcDbLine
 10
370.0807888504059
 20
-771.0000000000016
 30
0.0
 11
411.4999999999945
 21
-743.3872630769217
 31
0.0
  0
LINE
  5
25B7
330
2BE7
100
AcDbEntity
  8
0
 62
     0
100
AcDbLine
 10
365.5808275565196
 20
-771.0000000000027
 30
0.0
 11
411.4999999999945
 21
-740.3872965415057
 31
0.0
  0
LINE
  5
25B8
330
2BE7
100
AcDbEntity
  8
0
 62
     0
100
AcDbLine
 10
361.080866262635
 20
-771.0000000000016
 30
0.0
 11
411.4999999999945
 21
-737.3873300060894
 31
0.0
  0
LINE
  5
25B9
330
2BE7
100
AcDbEntity
  8
0
 62
     0
100
AcDbLine
 10
356.5809049687488
 20
-771.0000000000027
 30
0.0
 11
411.4999999999927
 21
-734.3873634706731
 31
0.0
  0
LINE
  5
25BA
330
2BE7
100
AcDbEntity
  8
0
 62
     0
100
AcDbLine
 10
352.0809436748622
 20
-771.0000000000016
 30
0.0
 11
411.4999999999927
 21
-731.3873969352571
 31
0.0
  0
LINE
  5
25BB
330
2BE7
100
AcDbEntity
  8
0
 62
     0
100
AcDbLine
 10
347.5809823809777
 20
-771.0000000000027
 30
0.0
 11
411.4999999999927
 21
-728.387430399841
 31
0.0
  0
LINE
  5
25BC
330
2BE7
100
AcDbEntity
  8
0
 62
     0
100
AcDbLine
 10
343.0810210870914
 20
-771.0000000000016
 30
0.0
 11
411.4999999999927
 21
-725.3874638644246
 31
0.0
  0
LINE
  5
25BD
330
2BE7
100
AcDbEntity
  8
0
 62
     0
100
AcDbLine
 10
338.5810597932068
 20
-771.0000000000027
 30
0.0
 11
411.4999999999945
 21
-722.3874973290085
 31
0.0
  0
LINE
  5
25BE
330
2BE7
100
AcDbEntity
  8
0
 62
     0
100
AcDbLine
 10
334.0810984993205
 20
-771.0000000000016
 30
0.0
 11
411.4999999999945
 21
-719.387530793592
 31
0.0
  0
LINE
  5
25BF
330
2BE7
100
AcDbEntity
  8
0
 62
     0
100
AcDbLine
 10
329.5811372054341
 20
-771.0000000000016
 30
0.0
 11
411.4999999999927
 21
-716.3875642581752
 31
0.0
  0
LINE
  5
25C0
330
2BE7
100
AcDbEntity
  8
0
 62
     0
100
AcDbLine
 10
325.0811759115495
 20
-771.0000000000016
 30
0.0
 11
411.4999999999945
 21
-713.3875977227599
 31
0.0
  0
LINE
  5
25C1
330
2BE7
100
AcDbEntity
  8
0
 62
     0
100
AcDbLine
 10
320.5812146176632
 20
-771.0000000000016
 30
0.0
 11
411.4999999999927
 21
-710.3876311873427
 31
0.0
  0
LINE
  5
25C2
330
2BE7
100
AcDbEntity
  8
0
 62
     0
100
AcDbLine
 10
316.0812533237786
 20
-771.0000000000004
 30
0.0
 11
411.4999999999945
 21
-707.3876646519265
 31
0.0
  0
LINE
  5
25C3
330
2BE7
100
AcDbEntity
  8
0
 62
     0
100
AcDbLine
 10
311.581292029894
 20
-771.0000000000016
 30
0.0
 11
411.4999999999927
 21
-704.3876981165121
 31
0.0
  0
LINE
  5
25C4
330
2BE7
100
AcDbEntity
  8
0
 62
     0
100
AcDbLine
 10
307.0813307360077
 20
-771.0000000000027
 30
0.0
 11
411.4999999999945
 21
-701.3877315810957
 31
0.0
  0
LINE
  5
25C5
330
2BE7
100
AcDbEntity
  8
0
 62
     0
100
AcDbLine
 10
302.5813694421231
 20
-771.0000000000016
 30
0.0
 11
411.4999999999927
 21
-698.3877650456792
 31
0.0
  0
LINE
  5
25C6
330
2BE7
100
AcDbEntity
  8
0
 62
     0
100
AcDbLine
 10
298.0814081482348
 20
-771.0000000000027
 30
0.0
 11
411.4999999999945
 21
-695.3877985102616
 31
0.0
  0
LINE
  5
25C7
330
2BE7
100
AcDbEntity
  8
0
 62
     0
100
AcDbLine
 10
293.5814468543522
 20
-771.0000000000016
 30
0.0
 11
411.4999999999927
 21
-692.3878319748474
 31
0.0
  0
LINE
  5
25C8
330
2BE7
100
AcDbEntity
  8
0
 62
     0
100
AcDbLine
 10
289.081485560464
 20
-771.0000000000027
 30
0.0
 11
411.4999999999945
 21
-689.3878654394293
 31
0.0
  0
LINE
  5
25C9
330
2BE7
100
AcDbEntity
  8
0
 62
     0
100
AcDbLine
 10
284.5815242665813
 20
-771.0000000000016
 30
0.0
 11
411.4999999999945
 21
-686.3878989040149
 31
0.0
  0
LINE
  5
25CA
330
2BE7
100
AcDbEntity
  8
0
 62
     0
100
AcDbLine
 10
280.0815629726931
 20
-771.0000000000027
 30
0.0
 11
411.4999999999945
 21
-683.3879323685987
 31
0.0
  0
LINE
  5
25CB
330
2BE7
100
AcDbEntity
  8
0
 62
     0
100
AcDbLine
 10
275.5816016788084
 20
-771.0000000000035
 30
0.0
 11
411.4999999999945
 21
-680.3879658331825
 31
0.0
  0
LINE
  5
25CC
330
2BE7
100
AcDbEntity
  8
0
 62
     0
100
AcDbLine
 10
271.0816403849221
 20
-771.0000000000016
 30
0.0
 11
411.4999999999927
 21
-677.3879992977655
 31
0.0
  0
LINE
  5
25CD
330
2BE7
100
AcDbEntity
  8
0
 62
     0
100
AcDbLine
 10
266.5816790910376
 20
-771.0000000000016
 30
0.0
 11
411.4999999999927
 21
-674.3880327623501
 31
0.0
  0
LINE
  5
25CE
330
2BE7
100
AcDbEntity
  8
0
 62
     0
100
AcDbLine
 10
262.0817177971531
 20
-771.0
 30
0.0
 11
411.4999999999927
 21
-671.388066226933
 31
0.0
  0
LINE
  5
25CF
330
2BE7
100
AcDbEntity
  8
0
 62
     0
100
AcDbLine
 10
257.5817565032667
 20
-771.0000000000004
 30
0.0
 11
411.4999999999927
 21
-668.3880996915164
 31
0.0
  0
LINE
  5
25D0
330
2BE7
100
AcDbEntity
  8
0
 62
     0
100
AcDbLine
 10
253.0817952093821
 20
-771.0000000000016
 30
0.0
 11
411.4999999999945
 21
-665.3881331561002
 31
0.0
  0
LINE
  5
25D1
330
2BE7
100
AcDbEntity
  8
0
 62
     0
100
AcDbLine
 10
248.5818339154957
 20
-771.0000000000004
 30
0.0
 11
411.4999999999945
 21
-662.3881666206844
 31
0.0
  0
LINE
  5
25D2
330
2BE7
100
AcDbEntity
  8
0
 62
     0
100
AcDbLine
 10
244.0818726216094
 20
-771.0000000000016
 30
0.0
 11
411.4999999999927
 21
-659.388200085268
 31
0.0
  0
LINE
  5
25D3
330
2BE7
100
AcDbEntity
  8
0
 62
     0
100
AcDbLine
 10
239.5819113277248
 20
-771.0000000000027
 30
0.0
 11
411.4999999999945
 21
-656.388233549852
 31
0.0
  0
LINE
  5
25D4
330
2BE7
100
AcDbEntity
  8
0
 62
     0
100
AcDbLine
 10
235.0819500338366
 20
-771.0000000000016
 30
0.0
 11
411.4999999999927
 21
-653.3882670144357
 31
0.0
  0
LINE
  5
25D5
330
2BE7
100
AcDbEntity
  8
0
 62
     0
100
AcDbLine
 10
230.5819887399539
 20
-771.0000000000027
 30
0.0
 11
411.4999999999945
 21
-650.3883004790194
 31
0.0
  0
LINE
  5
25D6
330
2BE7
100
AcDbEntity
  8
0
 62
     0
100
AcDbLine
 10
226.0820274460657
 20
-771.0000000000016
 30
0.0
 11
411.4999999999945
 21
-647.3883339436033
 31
0.0
  0
LINE
  5
25D7
330
2BE7
100
AcDbEntity
  8
0
 62
     0
100
AcDbLine
 10
221.5820661521811
 20
-771.0000000000027
 30
0.0
 11
411.4999999999927
 21
-644.3883674081872
 31
0.0
  0
LINE
  5
25D8
330
2BE7
100
AcDbEntity
  8
0
 62
     0
100
AcDbLine
 10
217.0821048582947
 20
-771.0000000000035
 30
0.0
 11
411.4999999999945
 21
-641.3884008727706
 31
0.0
  0
LINE
  5
25D9
330
2BE7
100
AcDbEntity
  8
0
 62
     0
100
AcDbLine
 10
212.5821435644101
 20
-771.0000000000016
 30
0.0
 11
411.4999999999927
 21
-638.3884343373556
 31
0.0
  0
LINE
  5
25DA
330
2BE7
100
AcDbEntity
  8
0
 62
     0
100
AcDbLine
 10
208.0821822705257
 20
-771.0000000000016
 30
0.0
 11
411.4999999999945
 21
-635.3884678019385
 31
0.0
  0
LINE
  5
25DB
330
2BE7
100
AcDbEntity
  8
0
 62
     0
100
AcDbLine
 10
203.5822209766411
 20
-771.0
 30
0.0
 11
411.4999999999945
 21
-632.3885012665215
 31
0.0
  0
LINE
  5
25DC
330
2BE7
100
AcDbEntity
  8
0
 62
     0
100
AcDbLine
 10
199.0822596827547
 20
-771.0000000000004
 30
0.0
 11
411.4999999999945
 21
-629.3885347311053
 31
0.0
  0
LINE
  5
25DD
330
2BE7
100
AcDbEntity
  8
0
 62
     0
100
AcDbLine
 10
194.5822983888684
 20
-771.0000000000016
 30
0.0
 11
411.4999999999945
 21
-626.388568195689
 31
0.0
  0
LINE
  5
25DE
330
2BE7
100
AcDbEntity
  8
0
 62
     0
100
AcDbLine
 10
190.082337094982
 20
-771.0000000000004
 30
0.0
 11
411.4999999999927
 21
-623.3886016602744
 31
0.0
  0
LINE
  5
25DF
330
2BE7
100
AcDbEntity
  8
0
 62
     0
100
AcDbLine
 10
185.5823758010974
 20
-771.0000000000016
 30
0.0
 11
411.4999999999945
 21
-620.3886351248565
 31
0.0
  0
LINE
  5
25E0
330
2BE7
100
AcDbEntity
  8
0
 62
     0
100
AcDbLine
 10
181.082414507211
 20
-771.0000000000004
 30
0.0
 11
411.4999999999927
 21
-617.3886685894422
 31
0.0
  0
LINE
  5
25E1
330
2BE7
100
AcDbEntity
  8
0
 62
     0
100
AcDbLine
 10
176.5824532133264
 20
-771.0000000000016
 30
0.0
 11
411.4999999999945
 21
-614.3887020540241
 31
0.0
  0
LINE
  5
25E2
330
2BE7
100
AcDbEntity
  8
0
 62
     0
100
AcDbLine
 10
172.0824919194401
 20
-771.0000000000027
 30
0.0
 11
411.4999999999945
 21
-611.3887355186077
 31
0.0
  0
LINE
  5
25E3
330
2BE7
100
AcDbEntity
  8
0
 62
     0
100
AcDbLine
 10
167.5825306255537
 20
-771.0000000000016
 30
0.0
 11
411.4999999999927
 21
-608.3887689831936
 31
0.0
  0
LINE
  5
25E4
330
2BE7
100
AcDbEntity
  8
0
 62
     0
100
AcDbLine
 10
163.0825693316692
 20
-771.0000000000027
 30
0.0
 11
411.4999999999945
 21
-605.3888024477774
 31
0.0
  0
LINE
  5
25E5
330
2BE7
100
AcDbEntity
  8
0
 62
     0
100
AcDbLine
 10
158.5826080377828
 20
-771.0000000000035
 30
0.0
 11
411.4999999999927
 21
-602.3888359123612
 31
0.0
  0
LINE
  5
25E6
330
2BE7
100
AcDbEntity
  8
0
 62
     0
100
AcDbLine
 10
154.0826467438981
 20
-771.0000000000016
 30
0.0
 11
411.4999999999945
 21
-599.3888693769441
 31
0.0
  0
LINE
  5
25E7
330
2BE7
100
AcDbEntity
  8
0
 62
     0
100
AcDbLine
 10
149.5826854500137
 20
-771.0000000000016
 30
0.0
 11
411.4999999999927
 21
-596.3889028415287
 31
0.0
  0
LINE
  5
25E8
330
2BE7
100
AcDbEntity
  8
0
 62
     0
100
AcDbLine
 10
145.0827241561273
 20
-771.0000000000016
 30
0.0
 11
411.4999999999963
 21
-593.3889363061098
 31
0.0
  0
LINE
  5
25E9
330
2BE7
100
AcDbEntity
  8
0
 62
     0
100
AcDbLine
 10
140.5827628622428
 20
-771.0000000000004
 30
0.0
 11
411.4999999999927
 21
-590.3889697706952
 31
0.0
  0
LINE
  5
25EA
330
2BE7
100
AcDbEntity
  8
0
 62
     0
100
AcDbLine
 10
136.0828015683546
 20
-771.0000000000016
 30
0.0
 11
411.4999999999945
 21
-587.3890032352792
 31
0.0
  0
LINE
  5
25EB
330
2BE7
100
AcDbEntity
  8
0
 62
     0
100
AcDbLine
 10
131.5828402744718
 20
-771.0000000000004
 30
0.0
 11
411.4999999999945
 21
-584.389036699863
 31
0.0
  0
LINE
  5
25EC
330
2BE7
100
AcDbEntity
  8
0
 62
     0
100
AcDbLine
 10
127.0828789805837
 20
-771.0000000000016
 30
0.0
 11
411.4999999999945
 21
-581.3890701644464
 31
0.0
  0
LINE
  5
25ED
330
2BE7
100
AcDbEntity
  8
0
 62
     0
100
AcDbLine
 10
122.5829176867009
 20
-771.0000000000004
 30
0.0
 11
411.4999999999945
 21
-578.3891036290305
 31
0.0
  0
LINE
  5
25EE
330
2BE7
100
AcDbEntity
  8
0
 62
     0
100
AcDbLine
 10
118.0829563928128
 20
-771.0000000000016
 30
0.0
 11
411.4999999999945
 21
-575.3891370936143
 31
0.0
  0
LINE
  5
25EF
330
2BE7
100
AcDbEntity
  8
0
 62
     0
100
AcDbLine
 10
113.5829950989282
 20
-771.0000000000004
 30
0.0
 11
411.4999999999927
 21
-572.3891705581982
 31
0.0
  0
LINE
  5
25F0
330
2BE7
100
AcDbEntity
  8
0
 62
     0
100
AcDbLine
 10
109.0830338050418
 20
-771.0000000000016
 30
0.0
 11
411.4999999999945
 21
-569.389204022782
 31
0.0
  0
LINE
  5
25F1
330
2BE7
100
AcDbEntity
  8
0
 62
     0
100
AcDbLine
 10
104.5830725111555
 20
-771.0000000000027
 30
0.0
 11
411.4999999999945
 21
-566.3892374873657
 31
0.0
  0
LINE
  5
25F2
330
2BE7
100
AcDbEntity
  8
0
 62
     0
100
AcDbLine
 10
100.0831112172709
 20
-771.0000000000016
 30
0.0
 11
411.4999999999945
 21
-563.3892709519495
 31
0.0
  0
LINE
  5
25F3
330
2BE7
100
AcDbEntity
  8
0
 62
     0
100
AcDbLine
 10
95.58314992338635
 20
-771.0000000000016
 30
0.0
 11
411.4999999999945
 21
-560.3893044165324
 31
0.0
  0
LINE
  5
25F4
330
2BE7
100
AcDbEntity
  8
0
 62
     0
100
AcDbLine
 10
91.08318862950183
 20
-771.0000000000016
 30
0.0
 11
411.4999999999945
 21
-557.3893378811169
 31
0.0
  0
LINE
  5
25F5
330
2BE7
100
AcDbEntity
  8
0
 62
     0
100
AcDbLine
 10
86.58322733561545
 20
-771.0000000000016
 30
0.0
 11
411.4999999999945
 21
-554.3893713457
 31
0.0
  0
LINE
  5
25F6
330
2BE7
100
AcDbEntity
  8
0
 62
     0
100
AcDbLine
 10
82.08326604172906
 20
-771.0000000000016
 30
0.0
 11
411.4999999999927
 21
-551.3894048102847
 31
0.0
  0
LINE
  5
25F7
330
2BE7
100
AcDbEntity
  8
0
 62
     0
100
AcDbLine
 10
77.58330474784449
 20
-771.0000000000016
 30
0.0
 11
411.4999999999945
 21
-548.3894382748677
 31
0.0
  0
LINE
  5
25F8
330
2BE7
100
AcDbEntity
  8
0
 62
     0
100
AcDbLine
 10
73.08334345395817
 20
-771.0000000000004
 30
0.0
 11
411.4999999999927
 21
-545.3894717394532
 31
0.0
  0
LINE
  5
25F9
330
2BE7
100
AcDbEntity
  8
0
 62
     0
100
AcDbLine
 10
68.58338216007361
 20
-771.0000000000016
 30
0.0
 11
411.4999999999945
 21
-542.3895052040371
 31
0.0
  0
LINE
  5
25FA
330
2BE7
100
AcDbEntity
  8
0
 62
     0
100
AcDbLine
 10
64.08342086618723
 20
-771.0000000000027
 30
0.0
 11
411.4999999999945
 21
-539.389538668619
 31
0.0
  0
LINE
  5
25FB
330
2BE7
100
AcDbEntity
  8
0
 62
     0
100
AcDbLine
 10
59.58345957230085
 20
-771.0000000000016
 30
0.0
 11
411.4999999999927
 21
-536.3895721332046
 31
0.0
  0
LINE
  5
25FC
330
2BE7
100
AcDbEntity
  8
0
 62
     0
100
AcDbLine
 10
55.0834982784163
 20
-771.0000000000027
 30
0.0
 11
411.4999999999945
 21
-533.3896055977866
 31
0.0
  0
LINE
  5
25FD
330
2BE7
100
AcDbEntity
  8
0
 62
     0
100
AcDbLine
 10
50.58353698452993
 20
-771.0000000000016
 30
0.0
 11
411.4999999999945
 21
-530.3896390623703
 31
0.0
  0
LINE
  5
25FE
330
2BE7
100
AcDbEntity
  8
0
 62
     0
100
AcDbLine
 10
46.08357569064536
 20
-771.0000000000027
 30
0.0
 11
411.4999999999945
 21
-527.389672526956
 31
0.0
  0
LINE
  5
25FF
330
2BE7
100
AcDbEntity
  8
0
 62
     0
100
AcDbLine
 10
41.583614396759
 20
-771.0000000000016
 30
0.0
 11
411.4999999999945
 21
-524.3897059915398
 31
0.0
  0
LINE
  5
2600
330
2BE7
100
AcDbEntity
  8
0
 62
     0
100
AcDbLine
 10
37.08365310287263
 20
-771.0000000000027
 30
0.0
 11
411.4999999999927
 21
-521.3897394561236
 31
0.0
  0
LINE
  5
2601
330
2BE7
100
AcDbEntity
  8
0
 62
     0
100
AcDbLine
 10
32.58369180898808
 20
-771.0000000000016
 30
0.0
 11
411.4999999999945
 21
-518.3897729207074
 31
0.0
  0
LINE
  5
2602
330
2BE7
100
AcDbEntity
  8
0
 62
     0
100
AcDbLine
 10
28.08373051510171
 20
-771.0000000000016
 30
0.0
 11
411.4999999999927
 21
-515.3898063852903
 31
0.0
  0
LINE
  5
2603
330
2BE7
100
AcDbEntity
  8
0
 62
     0
100
AcDbLine
 10
23.58376922121897
 20
-771.0000000000016
 30
0.0
 11
411.4999999999945
 21
-512.389839849875
 31
0.0
  0
LINE
  5
2604
330
2BE7
100
AcDbEntity
  8
0
 62
     0
100
AcDbLine
 10
19.0838079273326
 20
-771.0000000000016
 30
0.0
 11
411.4999999999927
 21
-509.3898733144577
 31
0.0
  0
LINE
  5
2605
330
2BE7
100
AcDbEntity
  8
0
 62
     0
100
AcDbLine
 10
14.58384663344623
 20
-771.0000000000027
 30
0.0
 11
411.4999999999945
 21
-506.3899067790416
 31
0.0
  0
LINE
  5
2606
330
2BE7
100
AcDbEntity
  8
0
 62
     0
100
AcDbLine
 10
10.08388533956167
 20
-771.0000000000016
 30
0.0
 11
411.4999999999945
 21
-503.3899402436254
 31
0.0
  0
LINE
  5
2607
330
2BE7
100
AcDbEntity
  8
0
 62
     0
100
AcDbLine
 10
5.583924045673484
 20
-771.0000000000027
 30
0.0
 11
411.4999999999927
 21
-500.3899737082091
 31
0.0
  0
LINE
  5
2608
330
2BE7
100
AcDbEntity
  8
0
 62
     0
100
AcDbLine
 10
1.083962751790749
 20
-771.0000000000016
 30
0.0
 11
411.4999999999945
 21
-497.3900071727928
 31
0.0
  0
LINE
  5
2609
330
2BE7
100
AcDbEntity
  8
0
 62
     0
100
AcDbLine
 10
-3.415998542097439
 20
-771.0000000000027
 30
0.0
 11
411.4999999999927
 21
-494.3900406373767
 31
0.0
  0
LINE
  5
260A
330
2BE7
100
AcDbEntity
  8
0
 62
     0
100
AcDbLine
 10
-7.915959835980174
 20
-771.0000000000016
 30
0.0
 11
411.4999999999945
 21
-491.3900741019605
 31
0.0
  0
LINE
  5
260B
330
2BE7
100
AcDbEntity
  8
0
 62
     0
100
AcDbLine
 10
-12.41592112986836
 20
-771.0000000000027
 30
0.0
 11
411.4999999999927
 21
-488.3901075665443
 31
0.0
  0
LINE
  5
260C
330
2BE7
100
AcDbEntity
  8
0
 62
     0
100
AcDbLine
 10
-16.9158824237511
 20
-771.0000000000016
 30
0.0
 11
411.4999999999963
 21
-485.3901410311281
 31
0.0
  0
LINE
  5
260D
330
2BE7
100
AcDbEntity
  8
0
 62
     0
100
AcDbLine
 10
-21.41584371763929
 20
-771.0000000000027
 30
0.0
 11
411.4999999999945
 21
-482.3901744957119
 31
0.0
  0
LINE
  5
260E
330
2BE7
100
AcDbEntity
  8
0
 62
     0
100
AcDbLine
 10
-25.91580501152384
 20
-771.0000000000016
 30
0.0
 11
411.4999999999945
 21
-479.3902079602958
 31
0.0
  0
LINE
  5
260F
330
2BE7
100
AcDbEntity
  8
0
 62
     0
100
AcDbLine
 10
-30.4157663054084
 20
-771.0000000000016
 30
0.0
 11
411.4999999999945
 21
-476.3902414248787
 31
0.0
  0
LINE
  5
2610
330
2BE7
100
AcDbEntity
  8
0
 62
     0
100
AcDbLine
 10
-34.91572759929477
 20
-771.0000000000035
 30
0.0
 11
411.4999999999945
 21
-473.3902748894633
 31
0.0
  0
LINE
  5
2611
330
2BE7
100
AcDbEntity
  8
0
 62
     0
100
AcDbLine
 10
-39.41568889318114
 20
-771.0000000000016
 30
0.0
 11
411.4999999999927
 21
-470.3903083540462
 31
0.0
  0
LINE
  5
2612
330
2BE7
100
AcDbEntity
  8
0
 62
     0
100
AcDbLine
 10
-43.91565018706566
 20
-771.0000000000027
 30
0.0
 11
411.4999999999945
 21
-467.3903418186299
 31
0.0
  0
LINE
  5
2613
330
2BE7
100
AcDbEntity
  8
0
 62
     0
100
AcDbLine
 10
-48.41561148095206
 20
-771.0000000000016
 30
0.0
 11
411.4999999999927
 21
-464.3903752832157
 31
0.0
  0
LINE
  5
2614
330
2BE7
100
AcDbEntity
  8
0
 62
     0
100
AcDbLine
 10
-52.91557277483661
 20
-771.0000000000027
 30
0.0
 11
411.4999999999945
 21
-461.3904087477991
 31
0.0
  0
LINE
  5
2615
330
2BE7
100
AcDbEntity
  8
0
 62
     0
100
AcDbLine
 10
-57.41553406872299
 20
-771.0000000000016
 30
0.0
 11
411.4999999999945
 21
-458.3904422123812
 31
0.0
  0
LINE
  5
2616
330
2BE7
100
AcDbEntity
  8
0
 62
     0
100
AcDbLine
 10
-61.91549536260755
 20
-771.0000000000027
 30
0.0
 11
411.4999999999945
 21
-455.3904756769652
 31
0.0
  0
LINE
  5
2617
330
2BE7
100
AcDbEntity
  8
0
 62
     0
100
AcDbLine
 10
-66.41545665649392
 20
-771.0000000000016
 30
0.0
 11
411.4999999999945
 21
-452.3905091415488
 31
0.0
  0
LINE
  5
2618
330
2BE7
100
AcDbEntity
  8
0
 62
     0
100
AcDbLine
 10
-70.9154179503803
 20
-771.0000000000027
 30
0.0
 11
411.4999999999927
 21
-449.3905426061346
 31
0.0
  0
LINE
  5
2619
330
2BE7
100
AcDbEntity
  8
0
 62
     0
100
AcDbLine
 10
-75.41537924426666
 20
-771.0000000000035
 30
0.0
 11
411.4999999999945
 21
-446.3905760707183
 31
0.0
  0
LINE
  5
261A
330
2BE7
100
AcDbEntity
  8
0
 62
     0
100
AcDbLine
 10
-79.91534053815121
 20
-771.0000000000027
 30
0.0
 11
411.4999999999927
 21
-443.390609535302
 31
0.0
  0
LINE
  5
261B
330
2BE7
100
AcDbEntity
  8
0
 62
     0
100
AcDbLine
 10
-84.41530183203576
 20
-771.0000000000016
 30
0.0
 11
411.4999999999945
 21
-440.390642999886
 31
0.0
  0
LINE
  5
261C
330
2BE7
100
AcDbEntity
  8
0
 62
     0
100
AcDbLine
 10
-88.91526312592032
 20
-771.0000000000016
 30
0.0
 11
411.4999999999927
 21
-437.3906764644688
 31
0.0
  0
LINE
  5
261D
330
2BE7
100
AcDbEntity
  8
0
 62
     0
100
AcDbLine
 10
-93.4152244198067
 20
-771.0000000000016
 30
0.0
 11
411.4999999999945
 21
-434.3907099290536
 31
0.0
  0
LINE
  5
261E
330
2BE7
100
AcDbEntity
  8
0
 62
     0
100
AcDbLine
 10
-97.91518571369124
 20
-771.0000000000016
 30
0.0
 11
411.4999999999945
 21
-431.3907433936362
 31
0.0
  0
LINE
  5
261F
330
2BE7
100
AcDbEntity
  8
0
 62
     0
100
AcDbLine
 10
-102.4151470075794
 20
-771.0000000000027
 30
0.0
 11
411.4999999999945
 21
-428.3907768582203
 31
0.0
  0
LINE
  5
2620
330
2BE7
100
AcDbEntity
  8
0
 62
     0
100
AcDbLine
 10
-106.9151083014622
 20
-771.0000000000016
 30
0.0
 11
411.4999999999945
 21
-425.3908103228041
 31
0.0
  0
LINE
  5
2621
330
2BE7
100
AcDbEntity
  8
0
 62
     0
100
AcDbLine
 10
-111.4150695953503
 20
-771.0000000000027
 30
0.0
 11
411.4999999999945
 21
-422.3908437873879
 31
0.0
  0
LINE
  5
2622
330
2BE7
100
AcDbEntity
  8
0
 62
     0
100
AcDbLine
 10
-115.9150308892349
 20
-771.0000000000016
 30
0.0
 11
411.4999999999945
 21
-419.3908772519717
 31
0.0
  0
LINE
  5
2623
330
2BE7
100
AcDbEntity
  8
0
 62
     0
100
AcDbLine
 10
-120.4149921831213
 20
-771.0000000000027
 30
0.0
 11
411.4999999999945
 21
-416.3909107165554
 31
0.0
  0
LINE
  5
2624
330
2BE7
100
AcDbEntity
  8
0
 62
     0
100
AcDbLine
 10
-124.9149534770076
 20
-771.0000000000035
 30
0.0
 11
411.4999999999927
 21
-413.3909441811391
 31
0.0
  0
LINE
  5
2625
330
2BE7
100
AcDbEntity
  8
0
 62
     0
100
AcDbLine
 10
-129.4149147708922
 20
-771.0000000000027
 30
0.0
 11
411.4999999999945
 21
-410.3909776457228
 31
0.0
  0
LINE
  5
2626
330
2BE7
100
AcDbEntity
  8
0
 62
     0
100
AcDbLine
 10
-133.9148760647786
 20
-771.0000000000035
 30
0.0
 11
411.4999999999927
 21
-407.3910111103065
 31
0.0
  0
LINE
  5
2627
330
2BE7
100
AcDbEntity
  8
0
 62
     0
100
AcDbLine
 10
-138.4148373586631
 20
-771.0000000000027
 30
0.0
 11
411.4999999999945
 21
-404.3910445748905
 31
0.0
  0
LINE
  5
2628
330
2BE7
100
AcDbEntity
  8
0
 62
     0
100
AcDbLine
 10
-142.9147986525474
 20
-771.0000000000016
 30
0.0
 11
411.4999999999945
 21
-401.3910780394743
 31
0.0
  0
LINE
  5
2629
330
2BE7
100
AcDbEntity
  8
0
 62
     0
100
AcDbLine
 10
-147.414759946434
 20
-771.0000000000016
 30
0.0
 11
411.4999999999927
 21
-398.3911115040572
 31
0.0
  0
LINE
  5
262A
330
2BE7
100
AcDbEntity
  8
0
 62
     0
100
AcDbLine
 10
-151.9147212403186
 20
-771.0000000000016
 30
0.0
 11
411.4999999999945
 21
-395.391144968642
 31
0.0
  0
LINE
  5
262B
330
2BE7
100
AcDbEntity
  8
0
 62
     0
100
AcDbLine
 10
-156.414682534205
 20
-771.0000000000016
 30
0.0
 11
411.4999999999927
 21
-392.3911784332249
 31
0.0
  0
LINE
  5
262C
330
2BE7
100
AcDbEntity
  8
0
 62
     0
100
AcDbLine
 10
-160.9146438280895
 20
-771.0000000000004
 30
0.0
 11
411.4999999999945
 21
-389.3912118978088
 31
0.0
  0
LINE
  5
262D
330
2BE7
100
AcDbEntity
  8
0
 62
     0
100
AcDbLine
 10
-165.4146051219777
 20
-771.0000000000016
 30
0.0
 11
411.4999999999927
 21
-386.3912453623943
 31
0.0
  0
LINE
  5
262E
330
2BE7
100
AcDbEntity
  8
0
 62
     0
100
AcDbLine
 10
-169.9145664158604
 20
-771.0000000000027
 30
0.0
 11
411.4999999999945
 21
-383.3912788269781
 31
0.0
  0
LINE
  5
262F
330
2BE7
100
AcDbEntity
  8
0
 62
     0
100
AcDbLine
 10
-174.4145277097486
 20
-771.0000000000016
 30
0.0
 11
411.4999999999945
 21
-380.3913122915602
 31
0.0
  0
LINE
  5
2630
330
2BE7
100
AcDbEntity
  8
0
 62
     0
100
AcDbLine
 10
-178.9144890036332
 20
-771.0000000000027
 30
0.0
 11
411.4999999999945
 21
-377.391345756144
 31
0.0
  0
LINE
  5
2631
330
2BE7
100
AcDbEntity
  8
0
 62
     0
100
AcDbLine
 10
-183.4144502975196
 20
-771.0000000000035
 30
0.0
 11
411.4999999999945
 21
-374.3913792207277
 31
0.0
  0
LINE
  5
2632
330
2BE7
100
AcDbEntity
  8
0
 62
     0
100
AcDbLine
 10
-187.9144115914041
 20
-771.0000000000027
 30
0.0
 11
411.4999999999945
 21
-371.3914126853134
 31
0.0
  0
LINE
  5
2633
330
2BE7
100
AcDbEntity
  8
0
 62
     0
100
AcDbLine
 10
-192.4143728852905
 20
-771.0000000000035
 30
0.0
 11
411.4999999999945
 21
-368.3914461498971
 31
0.0
  0
LINE
  5
2634
330
2BE7
100
AcDbEntity
  8
0
 62
     0
100
AcDbLine
 10
-196.914334179175
 20
-771.0000000000027
 30
0.0
 11
411.4999999999945
 21
-365.3914796144809
 31
0.0
  0
LINE
  5
2635
330
2BE7
100
AcDbEntity
  8
0
 62
     0
100
AcDbLine
 10
-201.4142954730596
 20
-771.0000000000016
 30
0.0
 11
411.4999999999963
 21
-362.3915130790629
 31
0.0
  0
LINE
  5
2636
330
2BE7
100
AcDbEntity
  8
0
 62
     0
100
AcDbLine
 10
-205.914256766946
 20
-771.0000000000016
 30
0.0
 11
411.4999999999945
 21
-359.3915465436475
 31
0.0
  0
LINE
  5
2637
330
2BE7
100
AcDbEntity
  8
0
 62
     0
100
AcDbLine
 10
-210.4142180608323
 20
-771.0000000000016
 30
0.0
 11
411.4999999999945
 21
-356.3915800082305
 31
0.0
  0
LINE
  5
2638
330
2BE7
100
AcDbEntity
  8
0
 62
     0
100
AcDbLine
 10
-214.9141793547169
 20
-771.0000000000016
 30
0.0
 11
411.4999999999945
 21
-353.3916134728152
 31
0.0
  0
LINE
  5
2639
330
2BE7
100
AcDbEntity
  8
0
 62
     0
100
AcDbLine
 10
-219.4141406486033
 20
-771.0000000000016
 30
0.0
 11
411.4999999999945
 21
-350.3916469373999
 31
0.0
  0
LINE
  5
263A
330
2BE7
100
AcDbEntity
  8
0
 62
     0
100
AcDbLine
 10
-223.9141019424896
 20
-771.0000000000016
 30
0.0
 11
411.4999999999927
 21
-347.3916804019828
 31
0.0
  0
LINE
  5
263B
330
2BE7
100
AcDbEntity
  8
0
 62
     0
100
AcDbLine
 10
-228.4140632363742
 20
-771.0000000000016
 30
0.0
 11
411.4999999999945
 21
-344.3917138665674
 31
0.0
  0
LINE
  5
263C
330
2BE7
100
AcDbEntity
  8
0
 62
     0
100
AcDbLine
 10
-232.9140245302606
 20
-771.0000000000016
 30
0.0
 11
411.4999999999927
 21
-341.3917473311504
 31
0.0
  0
LINE
  5
263D
330
2BE7
100
AcDbEntity
  8
0
 62
     0
100
AcDbLine
 10
-237.4139858241451
 20
-771.0000000000035
 30
0.0
 11
411.4999999999945
 21
-338.3917807957349
 31
0.0
  0
LINE
  5
263E
330
2BE7
100
AcDbEntity
  8
0
 62
     0
100
AcDbLine
 10
-241.9139471180315
 20
-771.0000000000016
 30
0.0
 11
411.4999999999945
 21
-335.391814260318
 31
0.0
  0
LINE
  5
263F
330
2BE7
100
AcDbEntity
  8
0
 62
     0
100
AcDbLine
 10
-246.413908411916
 20
-771.0000000000016
 30
0.0
 11
411.4999999999945
 21
-332.3918477249008
 31
0.0
  0
LINE
  5
2640
330
2BE7
100
AcDbEntity
  8
0
 62
     0
100
AcDbLine
 10
-250.9138697058024
 20
-771.0000000000035
 30
0.0
 11
411.4999999999945
 21
-329.3918811894855
 31
0.0
  0
LINE
  5
2641
330
2BE7
100
AcDbEntity
  8
0
 62
     0
100
AcDbLine
 10
-255.4138309996888
 20
-771.0000000000016
 30
0.0
 11
411.4999999999945
 21
-326.3919146540684
 31
0.0
  0
LINE
  5
2642
330
2BE7
100
AcDbEntity
  8
0
 62
     0
100
AcDbLine
 10
-259.9137922935715
 20
-771.0000000000016
 30
0.0
 11
411.4999999999945
 21
-323.3919481186531
 31
0.0
  0
LINE
  5
2643
330
2BE7
100
AcDbEntity
  8
0
 62
     0
100
AcDbLine
 10
-264.4137535874579
 20
-771.0000000000016
 30
0.0
 11
411.4999999999945
 21
-320.391981583236
 31
0.0
  0
LINE
  5
2644
330
2BE7
100
AcDbEntity
  8
0
 62
     0
100
AcDbLine
 10
-268.9137148813425
 20
-771.0000000000016
 30
0.0
 11
411.4999999999945
 21
-317.3920150478207
 31
0.0
  0
LINE
  5
2645
330
2BE7
100
AcDbEntity
  8
0
 62
     0
100
AcDbLine
 10
-273.4136761752288
 20
-771.0000000000016
 30
0.0
 11
411.4999999999945
 21
-314.3920485124036
 31
0.0
  0
LINE
  5
2646
330
2BE7
100
AcDbEntity
  8
0
 62
     0
100
AcDbLine
 10
-277.9136374691134
 20
-771.0000000000016
 30
0.0
 11
411.4999999999945
 21
-311.3920819769883
 31
0.0
  0
LINE
  5
2647
330
2BE7
100
AcDbEntity
  8
0
 62
     0
100
AcDbLine
 10
-282.4135987629997
 20
-771.0000000000016
 30
0.0
 11
411.4999999999945
 21
-308.3921154415711
 31
0.0
  0
LINE
  5
2648
330
2BE7
100
AcDbEntity
  8
0
 62
     0
100
AcDbLine
 10
-286.9135600568861
 20
-771.0000000000016
 30
0.0
 11
411.4999999999927
 21
-305.3921489061577
 31
0.0
  0
LINE
  5
2649
330
2BE7
100
AcDbEntity
  8
0
 62
     0
100
AcDbLine
 10
-291.4135213507707
 20
-771.0000000000016
 30
0.0
 11
411.4999999999945
 21
-302.3921823707387
 31
0.0
  0
LINE
  5
264A
330
2BE7
100
AcDbEntity
  8
0
 62
     0
100
AcDbLine
 10
-295.9134826446589
 20
-771.0000000000035
 30
0.0
 11
411.4999999999945
 21
-299.3922158353234
 31
0.0
  0
LINE
  5
264B
330
2BE7
100
AcDbEntity
  8
0
 62
     0
100
AcDbLine
 10
-300.4134439385417
 20
-771.0000000000016
 30
0.0
 11
411.4999999999945
 21
-296.3922492999064
 31
0.0
  0
LINE
  5
264C
330
2BE7
100
AcDbEntity
  8
0
 62
     0
100
AcDbLine
 10
-304.9134052324298
 20
-771.0000000000016
 30
0.0
 11
411.4999999999945
 21
-293.3922827644892
 31
0.0
  0
LINE
  5
264D
330
2BE7
100
AcDbEntity
  8
0
 62
     0
100
AcDbLine
 10
-309.4133665263143
 20
-771.0000000000016
 30
0.0
 11
411.4999999999927
 21
-290.3923162290757
 31
0.0
  0
LINE
  5
264E
330
2BE7
100
AcDbEntity
  8
0
 62
     0
100
AcDbLine
 10
-313.9133278201989
 20
-771.0000000000016
 30
0.0
 11
411.4999999999945
 21
-287.3923496936586
 31
0.0
  0
LINE
  5
264F
330
2BE7
100
AcDbEntity
  8
0
 62
     0
100
AcDbLine
 10
-318.4132891140852
 20
-771.0000000000016
 30
0.0
 11
411.4999999999927
 21
-284.3923831582433
 31
0.0
  0
LINE
  5
2650
330
2BE7
100
AcDbEntity
  8
0
 62
     0
100
AcDbLine
 10
-322.9132504079698
 20
-771.0000000000016
 30
0.0
 11
411.4999999999963
 21
-281.3924166228244
 31
0.0
  0
LINE
  5
2651
330
2BE7
100
AcDbEntity
  8
0
 62
     0
100
AcDbLine
 10
-327.4132117018562
 20
-771.0000000000016
 30
0.0
 11
411.4999999999927
 21
-278.3924500874109
 31
0.0
  0
LINE
  5
2652
330
2BE7
100
AcDbEntity
  8
0
 62
     0
100
AcDbLine
 10
-331.9131729957427
 20
-771.0000000000016
 30
0.0
 11
411.4999999999945
 21
-275.3924835519937
 31
0.0
  0
LINE
  5
2653
330
2BE7
100
AcDbEntity
  8
0
 62
     0
100
AcDbLine
 10
407.8887663034857
 20
-274.8000000000011
 30
0.0
 11
411.4999999999927
 21
-272.3925170165785
 31
0.0
  0
LINE
  5
2654
330
2BE7
100
AcDbEntity
  8
0
 62
     0
100
AcDbLine
 10
-336.4131342896253
 20
-771.0000000000016
 30
0.0
 11
407.8887663034802
 21
-274.8000000000047
 31
0.0
  0
LINE
  5
2655
330
2BE7
100
AcDbEntity
  8
0
 62
     0
100
AcDbLine
 10
403.3888050095971
 20
-274.8000000000011
 30
0.0
 11
411.4999999999945
 21
-269.3925504811614
 31
0.0
  0
LINE
  5
2656
330
2BE7
100
AcDbEntity
  8
0
 62
     0
100
AcDbLine
 10
-340.9130955835135
 20
-771.0000000000016
 30
0.0
 11
403.3888050095955
 21
-274.8000000000029
 31
0.0
  0
LINE
  5
2657
330
2BE7
100
AcDbEntity
  8
0
 62
     0
100
AcDbLine
 10
398.8888437157148
 20
-274.8000000000029
 30
0.0
 11
411.4999999999927
 21
-266.3925839457461
 31
0.0
  0
LINE
  5
2658
330
2BE7
100
AcDbEntity
  8
0
 62
     0
100
AcDbLine
 10
-345.413056877398
 20
-771.0000000000035
 30
0.0
 11
398.8888437157111
 21
-274.8000000000047
 31
0.0
  0
LINE
  5
2659
330
2BE7
100
AcDbEntity
  8
0
 62
     0
100
AcDbLine
 10
394.3888824218266
 20
-274.8000000000011
 30
0.0
 11
411.4999999999945
 21
-263.392617410329
 31
0.0
  0
LINE
  5
265A
330
2BE7
100
AcDbEntity
  8
0
 62
     0
100
AcDbLine
 10
-349.9130181712844
 20
-771.0000000000016
 30
0.0
 11
394.3888824218248
 21
-274.8000000000047
 31
0.0
  0
LINE
  5
265B
330
2BE7
100
AcDbEntity
  8
0
 62
     0
100
AcDbLine
 10
389.8889211279437
 20
-274.8000000000029
 30
0.0
 11
411.4999999999945
 21
-260.3926508749137
 31
0.0
  0
LINE
  5
265C
330
2BE7
100
AcDbEntity
  8
0
 62
     0
100
AcDbLine
 10
-354.4129794651689
 20
-771.0000000000035
 30
0.0
 11
389.8889211279384
 21
-274.8000000000047
 31
0.0
  0
LINE
  5
265D
330
2BE7
100
AcDbEntity
  8
0
 62
     0
100
AcDbLine
 10
385.3889598340556
 20
-274.8000000000029
 30
0.0
 11
411.4999999999945
 21
-257.3926843394966
 31
0.0
  0
LINE
  5
265E
330
2BE7
100
AcDbEntity
  8
0
 62
     0
100
AcDbLine
 10
-358.9129407590552
 20
-771.0000000000016
 30
0.0
 11
385.3889598340556
 21
-274.8000000000029
 31
0.0
  0
LINE
  5
265F
330
2BE7
100
AcDbEntity
  8
0
 62
     0
100
AcDbLine
 10
380.8889985401711
 20
-274.8000000000011
 30
0.0
 11
411.4999999999927
 21
-254.3927178040795
 31
0.0
  0
LINE
  5
2660
330
2BE7
100
AcDbEntity
  8
0
 62
     0
100
AcDbLine
 10
-363.4129020529416
 20
-771.0000000000016
 30
0.0
 11
380.8889985401675
 21
-274.8000000000029
 31
0.0
  0
LINE
  5
2661
330
2BE7
100
AcDbEntity
  8
0
 62
     0
100
AcDbLine
 10
376.3890372462847
 20
-274.8000000000029
 30
0.0
 11
411.4999999999945
 21
-251.3927512686641
 31
0.0
  0
LINE
  5
2662
330
2BE7
100
AcDbEntity
  8
0
 62
     0
100
AcDbLine
 10
-367.9128633468263
 20
-771.0000000000016
 30
0.0
 11
376.3890372462829
 21
-274.8000000000047
 31
0.0
  0
LINE
  5
2663
330
2BE7
100
AcDbEntity
  8
0
 62
     0
100
AcDbLine
 10
371.8890759523983
 20
-274.8000000000011
 30
0.0
 11
411.4999999999927
 21
-248.392784733247
 31
0.0
  0
LINE
  5
2664
330
2BE7
100
AcDbEntity
  8
0
 62
     0
100
AcDbLine
 10
-372.4128246407108
 20
-771.0000000000016
 30
0.0
 11
371.8890759523983
 21
-274.8000000000011
 31
0.0
  0
LINE
  5
2665
330
2BE7
100
AcDbEntity
  8
0
 62
     0
100
AcDbLine
 10
367.3891146585138
 20
-274.8000000000029
 30
0.0
 11
411.4999999999945
 21
-245.3928181978335
 31
0.0
  0
LINE
  5
2666
330
2BE7
100
AcDbEntity
  8
0
 62
     0
100
AcDbLine
 10
-376.9127859345953
 20
-771.0000000000016
 30
0.0
 11
367.3891146585138
 21
-274.8000000000029
 31
0.0
  0
LINE
  5
2667
330
2BE7
100
AcDbEntity
  8
0
 62
     0
100
AcDbLine
 10
362.8891533646292
 20
-274.8000000000011
 30
0.0
 11
411.4999999999945
 21
-242.3928516624146
 31
0.0
  0
LINE
  5
2668
330
2BE7
100
AcDbEntity
  8
0
 62
     0
100
AcDbLine
 10
-381.4127472284818
 20
-771.0000000000016
 30
0.0
 11
362.8891533646256
 21
-274.8000000000029
 31
0.0
  0
LINE
  5
2669
330
2BE7
100
AcDbEntity
  8
0
 62
     0
100
AcDbLine
 10
358.3891920707447
 20
-274.8000000000011
 30
0.0
 11
411.4999999999945
 21
-239.3928851270011
 31
0.0
  0
LINE
  5
266A
330
2BE7
100
AcDbEntity
  8
0
 62
     0
100
AcDbLine
 10
-385.9127085223664
 20
-771.0000000000016
 30
0.0
 11
358.3891920707429
 21
-274.8000000000029
 31
0.0
  0
LINE
  5
266B
330
2BE7
100
AcDbEntity
  8
0
 62
     0
100
AcDbLine
 10
353.8892307768583
 20
-274.8000000000011
 30
0.0
 11
411.4999999999945
 21
-236.3929185915822
 31
0.0
  0
LINE
  5
266C
330
2BE7
100
AcDbEntity
  8
0
 62
     0
100
AcDbLine
 10
-390.4126698162528
 20
-771.0000000000016
 30
0.0
 11
353.8892307768565
 21
-274.8000000000029
 31
0.0
  0
LINE
  5
266D
330
2BE7
100
AcDbEntity
  8
0
 62
     0
100
AcDbLine
 10
349.3892694829719
 20
-274.8000000000011
 30
0.0
 11
411.4999999999927
 21
-233.3929520561669
 31
0.0
  0
LINE
  5
266E
330
2BE7
100
AcDbEntity
  8
0
 62
     0
100
AcDbLine
 10
-394.9126311101409
 20
-771.0000000000035
 30
0.0
 11
349.3892694829701
 21
-274.8000000000029
 31
0.0
  0
LINE
  5
266F
330
2BE7
100
AcDbEntity
  8
0
 62
     0
100
AcDbLine
 10
344.8893081890874
 20
-274.8000000000011
 30
0.0
 11
411.4999999999945
 21
-230.3929855207497
 31
0.0
  0
LINE
  5
2670
330
2BE7
100
AcDbEntity
  8
0
 62
     0
100
AcDbLine
 10
-399.4125924040236
 20
-771.0000000000016
 30
0.0
 11
344.8893081890856
 21
-274.8000000000029
 31
0.0
  0
LINE
  5
2671
330
2BE7
100
AcDbEntity
  8
0
 62
     0
100
AcDbLine
 10
340.3893468951992
 20
-274.8000000000029
 30
0.0
 11
411.4999999999927
 21
-227.3930189853363
 31
0.0
  0
LINE
  5
2672
330
2BE7
100
AcDbEntity
  8
0
 62
     0
100
AcDbLine
 10
-403.9125536979116
 20
-771.0000000000035
 30
0.0
 11
340.3893468951992
 21
-274.8000000000029
 31
0.0
  0
LINE
  5
2673
330
2BE7
100
AcDbEntity
  8
0
 62
     0
100
AcDbLine
 10
335.8893856013147
 20
-274.8000000000011
 30
0.0
 11
411.4999999999927
 21
-224.3930524499192
 31
0.0
  0
LINE
  5
2674
330
2BE7
100
AcDbEntity
  8
0
 62
     0
100
AcDbLine
 10
-408.412514991796
 20
-771.0000000000016
 30
0.0
 11
335.8893856013128
 21
-274.8000000000029
 31
0.0
  0
LINE
  5
2675
330
2BE7
100
AcDbEntity
  8
0
 62
     0
100
AcDbLine
 10
331.3894243074284
 20
-274.8000000000029
 30
0.0
 11
411.4999999999927
 21
-221.3930859145039
 31
0.0
  0
LINE
  5
2676
330
2BE7
100
AcDbEntity
  8
0
 62
     0
100
AcDbLine
 10
-411.5000000000051
 20
-770.0583515474136
 30
0.0
 11
331.3894243074284
 21
-274.8000000000029
 31
0.0
  0
LINE
  5
2677
330
2BE7
100
AcDbEntity
  8
0
 62
     0
100
AcDbLine
 10
326.8894630135437
 20
-274.8000000000011
 30
0.0
 11
411.4999999999927
 21
-218.3931193790868
 31
0.0
  0
LINE
  5
2678
330
2BE7
100
AcDbEntity
  8
0
 62
     0
100
AcDbLine
 10
-411.5000000000051
 20
-767.0583850119965
 30
0.0
 11
326.8894630135417
 21
-274.8000000000029
 31
0.0
  0
LINE
  5
2679
330
2BE7
100
AcDbEntity
  8
0
 62
     0
100
AcDbLine
 10
322.3895017196592
 20
-274.8000000000011
 30
0.0
 11
411.4999999999927
 21
-215.3931528436697
 31
0.0
  0
LINE
  5
267A
330
2BE7
100
AcDbEntity
  8
0
 62
     0
100
AcDbLine
 10
-411.5000000000051
 20
-764.0584184765794
 30
0.0
 11
322.3895017196592
 21
-274.8000000000011
 31
0.0
  0
LINE
  5
267B
330
2BE7
100
AcDbEntity
  8
0
 62
     0
100
AcDbLine
 10
317.8895404257728
 20
-274.8000000000029
 30
0.0
 11
411.4999999999927
 21
-212.3931863082544
 31
0.0
  0
LINE
  5
267C
330
2BE7
100
AcDbEntity
  8
0
 62
     0
100
AcDbLine
 10
-411.5000000000036
 20
-761.0584519411641
 30
0.0
 11
317.889540425771
 21
-274.8000000000029
 31
0.0
  0
LINE
  5
267D
330
2BE7
100
AcDbEntity
  8
0
 62
     0
100
AcDbLine
 10
313.3895791318882
 20
-274.8000000000011
 30
0.0
 11
411.4999999999945
 21
-209.3932197728372
 31
0.0
  0
LINE
  5
267E
330
2BE7
100
AcDbEntity
  8
0
 62
     0
100
AcDbLine
 10
-411.5000000000051
 20
-758.0584854057469
 30
0.0
 11
313.3895791318882
 21
-274.8000000000011
 31
0.0
  0
LINE
  5
267F
330
2BE7
100
AcDbEntity
  8
0
 62
     0
100
AcDbLine
 10
308.8896178380019
 20
-274.8000000000029
 30
0.0
 11
411.4999999999927
 21
-206.393253237422
 31
0.0
  0
LINE
  5
2680
330
2BE7
100
AcDbEntity
  8
0
 62
     0
100
AcDbLine
 10
-411.5000000000036
 20
-755.0585188703315
 30
0.0
 11
308.8896178380019
 21
-274.8000000000029
 31
0.0
  0
LINE
  5
2681
330
2BE7
100
AcDbEntity
  8
0
 62
     0
100
AcDbLine
 10
304.3896565441155
 20
-274.8000000000011
 30
0.0
 11
411.4999999999927
 21
-203.3932867020048
 31
0.0
  0
LINE
  5
2682
330
2BE7
100
AcDbEntity
  8
0
 62
     0
100
AcDbLine
 10
-411.5000000000051
 20
-752.0585523349144
 30
0.0
 11
304.3896565441155
 21
-274.8000000000011
 31
0.0
  0
LINE
  5
2683
330
2BE7
100
AcDbEntity
  8
0
 62
     0
100
AcDbLine
 10
299.889695250231
 20
-274.8000000000029
 30
0.0
 11
411.4999999999945
 21
-200.3933201665895
 31
0.0
  0
LINE
  5
2684
330
2BE7
100
AcDbEntity
  8
0
 62
     0
100
AcDbLine
 10
-411.5000000000036
 20
-749.058585799499
 30
0.0
 11
299.889695250231
 21
-274.8000000000029
 31
0.0
  0
LINE
  5
2685
330
2BE7
100
AcDbEntity
  8
0
 62
     0
100
AcDbLine
 10
295.3897339563446
 20
-274.8000000000011
 30
0.0
 11
411.4999999999927
 21
-197.3933536311724
 31
0.0
  0
LINE
  5
2686
330
2BE7
100
AcDbEntity
  8
0
 62
     0
100
AcDbLine
 10
-411.5000000000051
 20
-746.0586192640821
 30
0.0
 11
295.3897339563446
 21
-274.8000000000011
 31
0.0
  0
LINE
  5
2687
330
2BE7
100
AcDbEntity
  8
0
 62
     0
100
AcDbLine
 10
290.88977266246
 20
-274.8000000000029
 30
0.0
 11
411.4999999999945
 21
-194.3933870957571
 31
0.0
  0
LINE
  5
2688
330
2BE7
100
AcDbEntity
  8
0
 62
     0
100
AcDbLine
 10
-411.5000000000036
 20
-743.0586527286667
 30
0.0
 11
290.88977266246
 21
-274.8000000000029
 31
0.0
  0
LINE
  5
2689
330
2BE7
100
AcDbEntity
  8
0
 62
     0
100
AcDbLine
 10
286.3898113685737
 20
-274.8000000000011
 30
0.0
 11
411.4999999999927
 21
-191.39342056034
 31
0.0
  0
LINE
  5
268A
330
2BE7
100
AcDbEntity
  8
0
 62
     0
100
AcDbLine
 10
-411.5000000000051
 20
-740.0586861932513
 30
0.0
 11
286.3898113685737
 21
-274.8000000000011
 31
0.0
  0
LINE
  5
268B
330
2BE7
100
AcDbEntity
  8
0
 62
     0
100
AcDbLine
 10
281.8898500746889
 20
-274.8000000000029
 30
0.0
 11
411.4999999999945
 21
-188.3934540249247
 31
0.0
  0
LINE
  5
268C
330
2BE7
100
AcDbEntity
  8
0
 62
     0
100
AcDbLine
 10
-411.5000000000036
 20
-737.0587196578362
 30
0.0
 11
281.8898500746889
 21
-274.8000000000029
 31
0.0
  0
LINE
  5
268D
330
2BE7
100
AcDbEntity
  8
0
 62
     0
100
AcDbLine
 10
277.3898887808027
 20
-274.8000000000011
 30
0.0
 11
411.4999999999908
 21
-185.3934874895094
 31
0.0
  0
LINE
  5
268E
330
2BE7
100
AcDbEntity
  8
0
 62
     0
100
AcDbLine
 10
-411.5000000000036
 20
-734.0587531224173
 30
0.0
 11
277.3898887808027
 21
-274.8000000000011
 31
0.0
  0
LINE
  5
268F
330
2BE7
100
AcDbEntity
  8
0
 62
     0
100
AcDbLine
 10
272.8899274869164
 20
-274.8000000000029
 30
0.0
 11
411.4999999999908
 21
-182.393520954094
 31
0.0
  0
LINE
  5
2690
330
2BE7
100
AcDbEntity
  8
0
 62
     0
100
AcDbLine
 10
-411.5000000000051
 20
-731.0587865870039
 30
0.0
 11
272.8899274869164
 21
-274.8000000000029
 31
0.0
  0
LINE
  5
2691
330
2BE7
100
AcDbEntity
  8
0
 62
     0
100
AcDbLine
 10
268.3899661930318
 20
-274.8000000000011
 30
0.0
 11
411.4999999999927
 21
-179.393554418677
 31
0.0
  0
LINE
  5
2692
330
2BE7
100
AcDbEntity
  8
0
 62
     0
100
AcDbLine
 10
-411.5000000000036
 20
-728.0588200515849
 30
0.0
 11
268.3899661930318
 21
-274.8000000000011
 31
0.0
  0
LINE
  5
2693
330
2BE7
100
AcDbEntity
  8
0
 62
     0
100
AcDbLine
 10
263.8900048991454
 20
-274.8000000000011
 30
0.0
 11
411.4999999999908
 21
-176.3935878832599
 31
0.0
  0
LINE
  5
2694
330
2BE7
100
AcDbEntity
  8
0
 62
     0
100
AcDbLine
 10
-411.5000000000051
 20
-725.0588535161678
 30
0.0
 11
263.8900048991454
 21
-274.8000000000011
 31
0.0
  0
LINE
  5
2695
330
2BE7
100
AcDbEntity
  8
0
 62
     0
100
AcDbLine
 10
259.3900436052609
 20
-274.8000000000029
 30
0.0
 11
411.4999999999927
 21
-173.3936213478444
 31
0.0
  0
LINE
  5
2696
330
2BE7
100
AcDbEntity
  8
0
 62
     0
100
AcDbLine
 10
-411.5000000000036
 20
-722.0588869807542
 30
0.0
 11
259.3900436052609
 21
-274.8000000000029
 31
0.0
  0
LINE
  5
2697
330
2BE7
100
AcDbEntity
  8
0
 62
     0
100
AcDbLine
 10
254.8900823113745
 20
-274.8000000000011
 30
0.0
 11
411.4999999999927
 21
-170.3936548124275
 31
0.0
  0
LINE
  5
2698
330
2BE7
100
AcDbEntity
  8
0
 62
     0
100
AcDbLine
 10
-411.5000000000051
 20
-719.0589204453372
 30
0.0
 11
254.8900823113745
 21
-274.8000000000011
 31
0.0
  0
LINE
  5
2699
330
2BE7
100
AcDbEntity
  8
0
 62
     0
100
AcDbLine
 10
250.39012101749
 20
-274.8000000000029
 30
0.0
 11
411.4999999999908
 21
-167.3936882770122
 31
0.0
  0
LINE
  5
269A
330
2BE7
100
AcDbEntity
  8
0
 62
     0
100
AcDbLine
 10
-411.5000000000051
 20
-716.0589539099219
 30
0.0
 11
250.39012101749
 21
-274.8000000000029
 31
0.0
  0
LINE
  5
269B
330
2BE7
100
AcDbEntity
  8
0
 62
     0
100
AcDbLine
 10
245.8901597236054
 20
-274.8000000000011
 30
0.0
 11
411.4999999999927
 21
-164.3937217415951
 31
0.0
  0
LINE
  5
269C
330
2BE7
100
AcDbEntity
  8
0
 62
     0
100
AcDbLine
 10
-411.5000000000051
 20
-713.0589873745045
 30
0.0
 11
245.8901597236054
 21
-274.8000000000011
 31
0.0
  0
LINE
  5
269D
330
2BE7
100
AcDbEntity
  8
0
 62
     0
100
AcDbLine
 10
241.390198429719
 20
-274.8000000000029
 30
0.0
 11
411.4999999999908
 21
-161.3937552061798
 31
0.0
  0
LINE
  5
269E
330
2BE7
100
AcDbEntity
  8
0
 62
     0
100
AcDbLine
 10
-411.5000000000051
 20
-710.0590208390895
 30
0.0
 11
241.390198429719
 21
-274.8000000000029
 31
0.0
  0
LINE
  5
269F
330
2BE7
100
AcDbEntity
  8
0
 62
     0
100
AcDbLine
 10
236.8902371358345
 20
-274.8000000000011
 30
0.0
 11
411.4999999999927
 21
-158.3937886707626
 31
0.0
  0
LINE
  5
26A0
330
2BE7
100
AcDbEntity
  8
0
 62
     0
100
AcDbLine
 10
-411.5000000000051
 20
-707.0590543036724
 30
0.0
 11
236.8902371358345
 21
-274.8000000000011
 31
0.0
  0
LINE
  5
26A1
330
2BE7
100
AcDbEntity
  8
0
 62
     0
100
AcDbLine
 10
232.3902758419481
 20
-274.8000000000029
 30
0.0
 11
411.4999999999908
 21
-155.3938221353473
 31
0.0
  0
LINE
  5
26A2
330
2BE7
100
AcDbEntity
  8
0
 62
     0
100
AcDbLine
 10
-411.5000000000051
 20
-704.059087768257
 30
0.0
 11
232.3902758419481
 21
-274.8000000000029
 31
0.0
  0
LINE
  5
26A3
330
2BE7
100
AcDbEntity
  8
0
 62
     0
100
AcDbLine
 10
227.8903145480617
 20
-274.8000000000011
 30
0.0
 11
411.4999999999908
 21
-152.3938555999302
 31
0.0
  0
LINE
  5
26A4
330
2BE7
100
AcDbEntity
  8
0
 62
     0
100
AcDbLine
 10
-411.5000000000073
 20
-701.0591212328399
 30
0.0
 11
227.8903145480599
 21
-274.8000000000029
 31
0.0
  0
LINE
  5
26A5
330
2BE7
100
AcDbEntity
  8
0
 62
     0
100
AcDbLine
 10
223.3903532541772
 20
-274.8000000000029
 30
0.0
 11
411.4999999999927
 21
-149.3938890645148
 31
0.0
  0
LINE
  5
26A6
330
2BE7
100
AcDbEntity
  8
0
 62
     0
100
AcDbLine
 10
-411.5000000000051
 20
-698.0591546974244
 30
0.0
 11
223.3903532541772
 21
-274.8000000000029
 31
0.0
  0
LINE
  5
26A7
330
2BE7
100
AcDbEntity
  8
0
 62
     0
100
AcDbLine
 10
218.8903919602908
 20
-274.8000000000011
 30
0.0
 11
411.4999999999908
 21
-146.3939225290978
 31
0.0
  0
LINE
  5
26A8
330
2BE7
100
AcDbEntity
  8
0
 62
     0
100
AcDbLine
 10
-411.5000000000051
 20
-695.0591881620074
 30
0.0
 11
218.890391960289
 21
-274.8000000000029
 31
0.0
  0
LINE
  5
26A9
330
2BE7
100
AcDbEntity
  8
0
 62
     0
100
AcDbLine
 10
214.3904306664063
 20
-274.8000000000029
 30
0.0
 11
411.4999999999927
 21
-143.3939559936825
 31
0.0
  0
LINE
  5
26AA
330
2BE7
100
AcDbEntity
  8
0
 62
     0
100
AcDbLine
 10
-411.5000000000036
 20
-692.0592216265921
 30
0.0
 11
214.3904306664063
 21
-274.8000000000029
 31
0.0
  0
LINE
  5
26AB
330
2BE7
100
AcDbEntity
  8
0
 62
     0
100
AcDbLine
 10
209.8904693725199
 20
-274.8000000000011
 30
0.0
 11
411.4999999999908
 21
-140.3939894582654
 31
0.0
  0
LINE
  5
26AC
330
2BE7
100
AcDbEntity
  8
0
 62
     0
100
AcDbLine
 10
-411.5000000000051
 20
-689.0592550911752
 30
0.0
 11
209.890469372518
 21
-274.8000000000029
 31
0.0
  0
LINE
  5
26AD
330
2BE7
100
AcDbEntity
  8
0
 62
     0
100
AcDbLine
 10
205.3905080786353
 20
-274.8000000000011
 30
0.0
 11
411.4999999999927
 21
-137.3940229228501
 31
0.0
  0
LINE
  5
26AE
330
2BE7
100
AcDbEntity
  8
0
 62
     0
100
AcDbLine
 10
-411.5000000000036
 20
-686.059288555758
 30
0.0
 11
205.3905080786353
 21
-274.8000000000011
 31
0.0
  0
LINE
  5
26AF
330
2BE7
100
AcDbEntity
  8
0
 62
     0
100
AcDbLine
 10
200.890546784749
 20
-274.8000000000011
 30
0.0
 11
411.4999999999908
 21
-134.3940563874348
 31
0.0
  0
LINE
  5
26B0
330
2BE7
100
AcDbEntity
  8
0
 62
     0
100
AcDbLine
 10
-411.5000000000051
 20
-683.0593220203427
 30
0.0
 11
200.8905467847471
 21
-274.8000000000029
 31
0.0
  0
LINE
  5
26B1
330
2BE7
100
AcDbEntity
  8
0
 62
     0
100
AcDbLine
 10
196.3905854908626
 20
-274.8000000000011
 30
0.0
 11
411.4999999999908
 21
-131.3940898520177
 31
0.0
  0
LINE
  5
26B2
330
2BE7
100
AcDbEntity
  8
0
 62
     0
100
AcDbLine
 10
-411.5000000000051
 20
-680.0593554849256
 30
0.0
 11
196.3905854908626
 21
-274.8000000000011
 31
0.0
  0
LINE
  5
26B3
330
2BE7
100
AcDbEntity
  8
0
 62
     0
100
AcDbLine
 10
195.6999999999971
 20
-272.2604226162111
 30
0.0
 11
411.4999999999908
 21
-128.3941233166024
 31
0.0
  0
LINE
  5
26B4
330
2BE7
100
AcDbEntity
  8
0
 62
     0
100
AcDbLine
 10
-411.5000000000051
 20
-677.0593889495121
 30
0.0
 11
195.6999999999952
 21
-272.2604226162129
 31
0.0
  0
LINE
  5
26B5
330
2BE7
100
AcDbEntity
  8
0
 62
     0
100
AcDbLine
 10
195.6999999999952
 20
-269.2604560807957
 30
0.0
 11
411.4999999999927
 21
-125.3941567811835
 31
0.0
  0
LINE
  5
26B6
330
2BE7
100
AcDbEntity
  8
0
 62
     0
100
AcDbLine
 10
-411.5000000000051
 20
-674.0594224140932
 30
0.0
 11
195.6999999999933
 21
-269.2604560807977
 31
0.0
  0
LINE
  5
26B7
330
2BE7
100
AcDbEntity
  8
0
 62
     0
100
AcDbLine
 10
195.6999999999971
 20
-266.2604895453806
 30
0.0
 11
411.4999999999927
 21
-122.3941902457682
 31
0.0
  0
LINE
  5
26B8
330
2BE7
100
AcDbEntity
  8
0
 62
     0
100
AcDbLine
 10
-411.5000000000051
 20
-671.0594558786795
 30
0.0
 11
195.6999999999952
 21
-266.2604895453824
 31
0.0
  0
LINE
  5
26B9
330
2BE7
100
AcDbEntity
  8
0
 62
     0
100
AcDbLine
 10
195.6999999999971
 20
-263.2605230099634
 30
0.0
 11
411.4999999999927
 21
-119.3942237103529
 31
0.0
  0
LINE
  5
26BA
330
2BE7
100
AcDbEntity
  8
0
 62
     0
100
AcDbLine
 10
-411.5000000000051
 20
-668.0594893432607
 30
0.0
 11
195.6999999999952
 21
-263.2605230099634
 31
0.0
  0
LINE
  5
26BB
330
2BE7
100
AcDbEntity
  8
0
 62
     0
100
AcDbLine
 10
195.6999999999971
 20
-260.2605564745481
 30
0.0
 11
411.4999999999908
 21
-116.3942571749376
 31
0.0
  0
LINE
  5
26BC
330
2BE7
100
AcDbEntity
  8
0
 62
     0
100
AcDbLine
 10
-411.5000000000036
 20
-665.0595228078453
 30
0.0
 11
195.6999999999952
 21
-260.26055647455
 31
0.0
  0
LINE
  5
26BD
330
2BE7
100
AcDbEntity
  8
0
 62
     0
100
AcDbLine
 10
195.6999999999971
 20
-257.260589939131
 30
0.0
 11
411.4999999999927
 21
-113.3942906395205
 31
0.0
  0
LINE
  5
26BE
330
2BE7
100
AcDbEntity
  8
0
 62
     0
100
AcDbLine
 10
-411.5000000000051
 20
-662.0595562724282
 30
0.0
 11
195.6999999999952
 21
-257.260589939131
 31
0.0
  0
LINE
  5
26BF
330
2BE7
100
AcDbEntity
  8
0
 62
     0
100
AcDbLine
 10
195.6999999999952
 20
-254.2606234037157
 30
0.0
 11
411.4999999999908
 21
-110.3943241041052
 31
0.0
  0
LINE
  5
26C0
330
2BE7
100
AcDbEntity
  8
0
 62
     0
100
AcDbLine
 10
-411.5000000000051
 20
-659.0595897370149
 30
0.0
 11
195.6999999999933
 21
-254.2606234037176
 31
0.0
  0
LINE
  5
26C1
330
2BE7
100
AcDbEntity
  8
0
 62
     0
100
AcDbLine
 10
195.6999999999971
 20
-251.2606568682986
 30
0.0
 11
411.4999999999927
 21
-107.394357568688
 31
0.0
  0
LINE
  5
26C2
330
2BE7
100
AcDbEntity
  8
0
 62
     0
100
AcDbLine
 10
-411.5000000000051
 20
-656.0596232015978
 30
0.0
 11
195.6999999999952
 21
-251.2606568683004
 31
0.0
  0
LINE
  5
26C3
330
2BE7
100
AcDbEntity
  8
0
 62
     0
100
AcDbLine
 10
195.6999999999952
 20
-248.2606903328833
 30
0.0
 11
411.4999999999908
 21
-104.3943910332727
 31
0.0
  0
LINE
  5
26C4
330
2BE7
100
AcDbEntity
  8
0
 62
     0
100
AcDbLine
 10
-411.5000000000051
 20
-653.0596566661825
 30
0.0
 11
195.6999999999952
 21
-248.2606903328851
 31
0.0
  0
LINE
  5
26C5
330
2BE7
100
AcDbEntity
  8
0
 62
     0
100
AcDbLine
 10
195.6999999999971
 20
-245.2607237974662
 30
0.0
 11
411.4999999999908
 21
-101.3944244978556
 31
0.0
  0
LINE
  5
26C6
330
2BE7
100
AcDbEntity
  8
0
 62
     0
100
AcDbLine
 10
-411.5000000000073
 20
-650.0596901307654
 30
0.0
 11
195.6999999999933
 21
-245.260723797468
 31
0.0
  0
LINE
  5
26C7
330
2BE7
100
AcDbEntity
  8
0
 62
     0
100
AcDbLine
 10
195.6999999999952
 20
-242.2607572620492
 30
0.0
 11
411.4999999999908
 21
-98.3944579624385
 31
0.0
  0
LINE
  5
26C8
330
2BE7
100
AcDbEntity
  8
0
 62
     0
100
AcDbLine
 10
-411.5000000000036
 20
-647.0597235953463
 30
0.0
 11
195.6999999999952
 21
-242.2607572620509
 31
0.0
  0
LINE
  5
26C9
330
2BE7
100
AcDbEntity
  8
0
 62
     0
100
AcDbLine
 10
195.6999999999971
 20
-239.2607907266337
 30
0.0
 11
411.4999999999908
 21
-95.39449142702324
 31
0.0
  0
LINE
  5
26CA
330
2BE7
100
AcDbEntity
  8
0
 62
     0
100
AcDbLine
 10
-411.5000000000073
 20
-644.0597570599329
 30
0.0
 11
195.6999999999933
 21
-239.2607907266356
 31
0.0
  0
LINE
  5
26CB
330
2BE7
100
AcDbEntity
  8
0
 62
     0
100
AcDbLine
 10
195.6999999999971
 20
-236.2608241912167
 30
0.0
 11
411.4999999999927
 21
-92.39452489160612
 31
0.0
  0
LINE
  5
26CC
330
2BE7
100
AcDbEntity
  8
0
 62
     0
100
AcDbLine
 10
-411.5000000000051
 20
-641.0597905245158
 30
0.0
 11
195.6999999999933
 21
-236.2608241912185
 31
0.0
  0
LINE
  5
26CD
330
2BE7
100
AcDbEntity
  8
0
 62
     0
100
AcDbLine
 10
195.6999999999971
 20
-233.2608576558014
 30
0.0
 11
411.4999999999908
 21
-89.39455835619082
 31
0.0
  0
LINE
  5
26CE
330
2BE7
100
AcDbEntity
  8
0
 62
     0
100
AcDbLine
 10
-411.5000000000051
 20
-638.0598239891005
 30
0.0
 11
195.6999999999933
 21
-233.2608576558032
 31
0.0
  0
LINE
  5
26CF
330
2BE7
100
AcDbEntity
  8
0
 62
     0
100
AcDbLine
 10
195.6999999999971
 20
-230.2608911203843
 30
0.0
 11
411.4999999999927
 21
-86.39459182077374
 31
0.0
  0
LINE
  5
26D0
330
2BE7
100
AcDbEntity
  8
0
 62
     0
100
AcDbLine
 10
-411.5000000000036
 20
-635.0598574536834
 30
0.0
 11
195.6999999999952
 21
-230.2608911203861
 31
0.0
  0
LINE
  5
26D1
330
2BE7
100
AcDbEntity
  8
0
 62
     0
100
AcDbLine
 10
195.6999999999971
 20
-227.260924584969
 30
0.0
 11
411.4999999999908
 21
-83.39462528535841
 31
0.0
  0
LINE
  5
26D2
330
2BE7
100
AcDbEntity
  8
0
 62
     0
100
AcDbLine
 10
-411.5000000000051
 20
-632.0598909182681
 30
0.0
 11
195.6999999999933
 21
-227.2609245849708
 31
0.0
  0
LINE
  5
26D3
330
2BE7
100
AcDbEntity
  8
0
 62
     0
100
AcDbLine
 10
195.6999999999952
 20
-224.2609580495519
 30
0.0
 11
410.5919858062643
 21
-81.00000000000182
 31
0.0
  0
LINE
  5
26D4
330
2BE7
100
AcDbEntity
  8
0
 62
     0
100
AcDbLine
 10
-411.5000000000051
 20
-629.059924382851
 30
0.0
 11
195.6999999999933
 21
-224.2609580495537
 31
0.0
  0
LINE
  5
26D5
330
2BE7
100
AcDbEntity
  8
0
 62
     0
100
AcDbLine
 10
195.6999999999971
 20
-221.2609915141364
 30
0.0
 11
406.0920245123797
 21
-81.00000000000362
 31
0.0
  0
LINE
  5
26D6
330
2BE7
100
AcDbEntity
  8
0
 62
     0
100
AcDbLine
 10
-411.5000000000051
 20
-626.0599578474356
 30
0.0
 11
195.6999999999952
 21
-221.2609915141384
 31
0.0
  0
LINE
  5
26D7
330
2BE7
100
AcDbEntity
  8
0
 62
     0
100
AcDbLine
 10
195.6999999999971
 20
-218.2610249787194
 30
0.0
 11
401.592063218495
 21
-81.00000000000182
 31
0.0
  0
LINE
  5
26D8
330
2BE7
100
AcDbEntity
  8
0
 62
     0
100
AcDbLine
 10
-411.5000000000051
 20
-623.0599913120185
 30
0.0
 11
195.6999999999933
 21
-218.2610249787213
 31
0.0
  0
LINE
  5
26D9
330
2BE7
100
AcDbEntity
  8
0
 62
     0
100
AcDbLine
 10
195.6999999999971
 20
-215.2610584433059
 30
0.0
 11
397.0921019246089
 21
-81.00000000000182
 31
0.0
  0
LINE
  5
26DA
330
2BE7
100
AcDbEntity
  8
0
 62
     0
100
AcDbLine
 10
-411.5000000000051
 20
-620.0600247766032
 30
0.0
 11
195.6999999999952
 21
-215.2610584433059
 31
0.0
  0
LINE
  5
26DB
330
2BE7
100
AcDbEntity
  8
0
 62
     0
100
AcDbLine
 10
195.6999999999971
 20
-212.261091907887
 30
0.0
 11
392.5921406307225
 21
-81.00000000000182
 31
0.0
  0
LINE
  5
26DC
330
2BE7
100
AcDbEntity
  8
0
 62
     0
100
AcDbLine
 10
-411.5000000000051
 20
-617.0600582411862
 30
0.0
 11
195.6999999999933
 21
-212.2610919078888
 31
0.0
  0
LINE
  5
26DD
330
2BE7
100
AcDbEntity
  8
0
 62
     0
100
AcDbLine
 10
195.6999999999971
 20
-209.2611253724736
 30
0.0
 11
388.092179336838
 21
-81.00000000000362
 31
0.0
  0
LINE
  5
26DE
330
2BE7
100
AcDbEntity
  8
0
 62
     0
100
AcDbLine
 10
-411.5000000000051
 20
-614.0600917057728
 30
0.0
 11
195.6999999999952
 21
-209.2611253724736
 31
0.0
  0
LINE
  5
26DF
330
2BE7
100
AcDbEntity
  8
0
 62
     0
100
AcDbLine
 10
195.6999999999971
 20
-206.2611588370546
 30
0.0
 11
383.5922180429534
 21
-81.00000000000182
 31
0.0
  0
LINE
  5
26E0
330
2BE7
100
AcDbEntity
  8
0
 62
     0
100
AcDbLine
 10
-411.5000000000051
 20
-611.0601251703556
 30
0.0
 11
195.6999999999933
 21
-206.2611588370582
 31
0.0
  0
LINE
  5
26E1
330
2BE7
100
AcDbEntity
  8
0
 62
     0
100
AcDbLine
 10
195.6999999999952
 20
-203.2611923016393
 30
0.0
 11
379.0922567490651
 21
-81.00000000000182
 31
0.0
  0
LINE
  5
26E2
330
2BE7
100
AcDbEntity
  8
0
 62
     0
100
AcDbLine
 10
-411.5000000000051
 20
-608.0601586349366
 30
0.0
 11
195.6999999999952
 21
-203.2611923016393
 31
0.0
  0
LINE
  5
26E3
330
2BE7
100
AcDbEntity
  8
0
 62
     0
100
AcDbLine
 10
195.6999999999971
 20
-200.261225766224
 30
0.0
 11
374.5922954551807
 21
-81.00000000000182
 31
0.0
  0
LINE
  5
26E4
330
2BE7
100
AcDbEntity
  8
0
 62
     0
100
AcDbLine
 10
-411.5000000000051
 20
-605.0601920995212
 30
0.0
 11
195.6999999999933
 21
-200.2612257662258
 31
0.0
  0
LINE
  5
26E5
330
2BE7
100
AcDbEntity
  8
0
 62
     0
100
AcDbLine
 10
195.6999999999952
 20
-197.2612592308087
 30
0.0
 11
370.0923341612943
 21
-81.00000000000362
 31
0.0
  0
LINE
  5
26E6
330
2BE7
100
AcDbEntity
  8
0
 62
     0
100
AcDbLine
 10
-411.5000000000051
 20
-602.0602255641059
 30
0.0
 11
195.6999999999952
 21
-197.2612592308087
 31
0.0
  0
LINE
  5
26E7
330
2BE7
100
AcDbEntity
  8
0
 62
     0
100
AcDbLine
 10
195.6999999999971
 20
-194.2612926953916
 30
0.0
 11
365.5923728674114
 21
-81.00000000000182
 31
0.0
  0
LINE
  5
26E8
330
2BE7
100
AcDbEntity
  8
0
 62
     0
100
AcDbLine
 10
-411.5000000000051
 20
-599.0602590286888
 30
0.0
 11
195.6999999999952
 21
-194.2612926953916
 31
0.0
  0
LINE
  5
26E9
330
2BE7
100
AcDbEntity
  8
0
 62
     0
100
AcDbLine
 10
195.6999999999952
 20
-191.2613261599745
 30
0.0
 11
361.0924115735234
 21
-81.00000000000182
 31
0.0
  0
LINE
  5
26EA
330
2BE7
100
AcDbEntity
  8
0
 62
     0
100
AcDbLine
 10
-411.5000000000051
 20
-596.0602924932736
 30
0.0
 11
195.6999999999952
 21
-191.2613261599763
 31
0.0
  0
LINE
  5
26EB
330
2BE7
100
AcDbEntity
  8
0
 62
     0
100
AcDbLine
 10
195.6999999999971
 20
-188.2613596245591
 30
0.0
 11
356.5924502796388
 21
-81.00000000000362
 31
0.0
  0
LINE
  5
26EC
330
2BE7
100
AcDbEntity
  8
0
 62
     0
100
AcDbLine
 10
-411.5000000000051
 20
-593.0603259578584
 30
0.0
 11
195.6999999999952
 21
-188.261359624561
 31
0.0
  0
LINE
  5
26ED
330
2BE7
100
AcDbEntity
  8
0
 62
     0
100
AcDbLine
 10
195.6999999999971
 20
-185.261393089142
 30
0.0
 11
352.0924889857543
 21
-81.0
 31
0.0
  0
LINE
  5
26EE
330
2BE7
100
AcDbEntity
  8
0
 62
     0
100
AcDbLine
 10
-411.5000000000051
 20
-590.0603594224413
 30
0.0
 11
195.6999999999952
 21
-185.2613930891438
 31
0.0
  0
LINE
  5
26EF
330
2BE7
100
AcDbEntity
  8
0
 62
     0
100
AcDbLine
 10
195.6999999999952
 20
-182.2614265537268
 30
0.0
 11
347.5925276918679
 21
-81.00000000000182
 31
0.0
  0
LINE
  5
26F0
330
2BE7
100
AcDbEntity
  8
0
 62
     0
100
AcDbLine
 10
-411.5000000000051
 20
-587.0603928870241
 30
0.0
 11
195.6999999999916
 21
-182.2614265537286
 31
0.0
  0
LINE
  5
26F1
330
2BE7
100
AcDbEntity
  8
0
 62
     0
100
AcDbLine
 10
195.6999999999952
 20
-179.2614600183096
 30
0.0
 11
343.0925663979833
 21
-81.00000000000182
 31
0.0
  0
LINE
  5
26F2
330
2BE7
100
AcDbEntity
  8
0
 62
     0
100
AcDbLine
 10
-411.5000000000051
 20
-584.0604263516087
 30
0.0
 11
195.6999999999952
 21
-179.2614600183115
 31
0.0
  0
LINE
  5
26F3
330
2BE7
100
AcDbEntity
  8
0
 62
     0
100
AcDbLine
 10
195.6999999999952
 20
-176.2614934828943
 30
0.0
 11
338.5926051040952
 21
-81.00000000000362
 31
0.0
  0
LINE
  5
26F4
330
2BE7
100
AcDbEntity
  8
0
 62
     0
100
AcDbLine
 10
-411.5000000000051
 20
-581.0604598161936
 30
0.0
 11
195.6999999999916
 21
-176.2614934828978
 31
0.0
  0
LINE
  5
26F5
330
2BE7
100
AcDbEntity
  8
0
 62
     0
100
AcDbLine
 10
195.6999999999933
 20
-173.261526947479
 30
0.0
 11
334.0926438102088
 21
-81.00000000000362
 31
0.0
  0
LINE
  5
26F6
330
2BE7
100
AcDbEntity
  8
0
 62
     0
100
AcDbLine
 10
-411.5000000000051
 20
-578.0604932807761
 30
0.0
 11
195.6999999999916
 21
-173.261526947479
 31
0.0
  0
LINE
  5
26F7
330
2BE7
100
AcDbEntity
  8
0
 62
     0
100
AcDbLine
 10
195.6999999999952
 20
-170.2615604120637
 30
0.0
 11
329.592682516326
 21
-81.00000000000182
 31
0.0
  0
LINE
  5
26F8
330
2BE7
100
AcDbEntity
  8
0
 62
     0
100
AcDbLine
 10
-411.5000000000051
 20
-575.0605267453611
 30
0.0
 11
195.6999999999933
 21
-170.2615604120637
 31
0.0
  0
LINE
  5
26F9
330
2BE7
100
AcDbEntity
  8
0
 62
     0
100
AcDbLine
 10
195.6999999999933
 20
-167.2615938766466
 30
0.0
 11
325.0927212224397
 21
-81.00000000000182
 31
0.0
  0
LINE
  5
26FA
330
2BE7
100
AcDbEntity
  8
0
 62
     0
100
AcDbLine
 10
-411.5000000000051
 20
-572.060560209944
 30
0.0
 11
195.6999999999916
 21
-167.2615938766466
 31
0.0
  0
LINE
  5
26FB
330
2BE7
100
AcDbEntity
  8
0
 62
     0
100
AcDbLine
 10
195.6999999999952
 20
-164.2616273412295
 30
0.0
 11
320.5927599285532
 21
-81.00000000000182
 31
0.0
  0
LINE
  5
26FC
330
2BE7
100
AcDbEntity
  8
0
 62
     0
100
AcDbLine
 10
-411.5000000000051
 20
-569.0605936745269
 30
0.0
 11
195.6999999999933
 21
-164.2616273412295
 31
0.0
  0
LINE
  5
26FD
330
2BE7
100
AcDbEntity
  8
0
 62
     0
100
AcDbLine
 10
195.6999999999933
 20
-161.2616608058142
 30
0.0
 11
316.0927986346668
 21
-81.00000000000362
 31
0.0
  0
LINE
  5
26FE
330
2BE7
100
AcDbEntity
  8
0
 62
     0
100
AcDbLine
 10
-411.5000000000051
 20
-566.0606271391116
 30
0.0
 11
195.6999999999916
 21
-161.2616608058161
 31
0.0
  0
LINE
  5
26FF
330
2BE7
100
AcDbEntity
  8
0
 62
     0
100
AcDbLine
 10
195.6999999999952
 20
-158.2616942703989
 30
0.0
 11
311.5928373407842
 21
-81.00000000000362
 31
0.0
  0
LINE
  5
2700
330
2BE7
100
AcDbEntity
  8
0
 62
     0
100
AcDbLine
 10
-411.5000000000051
 20
-563.0606606036963
 30
0.0
 11
195.6999999999933
 21
-158.2616942704007
 31
0.0
  0
LINE
  5
2701
330
2BE7
100
AcDbEntity
  8
0
 62
     0
100
AcDbLine
 10
195.6999999999952
 20
-155.2617277349818
 30
0.0
 11
307.0928760468978
 21
-81.00000000000182
 31
0.0
  0
LINE
  5
2702
330
2BE7
100
AcDbEntity
  8
0
 62
     0
100
AcDbLine
 10
-411.5000000000051
 20
-560.0606940682792
 30
0.0
 11
195.6999999999916
 21
-155.2617277349836
 31
0.0
  0
LINE
  5
2703
330
2BE7
100
AcDbEntity
  8
0
 62
     0
100
AcDbLine
 10
195.6999999999952
 20
-152.2617611995647
 30
0.0
 11
302.5929147530097
 21
-81.00000000000182
 31
0.0
  0
LINE
  5
2704
330
2BE7
100
AcDbEntity
  8
0
 62
     0
100
AcDbLine
 10
-411.5000000000073
 20
-557.0607275328621
 30
0.0
 11
195.6999999999933
 21
-152.2617611995647
 31
0.0
  0
LINE
  5
2705
330
2BE7
100
AcDbEntity
  8
0
 62
     0
100
AcDbLine
 10
195.6999999999952
 20
-149.2617946641494
 30
0.0
 11
298.0929534591269
 21
-81.00000000000362
 31
0.0
  0
LINE
  5
2706
330
2BE7
100
AcDbEntity
  8
0
 62
     0
100
AcDbLine
 10
-411.5000000000051
 20
-554.0607609974465
 30
0.0
 11
195.6999999999916
 21
-149.2617946641512
 31
0.0
  0
LINE
  5
2707
330
2BE7
100
AcDbEntity
  8
0
 62
     0
100
AcDbLine
 10
195.6999999999952
 20
-146.2618281287323
 30
0.0
 11
293.5929921652387
 21
-81.00000000000182
 31
0.0
  0
LINE
  5
2708
330
2BE7
100
AcDbEntity
  8
0
 62
     0
100
AcDbLine
 10
-411.5000000000073
 20
-551.0607944620312
 30
0.0
 11
195.6999999999933
 21
-146.2618281287323
 31
0.0
  0
LINE
  5
2709
330
2BE7
100
AcDbEntity
  8
0
 62
     0
100
AcDbLine
 10
195.6999999999952
 20
-143.261861593317
 30
0.0
 11
289.093030871356
 21
-81.00000000000362
 31
0.0
  0
LINE
  5
270A
330
2BE7
100
AcDbEntity
  8
0
 62
     0
100
AcDbLine
 10
-411.5000000000051
 20
-548.0608279266142
 30
0.0
 11
195.6999999999933
 21
-143.2618615933188
 31
0.0
  0
LINE
  5
270B
330
2BE7
100
AcDbEntity
  8
0
 62
     0
100
AcDbLine
 10
195.6999999999952
 20
-140.2618950578998
 30
0.0
 11
284.5930695774677
 21
-81.00000000000362
 31
0.0
  0
LINE
  5
270C
330
2BE7
100
AcDbEntity
  8
0
 62
     0
100
AcDbLine
 10
-411.5000000000051
 20
-545.0608613911972
 30
0.0
 11
195.6999999999933
 21
-140.2618950579017
 31
0.0
  0
LINE
  5
270D
330
2BE7
100
AcDbEntity
  8
0
 62
     0
100
AcDbLine
 10
195.6999999999952
 20
-137.2619285224846
 30
0.0
 11
280.093108283585
 21
-81.00000000000362
 31
0.0
  0
LINE
  5
270E
330
2BE7
100
AcDbEntity
  8
0
 62
     0
100
AcDbLine
 10
-411.5000000000051
 20
-542.060894855782
 30
0.0
 11
195.6999999999933
 21
-137.2619285224864
 31
0.0
  0
LINE
  5
270F
330
2BE7
100
AcDbEntity
  8
0
 62
     0
100
AcDbLine
 10
195.6999999999952
 20
-134.2619619870675
 30
0.0
 11
275.5931469896968
 21
-81.00000000000362
 31
0.0
  0
LINE
  5
2710
330
2BE7
100
AcDbEntity
  8
0
 62
     0
100
AcDbLine
 10
-411.5000000000051
 20
-539.0609283203648
 30
0.0
 11
195.6999999999933
 21
-134.2619619870693
 31
0.0
  0
LINE
  5
2711
330
2BE7
100
AcDbEntity
  8
0
 62
     0
100
AcDbLine
 10
195.6999999999933
 20
-131.2619954516522
 30
0.0
 11
271.0931856958123
 21
-81.00000000000362
 31
0.0
  0
LINE
  5
2712
330
2BE7
100
AcDbEntity
  8
0
 62
     0
100
AcDbLine
 10
-411.5000000000073
 20
-536.0609617849497
 30
0.0
 11
195.6999999999916
 21
-131.261995451654
 31
0.0
  0
LINE
  5
2713
330
2BE7
100
AcDbEntity
  8
0
 62
     0
100
AcDbLine
 10
195.6999999999952
 20
-128.262028916235
 30
0.0
 11
266.5932244019259
 21
-81.00000000000362
 31
0.0
  0
LINE
  5
2714
330
2BE7
100
AcDbEntity
  8
0
 62
     0
100
AcDbLine
 10
-411.5000000000051
 20
-533.0609952495342
 30
0.0
 11
195.6999999999933
 21
-128.2620289162369
 31
0.0
  0
LINE
  5
2715
330
2BE7
100
AcDbEntity
  8
0
 62
     0
100
AcDbLine
 10
195.6999999999952
 20
-125.2620623808178
 30
0.0
 11
262.0932631080395
 21
-81.00000000000362
 31
0.0
  0
LINE
  5
2716
330
2BE7
100
AcDbEntity
  8
0
 62
     0
100
AcDbLine
 10
-411.5000000000073
 20
-530.0610287141171
 30
0.0
 11
195.6999999999933
 21
-125.2620623808198
 31
0.0
  0
LINE
  5
2717
330
2BE7
100
AcDbEntity
  8
0
 62
     0
100
AcDbLine
 10
195.6999999999952
 20
-122.2620958454026
 30
0.0
 11
257.593301814155
 21
-81.00000000000362
 31
0.0
  0
LINE
  5
2718
330
2BE7
100
AcDbEntity
  8
0
 62
     0
100
AcDbLine
 10
-411.5000000000036
 20
-527.0610621787
 30
0.0
 11
195.6999999999933
 21
-122.2620958454045
 31
0.0
  0
LINE
  5
2719
330
2BE7
100
AcDbEntity
  8
0
 62
     0
100
AcDbLine
 10
195.6999999999952
 20
-119.2621293099873
 30
0.0
 11
253.0933405202704
 21
-81.00000000000362
 31
0.0
  0
LINE
  5
271A
330
2BE7
100
AcDbEntity
  8
0
 62
     0
100
AcDbLine
 10
-411.5000000000073
 20
-524.0610956432865
 30
0.0
 11
195.6999999999933
 21
-119.2621293099892
 31
0.0
  0
LINE
  5
271B
330
2BE7
100
AcDbEntity
  8
0
 62
     0
100
AcDbLine
 10
195.6999999999933
 20
-116.2621627745702
 30
0.0
 11
248.593379226384
 21
-81.00000000000182
 31
0.0
  0
LINE
  5
271C
330
2BE7
100
AcDbEntity
  8
0
 62
     0
100
AcDbLine
 10
-411.5000000000051
 20
-521.0611291078675
 30
0.0
 11
195.6999999999916
 21
-116.262162774572
 31
0.0
  0
LINE
  5
271D
330
2BE7
100
AcDbEntity
  8
0
 62
     0
100
AcDbLine
 10
195.6999999999952
 20
-113.2621962391531
 30
0.0
 11
244.0934179324995
 21
-81.00000000000182
 31
0.0
  0
LINE
  5
271E
330
2BE7
100
AcDbEntity
  8
0
 62
     0
100
AcDbLine
 10
-411.5000000000051
 20
-518.061162572452
 30
0.0
 11
195.6999999999933
 21
-113.2621962391549
 31
0.0
  0
LINE
  5
271F
330
2BE7
100
AcDbEntity
  8
0
 62
     0
100
AcDbLine
 10
195.6999999999933
 20
-110.2622297037396
 30
0.0
 11
239.5934566386131
 21
-81.00000000000182
 31
0.0
  0
LINE
  5
2720
330
2BE7
100
AcDbEntity
  8
0
 62
     0
100
AcDbLine
 10
-411.5000000000051
 20
-515.061196037037
 30
0.0
 11
195.6999999999916
 21
-110.2622297037396
 31
0.0
  0
LINE
  5
2721
330
2BE7
100
AcDbEntity
  8
0
 62
     0
100
AcDbLine
 10
195.6999999999971
 20
-107.2622631683207
 30
0.0
 11
235.0934953447286
 21
-81.00000000000182
 31
0.0
  0
LINE
  5
2722
330
2BE7
100
AcDbEntity
  8
0
 62
     0
100
AcDbLine
 10
-411.5000000000051
 20
-512.06122950162
 30
0.0
 11
195.6999999999933
 21
-107.2622631683225
 31
0.0
  0
LINE
  5
2723
330
2BE7
100
AcDbEntity
  8
0
 62
     0
100
AcDbLine
 10
195.6999999999933
 20
-104.2622966329072
 30
0.0
 11
230.5935340508404
 21
-81.00000000000362
 31
0.0
  0
LINE
  5
2724
330
2BE7
100
AcDbEntity
  8
0
 62
     0
100
AcDbLine
 10
-411.5000000000051
 20
-509.0612629662045
 30
0.0
 11
195.6999999999916
 21
-104.2622966329072
 31
0.0
  0
LINE
  5
2725
330
2BE7
100
AcDbEntity
  8
0
 62
     0
100
AcDbLine
 10
195.6999999999933
 20
-101.2623300974901
 30
0.0
 11
226.0935727569558
 21
-81.00000000000182
 31
0.0
  0
LINE
  5
2726
330
2BE7
100
AcDbEntity
  8
0
 62
     0
100
AcDbLine
 10
-411.5000000000073
 20
-506.0612964307872
 30
0.0
 11
195.6999999999916
 21
-101.2623300974901
 31
0.0
  0
LINE
  5
2727
330
2BE7
100
AcDbEntity
  8
0
 62
     0
100
AcDbLine
 10
195.6999999999933
 20
-98.26236356207481
 30
0.0
 11
221.5936114630695
 21
-81.00000000000362
 31
0.0
  0
LINE
  5
2728
330
2BE7
100
AcDbEntity
  8
0
 62
     0
100
AcDbLine
 10
-411.5000000000051
 20
-503.0613298953722
 30
0.0
 11
195.6999999999916
 21
-98.26236356207665
 31
0.0
  0
LINE
  5
2729
330
2BE7
100
AcDbEntity
  8
0
 62
     0
100
AcDbLine
 10
195.6999999999952
 20
-95.26239702665771
 30
0.0
 11
217.0936501691849
 21
-81.00000000000362
 31
0.0
  0
LINE
  5
272A
330
2BE7
100
AcDbEntity
  8
0
 62
     0
100
AcDbLine
 10
-411.5000000000051
 20
-500.0613633599551
 30
0.0
 11
195.6999999999916
 21
-95.26239702665952
 31
0.0
  0
LINE
  5
272B
330
2BE7
100
AcDbEntity
  8
0
 62
     0
100
AcDbLine
 10
195.6999999999952
 20
-92.2624304912424
 30
0.0
 11
212.5936888752984
 21
-81.00000000000362
 31
0.0
  0
LINE
  5
272C
330
2BE7
100
AcDbEntity
  8
0
 62
     0
100
AcDbLine
 10
-411.5000000000051
 20
-497.0613968245396
 30
0.0
 11
195.6999999999933
 21
-92.2624304912424
 31
0.0
  0
LINE
  5
272D
330
2BE7
100
AcDbEntity
  8
0
 62
     0
100
AcDbLine
 10
195.6999999999952
 20
-89.26246395582529
 30
0.0
 11
208.093727581414
 21
-81.00000000000362
 31
0.0
  0
LINE
  5
272E
330
2BE7
100
AcDbEntity
  8
0
 62
     0
100
AcDbLine
 10
-411.5000000000051
 20
-494.0614302891225
 30
0.0
 11
195.6999999999916
 21
-89.2624639558271
 31
0.0
  0
LINE
  5
272F
330
2BE7
100
AcDbEntity
  8
0
 62
     0
100
AcDbLine
 10
195.6999999999952
 20
-86.26249742040814
 30
0.0
 11
203.5937662875276
 21
-81.00000000000182
 31
0.0
  0
LINE
  5
2730
330
2BE7
100
AcDbEntity
  8
0
 62
     0
100
AcDbLine
 10
-411.5000000000051
 20
-491.0614637537055
 30
0.0
 11
195.6999999999933
 21
-86.26249742040814
 31
0.0
  0
LINE
  5
2731
330
2BE7
100
AcDbEntity
  8
0
 62
     0
100
AcDbLine
 10
195.6999999999952
 20
-83.26253088499287
 30
0.0
 11
199.093804993643
 21
-81.00000000000362
 31
0.0
  0
LINE
  5
2732
330
2BE7
100
AcDbEntity
  8
0
 62
     0
100
AcDbLine
 10
-411.5000000000051
 20
-488.0614972182901
 30
0.0
 11
195.6999999999933
 21
-83.26253088499287
 31
0.0
  0
LINE
  5
2733
330
2BE7
100
AcDbEntity
  8
0
 62
     0
100
AcDbLine
 10
-411.5000000000073
 20
-485.0615306828749
 30
0.0
 11
194.5938436997567
 21
-81.00000000000362
 31
0.0
  0
LINE
  5
2734
330
2BE7
100
AcDbEntity
  8
0
 62
     0
100
AcDbLine
 10
-411.5000000000051
 20
-482.0615641474576
 30
0.0
 11
190.0938824058721
 21
-81.00000000000362
 31
0.0
  0
LINE
  5
2735
330
2BE7
100
AcDbEntity
  8
0
 62
     0
100
AcDbLine
 10
-411.5000000000073
 20
-479.0615976120407
 30
0.0
 11
185.5939211119857
 21
-81.00000000000182
 31
0.0
  0
LINE
  5
2736
330
2BE7
100
AcDbEntity
  8
0
 62
     0
100
AcDbLine
 10
-411.5000000000051
 20
-476.0616310766254
 30
0.0
 11
181.0939598181012
 21
-81.00000000000362
 31
0.0
  0
LINE
  5
2737
330
2BE7
100
AcDbEntity
  8
0
 62
     0
100
AcDbLine
 10
-411.5000000000073
 20
-473.0616645412101
 30
0.0
 11
176.5939985242148
 21
-81.00000000000182
 31
0.0
  0
LINE
  5
2738
330
2BE7
100
AcDbEntity
  8
0
 62
     0
100
AcDbLine
 10
-411.5000000000051
 20
-470.0616980057948
 30
0.0
 11
172.0940372303303
 21
-81.00000000000362
 31
0.0
  0
LINE
  5
2739
330
2BE7
100
AcDbEntity
  8
0
 62
     0
100
AcDbLine
 10
-411.5000000000073
 20
-467.0617314703776
 30
0.0
 11
167.5940759364439
 21
-81.00000000000182
 31
0.0
  0
LINE
  5
273A
330
2BE7
100
AcDbEntity
  8
0
 62
     0
100
AcDbLine
 10
-411.5000000000073
 20
-464.0617649349624
 30
0.0
 11
163.0941146425575
 21
-81.00000000000362
 31
0.0
  0
LINE
  5
273B
330
2BE7
100
AcDbEntity
  8
0
 62
     0
100
AcDbLine
 10
-411.5000000000051
 20
-461.0617983995431
 30
0.0
 11
158.594153348673
 21
-81.00000000000362
 31
0.0
  0
LINE
  5
273C
330
2BE7
100
AcDbEntity
  8
0
 62
     0
100
AcDbLine
 10
-411.5000000000051
 20
-458.0618318641277
 30
0.0
 11
154.0941920547866
 21
-81.00000000000362
 31
0.0
  0
LINE
  5
273D
330
2BE7
100
AcDbEntity
  8
0
 62
     0
100
AcDbLine
 10
-411.5000000000073
 20
-455.0618653287128
 30
0.0
 11
149.5942307609002
 21
-81.00000000000362
 31
0.0
  0
LINE
  5
273E
330
2BE7
100
AcDbEntity
  8
0
 62
     0
100
AcDbLine
 10
-411.5000000000051
 20
-452.0618987932976
 30
0.0
 11
145.0942694670157
 21
-81.00000000000362
 31
0.0
  0
LINE
  5
273F
330
2BE7
100
AcDbEntity
  8
0
 62
     0
100
AcDbLine
 10
-411.5000000000073
 20
-449.0619322578805
 30
0.0
 11
140.5943081731292
 21
-81.00000000000362
 31
0.0
  0
LINE
  5
2740
330
2BE7
100
AcDbEntity
  8
0
 62
     0
100
AcDbLine
 10
-411.5000000000051
 20
-446.0619657224651
 30
0.0
 11
136.0943468792466
 21
-81.00000000000362
 31
0.0
  0
LINE
  5
2741
330
2BE7
100
AcDbEntity
  8
0
 62
     0
100
AcDbLine
 10
-411.5000000000073
 20
-443.061999187048
 30
0.0
 11
131.5943855853584
 21
-81.00000000000362
 31
0.0
  0
LINE
  5
2742
330
2BE7
100
AcDbEntity
  8
0
 62
     0
100
AcDbLine
 10
-411.5000000000051
 20
-440.0620326516309
 30
0.0
 11
127.0944242914756
 21
-81.00000000000182
 31
0.0
  0
LINE
  5
2743
330
2BE7
100
AcDbEntity
  8
0
 62
     0
100
AcDbLine
 10
-411.5000000000073
 20
-437.0620661162154
 30
0.0
 11
122.5944629975893
 21
-81.00000000000362
 31
0.0
  0
LINE
  5
2744
330
2BE7
100
AcDbEntity
  8
0
 62
     0
100
AcDbLine
 10
-411.5000000000073
 20
-434.0620995807983
 30
0.0
 11
118.0945017037029
 21
-81.00000000000182
 31
0.0
  0
LINE
  5
2745
330
2BE7
100
AcDbEntity
  8
0
 62
     0
100
AcDbLine
 10
-411.5000000000051
 20
-431.0621330453832
 30
0.0
 11
113.5945404098183
 21
-81.00000000000362
 31
0.0
  0
LINE
  5
2746
330
2BE7
100
AcDbEntity
  8
0
 62
     0
100
AcDbLine
 10
-411.5000000000073
 20
-428.0621665099658
 30
0.0
 11
109.094579115932
 21
-81.00000000000182
 31
0.0
  0
LINE
  5
2747
330
2BE7
100
AcDbEntity
  8
0
 62
     0
100
AcDbLine
 10
-411.5000000000051
 20
-425.0621999745507
 30
0.0
 11
104.5946178220474
 21
-81.00000000000362
 31
0.0
  0
LINE
  5
2748
330
2BE7
100
AcDbEntity
  8
0
 62
     0
100
AcDbLine
 10
-411.5000000000073
 20
-422.0622334391337
 30
0.0
 11
100.0946565281592
 21
-81.00000000000362
 31
0.0
  0
LINE
  5
2749
330
2BE7
100
AcDbEntity
  8
0
 62
     0
100
AcDbLine
 10
-411.5000000000051
 20
-419.0622669037183
 30
0.0
 11
95.59469523427653
 21
-81.00000000000362
 31
0.0
  0
LINE
  5
274A
330
2BE7
100
AcDbEntity
  8
0
 62
     0
100
AcDbLine
 10
-411.5000000000073
 20
-416.0623003683012
 30
0.0
 11
91.09473394038833
 21
-81.00000000000362
 31
0.0
  0
LINE
  5
274B
330
2BE7
100
AcDbEntity
  8
0
 62
     0
100
AcDbLine
 10
-411.5000000000051
 20
-413.0623338328858
 30
0.0
 11
86.59477264650377
 21
-81.00000000000362
 31
0.0
  0
LINE
  5
274C
330
2BE7
100
AcDbEntity
  8
0
 62
     0
100
AcDbLine
 10
-411.5000000000073
 20
-410.0623672974704
 30
0.0
 11
82.09481135261922
 21
-81.00000000000362
 31
0.0
  0
LINE
  5
274D
330
2BE7
100
AcDbEntity
  8
0
 62
     0
100
AcDbLine
 10
-411.5000000000051
 20
-407.0624007620535
 30
0.0
 11
77.59485005873283
 21
-81.00000000000362
 31
0.0
  0
LINE
  5
274E
330
2BE7
100
AcDbEntity
  8
0
 62
     0
100
AcDbLine
 10
-411.5000000000073
 20
-404.0624342266378
 30
0.0
 11
73.09488876484829
 21
-81.00000000000362
 31
0.0
  0
LINE
  5
274F
330
2BE7
100
AcDbEntity
  8
0
 62
     0
100
AcDbLine
 10
-411.5000000000051
 20
-401.0624676912193
 30
0.0
 11
68.59492747096192
 21
-81.00000000000182
 31
0.0
  0
LINE
  5
2750
330
2BE7
100
AcDbEntity
  8
0
 62
     0
100
AcDbLine
 10
-411.5000000000073
 20
-398.0625011558041
 30
0.0
 11
64.09496617707553
 21
-81.00000000000362
 31
0.0
  0
LINE
  5
2751
330
2BE7
100
AcDbEntity
  8
0
 62
     0
100
AcDbLine
 10
-411.5000000000051
 20
-395.0625346203869
 30
0.0
 11
59.59500488319282
 21
-81.00000000000182
 31
0.0
  0
LINE
  5
2752
330
2BE7
100
AcDbEntity
  8
0
 62
     0
100
AcDbLine
 10
-411.5000000000073
 20
-392.0625680849735
 30
0.0
 11
55.09504358930461
 21
-81.00000000000362
 31
0.0
  0
LINE
  5
2753
330
2BE7
100
AcDbEntity
  8
0
 62
     0
100
AcDbLine
 10
-411.5000000000051
 20
-389.0626015495564
 30
0.0
 11
50.59508229542188
 21
-81.00000000000182
 31
0.0
  0
LINE
  5
2754
330
2BE7
100
AcDbEntity
  8
0
 62
     0
100
AcDbLine
 10
-411.5000000000051
 20
-386.0626350141392
 30
0.0
 11
46.09512100153369
 21
-81.00000000000362
 31
0.0
  0
LINE
  5
2755
330
2BE7
100
AcDbEntity
  8
0
 62
     0
100
AcDbLine
 10
-411.5000000000073
 20
-383.0626684787239
 30
0.0
 11
41.59515970764732
 21
-81.00000000000362
 31
0.0
  0
LINE
  5
2756
330
2BE7
100
AcDbEntity
  8
0
 62
     0
100
AcDbLine
 10
-411.5000000000051
 20
-380.0627019433068
 30
0.0
 11
37.09519841376277
 21
-81.00000000000362
 31
0.0
  0
LINE
  5
2757
330
2BE7
100
AcDbEntity
  8
0
 62
     0
100
AcDbLine
 10
-411.5000000000073
 20
-377.0627354078915
 30
0.0
 11
32.5952371198764
 21
-81.00000000000362
 31
0.0
  0
LINE
  5
2758
330
2BE7
100
AcDbEntity
  8
0
 62
     0
100
AcDbLine
 10
-411.5000000000051
 20
-374.0627688724743
 30
0.0
 11
28.09527582599185
 21
-81.00000000000182
 31
0.0
  0
LINE
  5
2759
330
2BE7
100
AcDbEntity
  8
0
 62
     0
100
AcDbLine
 10
-411.5000000000073
 20
-371.0628023370591
 30
0.0
 11
23.59531453210729
 21
-81.00000000000362
 31
0.0
  0
LINE
  5
275A
330
2BE7
100
AcDbEntity
  8
0
 62
     0
100
AcDbLine
 10
-411.5000000000051
 20
-368.0628358016438
 30
0.0
 11
19.09535323822272
 21
-81.00000000000362
 31
0.0
  0
LINE
  5
275B
330
2BE7
100
AcDbEntity
  8
0
 62
     0
100
AcDbLine
 10
-411.5000000000073
 20
-365.0628692662266
 30
0.0
 11
14.59539194433637
 21
-81.00000000000362
 31
0.0
  0
LINE
  5
275C
330
2BE7
100
AcDbEntity
  8
0
 62
     0
100
AcDbLine
 10
-411.5000000000073
 20
-362.0629027308096
 30
0.0
 11
10.09543065045
 21
-81.00000000000182
 31
0.0
  0
LINE
  5
275D
330
2BE7
100
AcDbEntity
  8
0
 62
     0
100
AcDbLine
 10
-411.5000000000051
 20
-359.0629361953943
 30
0.0
 11
5.595469356565445
 21
-81.00000000000362
 31
0.0
  0
LINE
  5
275E
330
2BE7
100
AcDbEntity
  8
0
 62
     0
100
AcDbLine
 10
-411.5000000000073
 20
-356.0629696599773
 30
0.0
 11
1.095508062679072
 21
-81.00000000000182
 31
0.0
  0
LINE
  5
275F
330
2BE7
100
AcDbEntity
  8
0
 62
     0
100
AcDbLine
 10
-411.5000000000051
 20
-353.0630031245618
 30
0.0
 11
-3.404453231205478
 21
-81.00000000000362
 31
0.0
  0
LINE
  5
2760
330
2BE7
100
AcDbEntity
  8
0
 62
     0
100
AcDbLine
 10
-411.5000000000051
 20
-350.0630365891447
 30
0.0
 11
-7.90441452509367
 21
-81.00000000000362
 31
0.0
  0
LINE
  5
2761
330
2BE7
100
AcDbEntity
  8
0
 62
     0
100
AcDbLine
 10
-411.5000000000051
 20
-347.0630700537295
 30
0.0
 11
-12.4043758189764
 21
-81.00000000000362
 31
0.0
  0
LINE
  5
2762
330
2BE7
100
AcDbEntity
  8
0
 62
     0
100
AcDbLine
 10
-411.5000000000051
 20
-344.0631035183124
 30
0.0
 11
-16.90433711286459
 21
-81.00000000000362
 31
0.0
  0
LINE
  5
2763
330
2BE7
100
AcDbEntity
  8
0
 62
     0
100
AcDbLine
 10
-411.5000000000073
 20
-341.063136982897
 30
0.0
 11
-21.40429840674915
 21
-81.00000000000362
 31
0.0
  0
LINE
  5
2764
330
2BE7
100
AcDbEntity
  8
0
 62
     0
100
AcDbLine
 10
-411.5000000000051
 20
-338.0631704474799
 30
0.0
 11
-25.90425970063552
 21
-81.00000000000362
 31
0.0
  0
LINE
  5
2765
330
2BE7
100
AcDbEntity
  8
0
 62
     0
100
AcDbLine
 10
-411.5000000000073
 20
-335.0632039120628
 30
0.0
 11
-30.40422099452007
 21
-81.00000000000182
 31
0.0
  0
LINE
  5
2766
330
2BE7
100
AcDbEntity
  8
0
 62
     0
100
AcDbLine
 10
-411.5000000000073
 20
-332.0632373766475
 30
0.0
 11
-34.90418228840645
 21
-81.00000000000182
 31
0.0
  0
LINE
  5
2767
330
2BE7
100
AcDbEntity
  8
0
 62
     0
100
AcDbLine
 10
-411.5000000000073
 20
-329.063270841234
 30
0.0
 11
-39.40414358228918
 21
-81.00000000000362
 31
0.0
  0
LINE
  5
2768
330
2BE7
100
AcDbEntity
  8
0
 62
     0
100
AcDbLine
 10
-411.5000000000073
 20
-326.0633043058151
 30
0.0
 11
-43.90410487617737
 21
-81.00000000000362
 31
0.0
  0
LINE
  5
2769
330
2BE7
100
AcDbEntity
  8
0
 62
     0
100
AcDbLine
 10
-411.5000000000051
 20
-323.063337770398
 30
0.0
 11
-48.4040661700601
 21
-81.00000000000182
 31
0.0
  0
LINE
  5
276A
330
2BE7
100
AcDbEntity
  8
0
 62
     0
100
AcDbLine
 10
-411.5000000000073
 20
-320.0633712349827
 30
0.0
 11
-52.90402746394828
 21
-81.00000000000362
 31
0.0
  0
LINE
  5
276B
330
2BE7
100
AcDbEntity
  8
0
 62
     0
100
AcDbLine
 10
-411.5000000000051
 20
-317.0634046995674
 30
0.0
 11
-57.40398875783103
 21
-81.00000000000362
 31
0.0
  0
LINE
  5
276C
330
2BE7
100
AcDbEntity
  8
0
 62
     0
100
AcDbLine
 10
-411.5000000000073
 20
-314.0634381641521
 30
0.0
 11
-61.90395005171922
 21
-81.00000000000362
 31
0.0
  0
LINE
  5
276D
330
2BE7
100
AcDbEntity
  8
0
 62
     0
100
AcDbLine
 10
-411.5000000000073
 20
-311.0634716287349
 30
0.0
 11
-66.40391134560559
 21
-81.00000000000362
 31
0.0
  0
LINE
  5
276E
330
2BE7
100
AcDbEntity
  8
0
 62
     0
100
AcDbLine
 10
-411.5000000000073
 20
-308.0635050933197
 30
0.0
 11
-70.90387263949016
 21
-81.00000000000362
 31
0.0
  0
LINE
  5
276F
330
2BE7
100
AcDbEntity
  8
0
 62
     0
100
AcDbLine
 10
-411.5000000000051
 20
-305.0635385579008
 30
0.0
 11
-75.40383393337652
 21
-81.00000000000362
 31
0.0
  0
LINE
  5
2770
330
2BE7
100
AcDbEntity
  8
0
 62
     0
100
AcDbLine
 10
-411.5000000000073
 20
-302.0635720224873
 30
0.0
 11
-79.90379522726107
 21
-81.00000000000362
 31
0.0
  0
LINE
  5
2771
330
2BE7
100
AcDbEntity
  8
0
 62
     0
100
AcDbLine
 10
-411.5000000000051
 20
-299.0636054870682
 30
0.0
 11
-84.40375652114743
 21
-81.00000000000362
 31
0.0
  0
LINE
  5
2772
330
2BE7
100
AcDbEntity
  8
0
 62
     0
100
AcDbLine
 10
-411.5000000000051
 20
-296.0636389516531
 30
0.0
 11
-88.90371781503198
 21
-81.00000000000182
 31
0.0
  0
LINE
  5
2773
330
2BE7
100
AcDbEntity
  8
0
 62
     0
100
AcDbLine
 10
-411.5000000000051
 20
-293.0636724162377
 30
0.0
 11
-93.40367910891655
 21
-81.00000000000182
 31
0.0
  0
LINE
  5
2774
330
2BE7
100
AcDbEntity
  8
0
 62
     0
100
AcDbLine
 10
-411.5000000000073
 20
-290.0637058808225
 30
0.0
 11
-97.90364040280293
 21
-81.00000000000362
 31
0.0
  0
LINE
  5
2775
330
2BE7
100
AcDbEntity
  8
0
 62
     0
100
AcDbLine
 10
-411.5000000000051
 20
-287.0637393454052
 30
0.0
 11
-102.4036016966874
 21
-81.00000000000182
 31
0.0
  0
LINE
  5
2776
330
2BE7
100
AcDbEntity
  8
0
 62
     0
100
AcDbLine
 10
-411.5000000000073
 20
-284.0637728099882
 30
0.0
 11
-106.9035629905738
 21
-81.00000000000182
 31
0.0
  0
LINE
  5
2777
330
2BE7
100
AcDbEntity
  8
0
 62
     0
100
AcDbLine
 10
-411.5000000000051
 20
-281.0638062745729
 30
0.0
 11
-111.4035242844584
 21
-81.00000000000362
 31
0.0
  0
LINE
  5
2778
330
2BE7
100
AcDbEntity
  8
0
 62
     0
100
AcDbLine
 10
-411.5000000000051
 20
-278.0638397391576
 30
0.0
 11
-115.9034855783448
 21
-81.00000000000362
 31
0.0
  0
LINE
  5
2779
330
2BE7
100
AcDbEntity
  8
0
 62
     0
100
AcDbLine
 10
-411.5000000000073
 20
-275.0638732037405
 30
0.0
 11
-120.4034468722311
 21
-81.00000000000362
 31
0.0
  0
LINE
  5
277A
330
2BE7
100
AcDbEntity
  8
0
 62
     0
100
AcDbLine
 10
-411.5000000000051
 20
-272.0639066683234
 30
0.0
 11
-124.9034081661175
 21
-81.00000000000362
 31
0.0
  0
LINE
  5
277B
330
2BE7
100
AcDbEntity
  8
0
 62
     0
100
AcDbLine
 10
-411.5000000000073
 20
-269.0639401329081
 30
0.0
 11
-129.4033694600002
 21
-81.00000000000182
 31
0.0
  0
LINE
  5
277C
330
2BE7
100
AcDbEntity
  8
0
 62
     0
100
AcDbLine
 10
-411.5000000000051
 20
-266.063973597491
 30
0.0
 11
-133.9033307538866
 21
-81.00000000000182
 31
0.0
  0
LINE
  5
277D
330
2BE7
100
AcDbEntity
  8
0
 62
     0
100
AcDbLine
 10
-411.5000000000073
 20
-263.0640070620757
 30
0.0
 11
-138.403292047773
 21
-81.00000000000362
 31
0.0
  0
LINE
  5
277E
330
2BE7
100
AcDbEntity
  8
0
 62
     0
100
AcDbLine
 10
-411.5000000000073
 20
-260.0640405266586
 30
0.0
 11
-142.9032533416612
 21
-81.00000000000362
 31
0.0
  0
LINE
  5
277F
330
2BE7
100
AcDbEntity
  8
0
 62
     0
100
AcDbLine
 10
-411.5000000000073
 20
-257.0640739912414
 30
0.0
 11
-147.4032146355421
 21
-81.0
 31
0.0
  0
LINE
  5
2780
330
2BE7
100
AcDbEntity
  8
0
 62
     0
100
AcDbLine
 10
-411.5000000000073
 20
-254.0641074558262
 30
0.0
 11
-151.9031759294302
 21
-81.00000000000182
 31
0.0
  0
LINE
  5
2781
330
2BE7
100
AcDbEntity
  8
0
 62
     0
100
AcDbLine
 10
-411.5000000000051
 20
-251.0641409204108
 30
0.0
 11
-156.4031372233148
 21
-81.00000000000362
 31
0.0
  0
LINE
  5
2782
330
2BE7
100
AcDbEntity
  8
0
 62
     0
100
AcDbLine
 10
-411.5000000000051
 20
-248.0641743849937
 30
0.0
 11
-160.9030985171994
 21
-81.00000000000182
 31
0.0
  0
LINE
  5
2783
330
2BE7
100
AcDbEntity
  8
0
 62
     0
100
AcDbLine
 10
-411.5000000000051
 20
-245.0642078495766
 30
0.0
 11
-165.4030598110838
 21
-81.00000000000182
 31
0.0
  0
LINE
  5
2784
330
2BE7
100
AcDbEntity
  8
0
 62
     0
100
AcDbLine
 10
-411.5000000000051
 20
-242.0642413141612
 30
0.0
 11
-169.9030211049721
 21
-81.00000000000362
 31
0.0
  0
LINE
  5
2785
330
2BE7
100
AcDbEntity
  8
0
 62
     0
100
AcDbLine
 10
-411.5000000000073
 20
-239.064274778746
 30
0.0
 11
-174.4029823988585
 21
-81.00000000000362
 31
0.0
  0
LINE
  5
2786
330
2BE7
100
AcDbEntity
  8
0
 62
     0
100
AcDbLine
 10
-411.5000000000051
 20
-236.0643082433289
 30
0.0
 11
-178.9029436927412
 21
-81.00000000000182
 31
0.0
  0
LINE
  5
2787
330
2BE7
100
AcDbEntity
  8
0
 62
     0
100
AcDbLine
 10
-411.5000000000073
 20
-233.0643417079136
 30
0.0
 11
-183.4029049866276
 21
-81.00000000000182
 31
0.0
  0
LINE
  5
2788
330
2BE7
100
AcDbEntity
  8
0
 62
     0
100
AcDbLine
 10
-411.5000000000051
 20
-230.0643751724983
 30
0.0
 11
-187.902866280514
 21
-81.00000000000362
 31
0.0
  0
LINE
  5
2789
330
2BE7
100
AcDbEntity
  8
0
 62
     0
100
AcDbLine
 10
-411.5000000000073
 20
-227.0644086370812
 30
0.0
 11
-192.4028275744003
 21
-81.00000000000362
 31
0.0
  0
LINE
  5
278A
330
2BE7
100
AcDbEntity
  8
0
 62
     0
100
AcDbLine
 10
-411.5000000000036
 20
-224.0644421016641
 30
0.0
 11
-196.9027888682849
 21
-81.00000000000362
 31
0.0
  0
LINE
  5
278B
330
2BE7
100
AcDbEntity
  8
0
 62
     0
100
AcDbLine
 10
-411.5000000000051
 20
-221.064475566247
 30
0.0
 11
-201.4027501621695
 21
-81.00000000000182
 31
0.0
  0
LINE
  5
278C
330
2BE7
100
AcDbEntity
  8
0
 62
     0
100
AcDbLine
 10
-411.5000000000051
 20
-218.0645090308336
 30
0.0
 11
-205.9027114560576
 21
-81.00000000000362
 31
0.0
  0
LINE
  5
278D
330
2BE7
100
AcDbEntity
  8
0
 62
     0
100
AcDbLine
 10
-411.5000000000051
 20
-215.0645424954164
 30
0.0
 11
-210.4026727499422
 21
-81.00000000000362
 31
0.0
  0
LINE
  5
278E
330
2BE7
100
AcDbEntity
  8
0
 62
     0
100
AcDbLine
 10
-411.5000000000073
 20
-212.0645759600011
 30
0.0
 11
-214.9026340438268
 21
-81.00000000000182
 31
0.0
  0
LINE
  5
278F
330
2BE7
100
AcDbEntity
  8
0
 62
     0
100
AcDbLine
 10
-411.5000000000073
 20
-209.064609424584
 30
0.0
 11
-219.4025953377131
 21
-81.00000000000182
 31
0.0
  0
LINE
  5
2790
330
2BE7
100
AcDbEntity
  8
0
 62
     0
100
AcDbLine
 10
-411.5000000000073
 20
-206.0646428891669
 30
0.0
 11
-223.9025566315995
 21
-81.00000000000182
 31
0.0
  0
LINE
  5
2791
330
2BE7
100
AcDbEntity
  8
0
 62
     0
100
AcDbLine
 10
-411.5000000000073
 20
-203.0646763537516
 30
0.0
 11
-228.4025179254821
 21
-81.00000000000182
 31
0.0
  0
LINE
  5
2792
330
2BE7
100
AcDbEntity
  8
0
 62
     0
100
AcDbLine
 10
-411.5000000000073
 20
-200.0647098183363
 30
0.0
 11
-232.9024792193686
 21
-81.00000000000362
 31
0.0
  0
LINE
  5
2793
330
2BE7
100
AcDbEntity
  8
0
 62
     0
100
AcDbLine
 10
-411.5000000000051
 20
-197.0647432829191
 30
0.0
 11
-237.402440513255
 21
-81.00000000000362
 31
0.0
  0
LINE
  5
2794
330
2BE7
100
AcDbEntity
  8
0
 62
     0
100
AcDbLine
 10
-411.5000000000051
 20
-194.0647767475019
 30
0.0
 11
-241.9024018071395
 21
-81.00000000000182
 31
0.0
  0
LINE
  5
2795
330
2BE7
100
AcDbEntity
  8
0
 62
     0
100
AcDbLine
 10
-411.5000000000051
 20
-191.0648102120867
 30
0.0
 11
-246.4023631010277
 21
-81.00000000000362
 31
0.0
  0
LINE
  5
2796
330
2BE7
100
AcDbEntity
  8
0
 62
     0
100
AcDbLine
 10
-411.5000000000073
 20
-188.0648436766696
 30
0.0
 11
-250.9023243949123
 21
-81.00000000000182
 31
0.0
  0
LINE
  5
2797
330
2BE7
100
AcDbEntity
  8
0
 62
     0
100
AcDbLine
 10
-411.5000000000051
 20
-185.0648771412543
 30
0.0
 11
-255.4022856887968
 21
-81.00000000000362
 31
0.0
  0
LINE
  5
2798
330
2BE7
100
AcDbEntity
  8
0
 62
     0
100
AcDbLine
 10
-411.5000000000073
 20
-182.0649106058372
 30
0.0
 11
-259.9022469826832
 21
-81.00000000000362
 31
0.0
  0
LINE
  5
2799
330
2BE7
100
AcDbEntity
  8
0
 62
     0
100
AcDbLine
 10
-411.5000000000051
 20
-179.0649440704218
 30
0.0
 11
-264.4022082765696
 21
-81.00000000000362
 31
0.0
  0
LINE
  5
279A
330
2BE7
100
AcDbEntity
  8
0
 62
     0
100
AcDbLine
 10
-411.5000000000073
 20
-176.0649775350048
 30
0.0
 11
-268.9021695704541
 21
-81.00000000000182
 31
0.0
  0
LINE
  5
279B
330
2BE7
100
AcDbEntity
  8
0
 62
     0
100
AcDbLine
 10
-411.5000000000051
 20
-173.0650109995913
 30
0.0
 11
-273.4021308643387
 21
-81.00000000000362
 31
0.0
  0
LINE
  5
279C
330
2BE7
100
AcDbEntity
  8
0
 62
     0
100
AcDbLine
 10
-411.5000000000051
 20
-170.0650444641724
 30
0.0
 11
-277.9020921582251
 21
-81.00000000000362
 31
0.0
  0
LINE
  5
279D
330
2BE7
100
AcDbEntity
  8
0
 62
     0
100
AcDbLine
 10
-411.5000000000051
 20
-167.0650779287552
 30
0.0
 11
-282.4020534521098
 21
-81.00000000000182
 31
0.0
  0
LINE
  5
279E
330
2BE7
100
AcDbEntity
  8
0
 62
     0
100
AcDbLine
 10
-411.5000000000051
 20
-164.0651113933399
 30
0.0
 11
-286.9020147459961
 21
-81.00000000000182
 31
0.0
  0
LINE
  5
279F
330
2BE7
100
AcDbEntity
  8
0
 62
     0
100
AcDbLine
 10
-411.5000000000051
 20
-161.0651448579247
 30
0.0
 11
-291.4019760398824
 21
-81.00000000000362
 31
0.0
  0
LINE
  5
27A0
330
2BE7
100
AcDbEntity
  8
0
 62
     0
100
AcDbLine
 10
-411.5000000000051
 20
-158.0651783225075
 30
0.0
 11
-295.9019373337668
 21
-81.00000000000362
 31
0.0
  0
LINE
  5
27A1
330
2BE7
100
AcDbEntity
  8
0
 62
     0
100
AcDbLine
 10
-411.5000000000051
 20
-155.0652117870922
 30
0.0
 11
-300.4018986276514
 21
-81.00000000000182
 31
0.0
  0
LINE
  5
27A2
330
2BE7
100
AcDbEntity
  8
0
 62
     0
100
AcDbLine
 10
-411.5000000000073
 20
-152.0652452516769
 30
0.0
 11
-304.9018599215377
 21
-81.00000000000362
 31
0.0
  0
LINE
  5
27A3
330
2BE7
100
AcDbEntity
  8
0
 62
     0
100
AcDbLine
 10
-411.5000000000073
 20
-149.0652787162598
 30
0.0
 11
-309.4018212154242
 21
-81.00000000000182
 31
0.0
  0
LINE
  5
27A4
330
2BE7
100
AcDbEntity
  8
0
 62
     0
100
AcDbLine
 10
-411.5000000000073
 20
-146.0653121808445
 30
0.0
 11
-313.9017825093106
 21
-81.00000000000362
 31
0.0
  0
LINE
  5
27A5
330
2BE7
100
AcDbEntity
  8
0
 62
     0
100
AcDbLine
 10
-411.5000000000051
 20
-143.0653456454256
 30
0.0
 11
-318.401743803197
 21
-81.00000000000362
 31
0.0
  0
LINE
  5
27A6
330
2BE7
100
AcDbEntity
  8
0
 62
     0
100
AcDbLine
 10
-411.5000000000051
 20
-140.065379110012
 30
0.0
 11
-322.9017050970797
 21
-81.00000000000362
 31
0.0
  0
LINE
  5
27A7
330
2BE7
100
AcDbEntity
  8
0
 62
     0
100
AcDbLine
 10
-411.5000000000073
 20
-137.065412574595
 30
0.0
 11
-327.4016663909679
 21
-81.00000000000362
 31
0.0
  0
LINE
  5
27A8
330
2BE7
100
AcDbEntity
  8
0
 62
     0
100
AcDbLine
 10
-411.5000000000051
 20
-134.0654460391797
 30
0.0
 11
-331.9016276848506
 21
-81.00000000000182
 31
0.0
  0
LINE
  5
27A9
330
2BE7
100
AcDbEntity
  8
0
 62
     0
100
AcDbLine
 10
-411.5000000000073
 20
-131.0654795037626
 30
0.0
 11
-336.401588978737
 21
-81.00000000000182
 31
0.0
  0
LINE
  5
27AA
330
2BE7
100
AcDbEntity
  8
0
 62
     0
100
AcDbLine
 10
-411.5000000000051
 20
-128.0655129683455
 30
0.0
 11
-340.9015502726215
 21
-81.00000000000182
 31
0.0
  0
LINE
  5
27AB
330
2BE7
100
AcDbEntity
  8
0
 62
     0
100
AcDbLine
 10
-411.5000000000073
 20
-125.0655464329302
 30
0.0
 11
-345.4015115665098
 21
-81.00000000000362
 31
0.0
  0
LINE
  5
27AC
330
2BE7
100
AcDbEntity
  8
0
 62
     0
100
AcDbLine
 10
-411.5000000000036
 20
-122.0655798975148
 30
0.0
 11
-349.9014728603943
 21
-81.00000000000546
 31
0.0
  0
LINE
  5
27AD
330
2BE7
100
AcDbEntity
  8
0
 62
     0
100
AcDbLine
 10
-411.5000000000073
 20
-119.0656133620978
 30
0.0
 11
-354.4014341542788
 21
-81.00000000000182
 31
0.0
  0
LINE
  5
27AE
330
2BE7
100
AcDbEntity
  8
0
 62
     0
100
AcDbLine
 10
-411.5000000000051
 20
-116.0656468266807
 30
0.0
 11
-358.9013954481652
 21
-81.00000000000182
 31
0.0
  0
LINE
  5
27AF
330
2BE7
100
AcDbEntity
  8
0
 62
     0
100
AcDbLine
 10
-411.5000000000051
 20
-113.0656802912654
 30
0.0
 11
-363.4013567420516
 21
-81.00000000000362
 31
0.0
  0
LINE
  5
27B0
330
2BE7
100
AcDbEntity
  8
0
 62
     0
100
AcDbLine
 10
-411.5000000000051
 20
-110.0657137558482
 30
0.0
 11
-367.9013180359381
 21
-81.00000000000362
 31
0.0
  0
LINE
  5
27B1
330
2BE7
100
AcDbEntity
  8
0
 62
     0
100
AcDbLine
 10
-411.5000000000051
 20
-107.0657472204329
 30
0.0
 11
-372.4012793298208
 21
-81.00000000000362
 31
0.0
  0
LINE
  5
27B2
330
2BE7
100
AcDbEntity
  8
0
 62
     0
100
AcDbLine
 10
-411.5000000000051
 20
-104.0657806850158
 30
0.0
 11
-376.9012406237071
 21
-81.00000000000182
 31
0.0
  0
LINE
  5
27B3
330
2BE7
100
AcDbEntity
  8
0
 62
     0
100
AcDbLine
 10
-411.5000000000051
 20
-101.0658141496005
 30
0.0
 11
-381.4012019175935
 21
-81.00000000000362
 31
0.0
  0
LINE
  5
27B4
330
2BE7
100
AcDbEntity
  8
0
 62
     0
100
AcDbLine
 10
-411.5000000000051
 20
-98.06584761418344
 30
0.0
 11
-385.9011632114762
 21
-81.00000000000182
 31
0.0
  0
LINE
  5
27B5
330
2BE7
100
AcDbEntity
  8
0
 62
     0
100
AcDbLine
 10
-411.5000000000051
 20
-95.06588107876813
 30
0.0
 11
-390.4011245053644
 21
-81.00000000000362
 31
0.0
  0
LINE
  5
27B6
330
2BE7
100
AcDbEntity
  8
0
 62
     0
100
AcDbLine
 10
-411.5000000000073
 20
-92.06591454335285
 30
0.0
 11
-394.9010857992489
 21
-81.00000000000362
 31
0.0
  0
LINE
  5
27B7
330
2BE7
100
AcDbEntity
  8
0
 62
     0
100
AcDbLine
 10
-411.5000000000051
 20
-89.06594800793389
 30
0.0
 11
-399.4010470931371
 21
-81.00000000000182
 31
0.0
  0
LINE
  5
27B8
330
2BE7
100
AcDbEntity
  8
0
 62
     0
100
AcDbLine
 10
-411.5000000000073
 20
-86.06598147251862
 30
0.0
 11
-403.9010083870196
 21
-81.00000000000182
 31
0.0
  0
LINE
  5
27B9
330
2BE7
100
AcDbEntity
  8
0
 62
     0
100
AcDbLine
 10
-411.5000000000051
 20
-83.0660149371033
 30
0.0
 11
-408.4009696809062
 21
-81.00000000000362
 31
0.0
  0
ENDBLK
  5
27BA
330
2BE7
100
AcDbEntity
  8
0
100
AcDbBlockEnd
  0
BLOCK
  5
2BEA
330
2BE9
100
AcDbEntity
  8
0
100
AcDbBlockBegin
  2
*X69
 70
     1
 10
0.0
 20
0.0
 30
0.0
  3
*X69
  1

  0
LINE
  5
27BD
330
2BE9
100
AcDbEntity
  8
0
 62
     0
100
AcDbLine
 10
-411.5000000000025
 20
-768.4311648928224
 30
0.0
 11
-407.6467374998328
 21
-771.0000000000016
 31
0.0
  0
LINE
  5
27BE
330
2BE9
100
AcDbEntity
  8
0
 62
     0
100
AcDbLine
 10
-411.5000000000025
 20
-765.431198357407
 30
0.0
 11
-403.1467762059463
 21
-771.0000000000027
 31
0.0
  0
LINE
  5
27BF
330
2BE9
100
AcDbEntity
  8
0
 62
     0
100
AcDbLine
 10
-411.5000000000036
 20
-762.4312318219889
 30
0.0
 11
-398.6468149120619
 21
-771.0000000000016
 31
0.0
  0
LINE
  5
27C0
330
2BE9
100
AcDbEntity
  8
0
 62
     0
100
AcDbLine
 10
-411.5000000000025
 20
-759.4312652865726
 30
0.0
 11
-394.1468536181757
 21
-771.0000000000016
 31
0.0
  0
LINE
  5
27C1
330
2BE9
100
AcDbEntity
  8
0
 62
     0
100
AcDbLine
 10
-411.5000000000025
 20
-756.4312987511566
 30
0.0
 11
-389.6468923242901
 21
-771.0000000000016
 31
0.0
  0
LINE
  5
27C2
330
2BE9
100
AcDbEntity
  8
0
 62
     0
100
AcDbLine
 10
-411.5000000000025
 20
-753.4313322157394
 30
0.0
 11
-385.1469310304046
 21
-771.0000000000016
 31
0.0
  0
LINE
  5
27C3
330
2BE9
100
AcDbEntity
  8
0
 62
     0
100
AcDbLine
 10
-411.5000000000025
 20
-750.4313656803251
 30
0.0
 11
-380.6469697365192
 21
-771.0000000000016
 31
0.0
  0
LINE
  5
27C4
330
2BE9
100
AcDbEntity
  8
0
 62
     0
100
AcDbLine
 10
-411.5000000000025
 20
-747.431399144908
 30
0.0
 11
-376.1470084426337
 21
-771.0000000000016
 31
0.0
  0
LINE
  5
27C5
330
2BE9
100
AcDbEntity
  8
0
 62
     0
100
AcDbLine
 10
-411.5000000000025
 20
-744.4314326094926
 30
0.0
 11
-371.6470471487482
 21
-771.0000000000027
 31
0.0
  0
LINE
  5
27C6
330
2BE9
100
AcDbEntity
  8
0
 62
     0
100
AcDbLine
 10
-411.5000000000017
 20
-741.4314660740755
 30
0.0
 11
-367.1470858548619
 21
-771.0000000000016
 31
0.0
  0
LINE
  5
27C7
330
2BE9
100
AcDbEntity
  8
0
 62
     0
100
AcDbLine
 10
-411.5000000000017
 20
-738.4314995386604
 30
0.0
 11
-362.6471245609764
 21
-771.0000000000027
 31
0.0
  0
LINE
  5
27C8
330
2BE9
100
AcDbEntity
  8
0
 62
     0
100
AcDbLine
 10
-411.5000000000017
 20
-735.4315330032441
 30
0.0
 11
-358.1471632670919
 21
-771.0000000000004
 31
0.0
  0
LINE
  5
27C9
330
2BE9
100
AcDbEntity
  8
0
 62
     0
100
AcDbLine
 10
-411.5000000000017
 20
-732.4315664678286
 30
0.0
 11
-353.6472019732064
 21
-771.0000000000027
 31
0.0
  0
LINE
  5
27CA
330
2BE9
100
AcDbEntity
  8
0
 62
     0
100
AcDbLine
 10
-411.5000000000036
 20
-729.4315999324108
 30
0.0
 11
-349.1472406793209
 21
-771.0000000000016
 31
0.0
  0
LINE
  5
27CB
330
2BE9
100
AcDbEntity
  8
0
 62
     0
100
AcDbLine
 10
-411.5000000000017
 20
-726.4316333969959
 30
0.0
 11
-344.6472793854355
 21
-771.0000000000027
 31
0.0
  0
LINE
  5
27CC
330
2BE9
100
AcDbEntity
  8
0
 62
     0
100
AcDbLine
 10
-411.5000000000025
 20
-723.4316668615779
 30
0.0
 11
-340.1473180915491
 21
-771.0000000000016
 31
0.0
  0
LINE
  5
27CD
330
2BE9
100
AcDbEntity
  8
0
 62
     0
100
AcDbLine
 10
-411.5000000000025
 20
-720.4317003261618
 30
0.0
 11
-335.6473567976636
 21
-771.0000000000004
 31
0.0
  0
LINE
  5
27CE
330
2BE9
100
AcDbEntity
  8
0
 62
     0
100
AcDbLine
 10
-411.5000000000025
 20
-717.4317337907466
 30
0.0
 11
-331.1473955037783
 21
-771.0000000000016
 31
0.0
  0
LINE
  5
27CF
330
2BE9
100
AcDbEntity
  8
0
 62
     0
100
AcDbLine
 10
-411.5000000000025
 20
-714.4317672553296
 30
0.0
 11
-326.6474342098927
 21
-771.0000000000016
 31
0.0
  0
LINE
  5
27D0
330
2BE9
100
AcDbEntity
  8
0
 62
     0
100
AcDbLine
 10
-411.5000000000025
 20
-711.4318007199146
 30
0.0
 11
-322.1474729160082
 21
-771.0000000000016
 31
0.0
  0
LINE
  5
27D1
330
2BE9
100
AcDbEntity
  8
0
 62
     0
100
AcDbLine
 10
-411.5000000000025
 20
-708.4318341844973
 30
0.0
 11
-317.6475116221217
 21
-771.0000000000016
 31
0.0
  0
LINE
  5
27D2
330
2BE9
100
AcDbEntity
  8
0
 62
     0
100
AcDbLine
 10
-411.5000000000017
 20
-705.4318676490829
 30
0.0
 11
-313.1475503282363
 21
-771.0000000000016
 31
0.0
  0
LINE
  5
27D3
330
2BE9
100
AcDbEntity
  8
0
 62
     0
100
AcDbLine
 10
-411.5000000000025
 20
-702.431901113665
 30
0.0
 11
-308.6475890343499
 21
-771.0000000000016
 31
0.0
  0
LINE
  5
27D4
330
2BE9
100
AcDbEntity
  8
0
 62
     0
100
AcDbLine
 10
-411.5000000000017
 20
-699.4319345782504
 30
0.0
 11
-304.1476277404654
 21
-771.0000000000027
 31
0.0
  0
LINE
  5
27D5
330
2BE9
100
AcDbEntity
  8
0
 62
     0
100
AcDbLine
 10
-411.5000000000025
 20
-696.4319680428322
 30
0.0
 11
-299.6476664465799
 21
-771.0000000000004
 31
0.0
  0
LINE
  5
27D6
330
2BE9
100
AcDbEntity
  8
0
 62
     0
100
AcDbLine
 10
-411.5000000000025
 20
-693.4320015074173
 30
0.0
 11
-295.1477051526945
 21
-771.0000000000027
 31
0.0
  0
LINE
  5
27D7
330
2BE9
100
AcDbEntity
  8
0
 62
     0
100
AcDbLine
 10
-411.5000000000025
 20
-690.4320349720001
 30
0.0
 11
-290.6477438588099
 21
-771.0000000000004
 31
0.0
  0
LINE
  5
27D8
330
2BE9
100
AcDbEntity
  8
0
 62
     0
100
AcDbLine
 10
-411.5000000000017
 20
-687.4320684365857
 30
0.0
 11
-286.1477825649227
 21
-771.0000000000027
 31
0.0
  0
LINE
  5
27D9
330
2BE9
100
AcDbEntity
  8
0
 62
     0
100
AcDbLine
 10
-411.5000000000017
 20
-684.4321019011686
 30
0.0
 11
-281.6478212710381
 21
-771.0000000000016
 31
0.0
  0
LINE
  5
27DA
330
2BE9
100
AcDbEntity
  8
0
 62
     0
100
AcDbLine
 10
-411.5000000000017
 20
-681.4321353657515
 30
0.0
 11
-277.1478599771517
 21
-771.0000000000004
 31
0.0
  0
LINE
  5
27DB
330
2BE9
100
AcDbEntity
  8
0
 62
     0
100
AcDbLine
 10
-411.5000000000017
 20
-678.4321688303362
 30
0.0
 11
-272.6478986832672
 21
-771.0000000000016
 31
0.0
  0
LINE
  5
27DC
330
2BE9
100
AcDbEntity
  8
0
 62
     0
100
AcDbLine
 10
-411.5000000000017
 20
-675.43220229492
 30
0.0
 11
-268.1479373893808
 21
-771.0000000000004
 31
0.0
  0
LINE
  5
27DD
330
2BE9
100
AcDbEntity
  8
0
 62
     0
100
AcDbLine
 10
-411.5000000000017
 20
-672.4322357595045
 30
0.0
 11
-263.6479760954961
 21
-771.0000000000016
 31
0.0
  0
LINE
  5
27DE
330
2BE9
100
AcDbEntity
  8
0
 62
     0
100
AcDbLine
 10
-411.5000000000025
 20
-669.4322692240866
 30
0.0
 11
-259.1480148016089
 21
-771.0000000000016
 31
0.0
  0
LINE
  5
27DF
330
2BE9
100
AcDbEntity
  8
0
 62
     0
100
AcDbLine
 10
-411.5000000000025
 20
-666.4323026886712
 30
0.0
 11
-254.6480535077244
 21
-771.0000000000016
 31
0.0
  0
LINE
  5
27E0
330
2BE9
100
AcDbEntity
  8
0
 62
     0
100
AcDbLine
 10
-411.5000000000025
 20
-663.4323361532543
 30
0.0
 11
-250.148092213838
 21
-771.0000000000016
 31
0.0
  0
LINE
  5
27E1
330
2BE9
100
AcDbEntity
  8
0
 62
     0
100
AcDbLine
 10
-411.5000000000025
 20
-660.4323696178388
 30
0.0
 11
-245.6481309199535
 21
-771.0000000000016
 31
0.0
  0
LINE
  5
27E2
330
2BE9
100
AcDbEntity
  8
0
 62
     0
100
AcDbLine
 10
-411.5000000000025
 20
-657.4324030824227
 30
0.0
 11
-241.1481696260689
 21
-771.0000000000004
 31
0.0
  0
LINE
  5
27E3
330
2BE9
100
AcDbEntity
  8
0
 62
     0
100
AcDbLine
 10
-411.5000000000025
 20
-654.4324365470076
 30
0.0
 11
-236.6482083321824
 21
-771.0000000000027
 31
0.0
  0
LINE
  5
27E4
330
2BE9
100
AcDbEntity
  8
0
 62
     0
100
AcDbLine
 10
-411.5000000000017
 20
-651.4324700115903
 30
0.0
 11
-232.1482470382971
 21
-771.0000000000004
 31
0.0
  0
LINE
  5
27E5
330
2BE9
100
AcDbEntity
  8
0
 62
     0
100
AcDbLine
 10
-411.5000000000017
 20
-648.432503476175
 30
0.0
 11
-227.6482857444107
 21
-771.0000000000027
 31
0.0
  0
LINE
  5
27E6
330
2BE9
100
AcDbEntity
  8
0
 62
     0
100
AcDbLine
 10
-411.5000000000017
 20
-645.4325369407579
 30
0.0
 11
-223.1483244505262
 21
-771.0000000000004
 31
0.0
  0
LINE
  5
27E7
330
2BE9
100
AcDbEntity
  8
0
 62
     0
100
AcDbLine
 10
-411.5000000000025
 20
-642.4325704053407
 30
0.0
 11
-218.6483631566398
 21
-771.0000000000004
 31
0.0
  0
LINE
  5
27E8
330
2BE9
100
AcDbEntity
  8
0
 62
     0
100
AcDbLine
 10
-411.5000000000017
 20
-639.4326038699264
 30
0.0
 11
-214.1484018627552
 21
-771.0000000000016
 31
0.0
  0
LINE
  5
27E9
330
2BE9
100
AcDbEntity
  8
0
 62
     0
100
AcDbLine
 10
-411.5000000000025
 20
-636.4326373345082
 30
0.0
 11
-209.6484405688689
 21
-771.0000000000004
 31
0.0
  0
LINE
  5
27EA
330
2BE9
100
AcDbEntity
  8
0
 62
     0
100
AcDbLine
 10
-411.5000000000017
 20
-633.4326707990931
 30
0.0
 11
-205.1484792749834
 21
-771.0000000000016
 31
0.0
  0
LINE
  5
27EB
330
2BE9
100
AcDbEntity
  8
0
 62
     0
100
AcDbLine
 10
-411.5000000000017
 20
-630.4327042636757
 30
0.0
 11
-200.648517981097
 21
-771.0000000000016
 31
0.0
  0
LINE
  5
27EC
330
2BE9
100
AcDbEntity
  8
0
 62
     0
100
AcDbLine
 10
-411.5000000000017
 20
-627.4327377282616
 30
0.0
 11
-196.1485566872124
 21
-771.0000000000016
 31
0.0
  0
LINE
  5
27ED
330
2BE9
100
AcDbEntity
  8
0
 62
     0
100
AcDbLine
 10
-411.5000000000017
 20
-624.4327711928445
 30
0.0
 11
-191.6485953933261
 21
-771.0000000000016
 31
0.0
  0
LINE
  5
27EE
330
2BE9
100
AcDbEntity
  8
0
 62
     0
100
AcDbLine
 10
-411.5000000000017
 20
-621.4328046574292
 30
0.0
 11
-187.1486340994414
 21
-771.0000000000016
 31
0.0
  0
LINE
  5
27EF
330
2BE9
100
AcDbEntity
  8
0
 62
     0
100
AcDbLine
 10
-411.5000000000008
 20
-618.4328381220121
 30
0.0
 11
-182.6486728055561
 21
-771.0000000000004
 31
0.0
  0
LINE
  5
27F0
330
2BE9
100
AcDbEntity
  8
0
 62
     0
100
AcDbLine
 10
-411.5000000000025
 20
-615.4328715865958
 30
0.0
 11
-178.1487115116697
 21
-771.0000000000016
 31
0.0
  0
LINE
  5
27F1
330
2BE9
100
AcDbEntity
  8
0
 62
     0
100
AcDbLine
 10
-411.5000000000008
 20
-612.4329050511804
 30
0.0
 11
-173.6487502177851
 21
-771.0000000000004
 31
0.0
  0
LINE
  5
27F2
330
2BE9
100
AcDbEntity
  8
0
 62
     0
100
AcDbLine
 10
-411.5000000000025
 20
-609.4329385157642
 30
0.0
 11
-169.1487889238988
 21
-771.0000000000027
 31
0.0
  0
LINE
  5
27F3
330
2BE9
100
AcDbEntity
  8
0
 62
     0
100
AcDbLine
 10
-411.5000000000025
 20
-606.4329719803472
 30
0.0
 11
-164.6488276300142
 21
-771.0000000000004
 31
0.0
  0
LINE
  5
27F4
330
2BE9
100
AcDbEntity
  8
0
 62
     0
100
AcDbLine
 10
-411.5000000000025
 20
-603.433005444932
 30
0.0
 11
-160.1488663361278
 21
-771.0000000000027
 31
0.0
  0
LINE
  5
27F5
330
2BE9
100
AcDbEntity
  8
0
 62
     0
100
AcDbLine
 10
-411.5000000000017
 20
-600.4330389095147
 30
0.0
 11
-155.6489050422424
 21
-771.0000000000004
 31
0.0
  0
LINE
  5
27F6
330
2BE9
100
AcDbEntity
  8
0
 62
     0
100
AcDbLine
 10
-411.5000000000017
 20
-597.4330723740976
 30
0.0
 11
-151.148943748356
 21
-771.0000000000004
 31
0.0
  0
LINE
  5
27F7
330
2BE9
100
AcDbEntity
  8
0
 62
     0
100
AcDbLine
 10
-411.5000000000017
 20
-594.4331058386832
 30
0.0
 11
-146.6489824544715
 21
-771.0000000000016
 31
0.0
  0
LINE
  5
27F8
330
2BE9
100
AcDbEntity
  8
0
 62
     0
100
AcDbLine
 10
-411.5000000000017
 20
-591.4331393032662
 30
0.0
 11
-142.1490211605851
 21
-771.0000000000004
 31
0.0
  0
LINE
  5
27F9
330
2BE9
100
AcDbEntity
  8
0
 62
     0
100
AcDbLine
 10
-411.5000000000017
 20
-588.4331727678507
 30
0.0
 11
-137.6490598667005
 21
-771.0000000000016
 31
0.0
  0
LINE
  5
27FA
330
2BE9
100
AcDbEntity
  8
0
 62
     0
100
AcDbLine
 10
-411.5000000000017
 20
-585.4332062324338
 30
0.0
 11
-133.1490985728142
 21
-771.0000000000016
 31
0.0
  0
LINE
  5
27FB
330
2BE9
100
AcDbEntity
  8
0
 62
     0
100
AcDbLine
 10
-411.5000000000017
 20
-582.4332396970175
 30
0.0
 11
-128.6491372789287
 21
-771.0000000000016
 31
0.0
  0
LINE
  5
27FC
330
2BE9
100
AcDbEntity
  8
0
 62
     0
100
AcDbLine
 10
-411.5000000000008
 20
-579.433273161602
 30
0.0
 11
-124.1491759850442
 21
-771.0000000000004
 31
0.0
  0
LINE
  5
27FD
330
2BE9
100
AcDbEntity
  8
0
 62
     0
100
AcDbLine
 10
-411.5000000000017
 20
-576.4333066261861
 30
0.0
 11
-119.6492146911578
 21
-771.0000000000016
 31
0.0
  0
LINE
  5
27FE
330
2BE9
100
AcDbEntity
  8
0
 62
     0
100
AcDbLine
 10
-411.5000000000017
 20
-573.4333400907687
 30
0.0
 11
-115.1492533972732
 21
-771.0000000000004
 31
0.0
  0
LINE
  5
27FF
330
2BE9
100
AcDbEntity
  8
0
 62
     0
100
AcDbLine
 10
-411.5000000000017
 20
-570.4333735553534
 30
0.0
 11
-110.6492921033887
 21
-771.0000000000004
 31
0.0
  0
LINE
  5
2800
330
2BE9
100
AcDbEntity
  8
0
 62
     0
100
AcDbLine
 10
-411.5000000000017
 20
-567.4334070199365
 30
0.0
 11
-106.1493308095023
 21
-771.0000000000004
 31
0.0
  0
LINE
  5
2801
330
2BE9
100
AcDbEntity
  8
0
 62
     0
100
AcDbLine
 10
-411.5000000000008
 20
-564.4334404845221
 30
0.0
 11
-101.6493695156168
 21
-771.0000000000016
 31
0.0
  0
LINE
  5
2802
330
2BE9
100
AcDbEntity
  8
0
 62
     0
100
AcDbLine
 10
-411.5000000000008
 20
-561.4334739491049
 30
0.0
 11
-97.14940822173048
 21
-771.0000000000004
 31
0.0
  0
LINE
  5
2803
330
2BE9
100
AcDbEntity
  8
0
 62
     0
100
AcDbLine
 10
-411.5000000000008
 20
-558.433507413688
 30
0.0
 11
-92.64944692784412
 21
-771.0000000000004
 31
0.0
  0
LINE
  5
2804
330
2BE9
100
AcDbEntity
  8
0
 62
     0
100
AcDbLine
 10
-411.5000000000025
 20
-555.4335408782717
 30
0.0
 11
-88.14948563395955
 21
-771.0000000000016
 31
0.0
  0
LINE
  5
2805
330
2BE9
100
AcDbEntity
  8
0
 62
     0
100
AcDbLine
 10
-411.5000000000008
 20
-552.4335743428555
 30
0.0
 11
-83.64952434007319
 21
-771.0000000000004
 31
0.0
  0
LINE
  5
2806
330
2BE9
100
AcDbEntity
  8
0
 62
     0
100
AcDbLine
 10
-411.5000000000025
 20
-549.4336078074391
 30
0.0
 11
-79.14956304618861
 21
-771.0000000000016
 31
0.0
  0
LINE
  5
2807
330
2BE9
100
AcDbEntity
  8
0
 62
     0
100
AcDbLine
 10
-411.5000000000017
 20
-546.4336412720231
 30
0.0
 11
-74.64960175230133
 21
-771.0000000000004
 31
0.0
  0
LINE
  5
2808
330
2BE9
100
AcDbEntity
  8
0
 62
     0
100
AcDbLine
 10
-411.5000000000017
 20
-543.4336747366078
 30
0.0
 11
-70.14964045841678
 21
-771.0000000000016
 31
0.0
  0
LINE
  5
2809
330
2BE9
100
AcDbEntity
  8
0
 62
     0
100
AcDbLine
 10
-411.5000000000017
 20
-540.4337082011907
 30
0.0
 11
-65.64967916453042
 21
-771.0000000000016
 31
0.0
  0
LINE
  5
280A
330
2BE9
100
AcDbEntity
  8
0
 62
     0
100
AcDbLine
 10
-411.5000000000017
 20
-537.4337416657754
 30
0.0
 11
-61.14971787064586
 21
-771.0000000000016
 31
0.0
  0
LINE
  5
280B
330
2BE9
100
AcDbEntity
  8
0
 62
     0
100
AcDbLine
 10
-411.5000000000017
 20
-534.4337751303583
 30
0.0
 11
-56.64975657676132
 21
-771.0000000000004
 31
0.0
  0
LINE
  5
280C
330
2BE9
100
AcDbEntity
  8
0
 62
     0
100
AcDbLine
 10
-411.5000000000017
 20
-531.4338085949438
 30
0.0
 11
-52.14979528287678
 21
-771.0000000000004
 31
0.0
  0
LINE
  5
280D
330
2BE9
100
AcDbEntity
  8
0
 62
     0
100
AcDbLine
 10
-411.5000000000017
 20
-528.4338420595259
 30
0.0
 11
-47.64983398898947
 21
-771.0000000000004
 31
0.0
  0
LINE
  5
280E
330
2BE9
100
AcDbEntity
  8
0
 62
     0
100
AcDbLine
 10
-411.5000000000008
 20
-525.4338755241112
 30
0.0
 11
-43.14987269510493
 21
-771.0000000000016
 31
0.0
  0
LINE
  5
280F
330
2BE9
100
AcDbEntity
  8
0
 62
     0
100
AcDbLine
 10
-411.5000000000017
 20
-522.4339089886932
 30
0.0
 11
-38.64991140121856
 21
-771.0000000000004
 31
0.0
  0
LINE
  5
2810
330
2BE9
100
AcDbEntity
  8
0
 62
     0
100
AcDbLine
 10
-411.5000000000017
 20
-519.4339424532762
 30
0.0
 11
-34.14995010733401
 21
-771.0
 31
0.0
  0
LINE
  5
2811
330
2BE9
100
AcDbEntity
  8
0
 62
     0
100
AcDbLine
 10
-411.5000000000017
 20
-516.4339759178617
 30
0.0
 11
-29.64998881344764
 21
-771.0000000000004
 31
0.0
  0
LINE
  5
2812
330
2BE9
100
AcDbEntity
  8
0
 62
     0
100
AcDbLine
 10
-411.5000000000017
 20
-513.4340093824448
 30
0.0
 11
-25.15002751956308
 21
-771.0
 31
0.0
  0
LINE
  5
2813
330
2BE9
100
AcDbEntity
  8
0
 62
     0
100
AcDbLine
 10
-411.5000000000008
 20
-510.4340428470295
 30
0.0
 11
-20.6500662256758
 21
-771.0000000000016
 31
0.0
  0
LINE
  5
2814
330
2BE9
100
AcDbEntity
  8
0
 62
     0
100
AcDbLine
 10
-411.5000000000008
 20
-507.4340763116124
 30
0.0
 11
-16.15010493179125
 21
-771.0
 31
0.0
  0
LINE
  5
2815
330
2BE9
100
AcDbEntity
  8
0
 62
     0
100
AcDbLine
 10
-411.5000000000008
 20
-504.4341097761969
 30
0.0
 11
-11.65014363790487
 21
-771.0000000000016
 31
0.0
  0
LINE
  5
2816
330
2BE9
100
AcDbEntity
  8
0
 62
     0
100
AcDbLine
 10
-411.5000000000008
 20
-501.4341432407809
 30
0.0
 11
-7.150182344019412
 21
-771.0000000000004
 31
0.0
  0
LINE
  5
2817
330
2BE9
100
AcDbEntity
  8
0
 62
     0
100
AcDbLine
 10
-411.5000000000008
 20
-498.4341767053655
 30
0.0
 11
-2.65022105013395
 21
-771.0000000000016
 31
0.0
  0
LINE
  5
2818
330
2BE9
100
AcDbEntity
  8
0
 62
     0
100
AcDbLine
 10
-411.5000000000025
 20
-495.4342101699475
 30
0.0
 11
1.849740243750602
 21
-771.0000000000004
 31
0.0
  0
LINE
  5
2819
330
2BE9
100
AcDbEntity
  8
0
 62
     0
100
AcDbLine
 10
-411.5
 20
-492.4342436345331
 30
0.0
 11
6.349701537636065
 21
-771.0000000000004
 31
0.0
  0
LINE
  5
281A
330
2BE9
100
AcDbEntity
  8
0
 62
     0
100
AcDbLine
 10
-411.5000000000017
 20
-489.4342770991151
 30
0.0
 11
10.84966283152243
 21
-771.0000000000004
 31
0.0
  0
LINE
  5
281B
330
2BE9
100
AcDbEntity
  8
0
 62
     0
100
AcDbLine
 10
-411.5000000000017
 20
-486.4343105636999
 30
0.0
 11
15.34962412540699
 21
-771.0000000000004
 31
0.0
  0
LINE
  5
281C
330
2BE9
100
AcDbEntity
  8
0
 62
     0
100
AcDbLine
 10
-411.5000000000017
 20
-483.4343440282837
 30
0.0
 11
19.84958541929336
 21
-771.0000000000004
 31
0.0
  0
LINE
  5
281D
330
2BE9
100
AcDbEntity
  8
0
 62
     0
100
AcDbLine
 10
-411.5000000000017
 20
-480.4343774928666
 30
0.0
 11
24.34954671317793
 21
-771.0
 31
0.0
  0
LINE
  5
281E
330
2BE9
100
AcDbEntity
  8
0
 62
     0
100
AcDbLine
 10
-411.5000000000008
 20
-477.4344109574512
 30
0.0
 11
28.8495080070652
 21
-771.0000000000004
 31
0.0
  0
LINE
  5
281F
330
2BE9
100
AcDbEntity
  8
0
 62
     0
100
AcDbLine
 10
-411.5000000000008
 20
-474.4344444220342
 30
0.0
 11
33.34946930094975
 21
-771.0
 31
0.0
  0
LINE
  5
2820
330
2BE9
100
AcDbEntity
  8
0
 62
     0
100
AcDbLine
 10
-411.5000000000008
 20
-471.4344778866188
 30
0.0
 11
37.8494305948361
 21
-771.0000000000004
 31
0.0
  0
LINE
  5
2821
330
2BE9
100
AcDbEntity
  8
0
 62
     0
100
AcDbLine
 10
-411.5000000000017
 20
-468.4345113512017
 30
0.0
 11
42.34939188872156
 21
-771.0000000000004
 31
0.0
  0
LINE
  5
2822
330
2BE9
100
AcDbEntity
  8
0
 62
     0
100
AcDbLine
 10
-411.5000000000008
 20
-465.4345448157871
 30
0.0
 11
46.84935318260613
 21
-771.0000000000016
 31
0.0
  0
LINE
  5
2823
330
2BE9
100
AcDbEntity
  8
0
 62
     0
100
AcDbLine
 10
-411.5000000000017
 20
-462.4345782803692
 30
0.0
 11
51.3493144764925
 21
-771.0000000000004
 31
0.0
  0
LINE
  5
2824
330
2BE9
100
AcDbEntity
  8
0
 62
     0
100
AcDbLine
 10
-411.5000000000008
 20
-459.4346117449537
 30
0.0
 11
55.84927577037797
 21
-771.0000000000016
 31
0.0
  0
LINE
  5
2825
330
2BE9
100
AcDbEntity
  8
0
 62
     0
100
AcDbLine
 10
-411.5000000000008
 20
-456.4346452095368
 30
0.0
 11
60.34923706426344
 21
-771.0
 31
0.0
  0
LINE
  5
2826
330
2BE9
100
AcDbEntity
  8
0
 62
     0
100
AcDbLine
 10
-411.5000000000008
 20
-453.4346786741225
 30
0.0
 11
64.84919835814799
 21
-771.0000000000004
 31
0.0
  0
LINE
  5
2827
330
2BE9
100
AcDbEntity
  8
0
 62
     0
100
AcDbLine
 10
-411.5000000000008
 20
-450.4347121387054
 30
0.0
 11
69.34915965203436
 21
-771.0000000000004
 31
0.0
  0
LINE
  5
2828
330
2BE9
100
AcDbEntity
  8
0
 62
     0
100
AcDbLine
 10
-411.5000000000008
 20
-447.4347456032901
 30
0.0
 11
73.84912094591887
 21
-771.0000000000004
 31
0.0
  0
LINE
  5
2829
330
2BE9
100
AcDbEntity
  8
0
 62
     0
100
AcDbLine
 10
-411.5000000000008
 20
-444.4347790678728
 30
0.0
 11
78.34908223980438
 21
-771.0000000000004
 31
0.0
  0
LINE
  5
282A
330
2BE9
100
AcDbEntity
  8
0
 62
     0
100
AcDbLine
 10
-411.5000000000017
 20
-441.434812532455
 30
0.0
 11
82.84904353369165
 21
-771.0000000000004
 31
0.0
  0
LINE
  5
282B
330
2BE9
100
AcDbEntity
  8
0
 62
     0
100
AcDbLine
 10
-411.5
 20
-438.4348459970414
 30
0.0
 11
87.34900482757618
 21
-771.0000000000004
 31
0.0
  0
LINE
  5
282C
330
2BE9
100
AcDbEntity
  8
0
 62
     0
100
AcDbLine
 10
-411.5000000000017
 20
-435.4348794616234
 30
0.0
 11
91.84896612146259
 21
-771.0000000000004
 31
0.0
  0
LINE
  5
282D
330
2BE9
100
AcDbEntity
  8
0
 62
     0
100
AcDbLine
 10
-411.5000000000017
 20
-432.4349129262079
 30
0.0
 11
96.34892741534713
 21
-771.0000000000004
 31
0.0
  0
LINE
  5
282E
330
2BE9
100
AcDbEntity
  8
0
 62
     0
100
AcDbLine
 10
-411.5000000000017
 20
-429.434946390791
 30
0.0
 11
100.8488887092335
 21
-771.0000000000004
 31
0.0
  0
LINE
  5
282F
330
2BE9
100
AcDbEntity
  8
0
 62
     0
100
AcDbLine
 10
-411.5000000000017
 20
-426.4349798553756
 30
0.0
 11
105.348850003118
 21
-771.0000000000016
 31
0.0
  0
LINE
  5
2830
330
2BE9
100
AcDbEntity
  8
0
 62
     0
100
AcDbLine
 10
-411.5000000000008
 20
-423.4350133199582
 30
0.0
 11
109.8488112970052
 21
-771.0000000000004
 31
0.0
  0
LINE
  5
2831
330
2BE9
100
AcDbEntity
  8
0
 62
     0
100
AcDbLine
 10
-411.5000000000008
 20
-420.4350467845442
 30
0.0
 11
114.3487725908899
 21
-771.0000000000016
 31
0.0
  0
LINE
  5
2832
330
2BE9
100
AcDbEntity
  8
0
 62
     0
100
AcDbLine
 10
-411.5000000000008
 20
-417.4350802491272
 30
0.0
 11
118.8487338847744
 21
-771.0
 31
0.0
  0
LINE
  5
2833
330
2BE9
100
AcDbEntity
  8
0
 62
     0
100
AcDbLine
 10
-411.5000000000008
 20
-414.4351137137118
 30
0.0
 11
123.3486951786608
 21
-771.0000000000016
 31
0.0
  0
LINE
  5
2834
330
2BE9
100
AcDbEntity
  8
0
 62
     0
100
AcDbLine
 10
-411.5000000000008
 20
-411.4351471782947
 30
0.0
 11
127.8486564725453
 21
-771.0
 31
0.0
  0
LINE
  5
2835
330
2BE9
100
AcDbEntity
  8
0
 62
     0
100
AcDbLine
 10
-411.5000000000017
 20
-408.4351806428783
 30
0.0
 11
132.3486177664317
 21
-771.0000000000016
 31
0.0
  0
LINE
  5
2836
330
2BE9
100
AcDbEntity
  8
0
 62
     0
100
AcDbLine
 10
-411.5000000000008
 20
-405.4352141074621
 30
0.0
 11
136.8485790603172
 21
-771.0000000000004
 31
0.0
  0
LINE
  5
2837
330
2BE9
100
AcDbEntity
  8
0
 62
     0
100
AcDbLine
 10
-411.5000000000008
 20
-402.4352475720467
 30
0.0
 11
141.3485403542036
 21
-771.0000000000016
 31
0.0
  0
LINE
  5
2838
330
2BE9
100
AcDbEntity
  8
0
 62
     0
100
AcDbLine
 10
-411.5000000000008
 20
-399.4352810366297
 30
0.0
 11
145.8485016480881
 21
-771.0000000000004
 31
0.0
  0
LINE
  5
2839
330
2BE9
100
AcDbEntity
  8
0
 62
     0
100
AcDbLine
 10
-411.5000000000008
 20
-396.4353145012129
 30
0.0
 11
150.3484629419745
 21
-771.0000000000004
 31
0.0
  0
LINE
  5
283A
330
2BE9
100
AcDbEntity
  8
0
 62
     0
100
AcDbLine
 10
-411.5000000000008
 20
-393.4353479657975
 30
0.0
 11
154.848424235859
 21
-771.0000000000004
 31
0.0
  0
LINE
  5
283B
330
2BE9
100
AcDbEntity
  8
0
 62
     0
100
AcDbLine
 10
-411.5000000000008
 20
-390.4353814303813
 30
0.0
 11
159.3483855297454
 21
-771.0000000000004
 31
0.0
  0
LINE
  5
283C
330
2BE9
100
AcDbEntity
  8
0
 62
     0
100
AcDbLine
 10
-411.5000000000017
 20
-387.4354148949651
 30
0.0
 11
163.8483468236309
 21
-771.0000000000004
 31
0.0
  0
LINE
  5
283D
330
2BE9
100
AcDbEntity
  8
0
 62
     0
100
AcDbLine
 10
-411.5
 20
-384.4354483595489
 30
0.0
 11
168.3483081175172
 21
-771.0000000000004
 31
0.0
  0
LINE
  5
283E
330
2BE9
100
AcDbEntity
  8
0
 62
     0
100
AcDbLine
 10
-411.5000000000017
 20
-381.4354818241327
 30
0.0
 11
172.8482694114018
 21
-771.0000000000016
 31
0.0
  0
LINE
  5
283F
330
2BE9
100
AcDbEntity
  8
0
 62
     0
100
AcDbLine
 10
-411.5000000000017
 20
-378.4355152887156
 30
0.0
 11
177.3482307052864
 21
-771.0
 31
0.0
  0
LINE
  5
2840
330
2BE9
100
AcDbEntity
  8
0
 62
     0
100
AcDbLine
 10
-411.5000000000017
 20
-375.4355487533002
 30
0.0
 11
181.8481919991727
 21
-771.0000000000016
 31
0.0
  0
LINE
  5
2841
330
2BE9
100
AcDbEntity
  8
0
 62
     0
100
AcDbLine
 10
-411.5000000000017
 20
-372.4355822178841
 30
0.0
 11
186.3481532930573
 21
-771.0
 31
0.0
  0
LINE
  5
2842
330
2BE9
100
AcDbEntity
  8
0
 62
     0
100
AcDbLine
 10
-411.5000000000008
 20
-369.4356156824688
 30
0.0
 11
190.8481145869446
 21
-771.0000000000016
 31
0.0
  0
LINE
  5
2843
330
2BE9
100
AcDbEntity
  8
0
 62
     0
100
AcDbLine
 10
-411.5000000000008
 20
-366.4356491470517
 30
0.0
 11
195.3480758808291
 21
-771.0000000000004
 31
0.0
  0
LINE
  5
2844
330
2BE9
100
AcDbEntity
  8
0
 62
     0
100
AcDbLine
 10
-411.5000000000008
 20
-363.4356826116364
 30
0.0
 11
199.8480371747155
 21
-771.0000000000016
 31
0.0
  0
LINE
  5
2845
330
2BE9
100
AcDbEntity
  8
0
 62
     0
100
AcDbLine
 10
-411.5000000000017
 20
-360.4357160762183
 30
0.0
 11
204.3479984686001
 21
-771.0000000000004
 31
0.0
  0
LINE
  5
2846
330
2BE9
100
AcDbEntity
  8
0
 62
     0
100
AcDbLine
 10
-411.5000000000017
 20
-357.4357495408021
 30
0.0
 11
208.8479597624864
 21
-771.0
 31
0.0
  0
LINE
  5
2847
330
2BE9
100
AcDbEntity
  8
0
 62
     0
100
AcDbLine
 10
-411.5000000000017
 20
-354.4357830053868
 30
0.0
 11
213.347921056371
 21
-771.0000000000004
 31
0.0
  0
LINE
  5
2848
330
2BE9
100
AcDbEntity
  8
0
 62
     0
100
AcDbLine
 10
-411.5000000000008
 20
-351.4358164699697
 30
0.0
 11
217.8478823502583
 21
-771.0000000000004
 31
0.0
  0
LINE
  5
2849
330
2BE9
100
AcDbEntity
  8
0
 62
     0
100
AcDbLine
 10
-411.5000000000008
 20
-348.4358499345544
 30
0.0
 11
222.3478436441446
 21
-771.0000000000016
 31
0.0
  0
LINE
  5
284A
330
2BE9
100
AcDbEntity
  8
0
 62
     0
100
AcDbLine
 10
-411.5000000000008
 20
-345.4358833991372
 30
0.0
 11
226.8478049380292
 21
-771.0000000000004
 31
0.0
  0
LINE
  5
284B
330
2BE9
100
AcDbEntity
  8
0
 62
     0
100
AcDbLine
 10
-411.5000000000008
 20
-342.4359168637229
 30
0.0
 11
231.3477662319137
 21
-771.0000000000004
 31
0.0
  0
LINE
  5
284C
330
2BE9
100
AcDbEntity
  8
0
 62
     0
100
AcDbLine
 10
-411.5000000000008
 20
-339.4359503283058
 30
0.0
 11
235.8477275257983
 21
-771.0
 31
0.0
  0
LINE
  5
284D
330
2BE9
100
AcDbEntity
  8
0
 62
     0
100
AcDbLine
 10
-411.5
 20
-336.4359837928905
 30
0.0
 11
240.3476888196856
 21
-771.0000000000016
 31
0.0
  0
LINE
  5
284E
330
2BE9
100
AcDbEntity
  8
0
 62
     0
100
AcDbLine
 10
-411.5000000000017
 20
-333.4360172574725
 30
0.0
 11
244.8476501135701
 21
-771.0
 31
0.0
  0
LINE
  5
284F
330
2BE9
100
AcDbEntity
  8
0
 62
     0
100
AcDbLine
 10
-411.5000000000017
 20
-330.4360507220572
 30
0.0
 11
249.3476114074565
 21
-771.0000000000016
 31
0.0
  0
LINE
  5
2850
330
2BE9
100
AcDbEntity
  8
0
 62
     0
100
AcDbLine
 10
-411.5000000000017
 20
-327.4360841866409
 30
0.0
 11
253.847572701341
 21
-771.0
 31
0.0
  0
LINE
  5
2851
330
2BE9
100
AcDbEntity
  8
0
 62
     0
100
AcDbLine
 10
-411.5000000000017
 20
-324.4361176512257
 30
0.0
 11
258.3475339952274
 21
-771.0000000000016
 31
0.0
  0
LINE
  5
2852
330
2BE9
100
AcDbEntity
  8
0
 62
     0
100
AcDbLine
 10
-411.5000000000017
 20
-321.4361511158086
 30
0.0
 11
262.8474952891137
 21
-771.0000000000016
 31
0.0
  0
LINE
  5
2853
330
2BE9
100
AcDbEntity
  8
0
 62
     0
100
AcDbLine
 10
-411.5000000000008
 20
-318.4361845803914
 30
0.0
 11
267.3474565829993
 21
-771.0
 31
0.0
  0
LINE
  5
2854
330
2BE9
100
AcDbEntity
  8
0
 62
     0
100
AcDbLine
 10
-411.5000000000008
 20
-315.4362180449762
 30
0.0
 11
271.8474178768856
 21
-771.0000000000016
 31
0.0
  0
LINE
  5
2855
330
2BE9
100
AcDbEntity
  8
0
 62
     0
100
AcDbLine
 10
-411.5000000000008
 20
-312.43625150956
 30
0.0
 11
276.3473791707701
 21
-771.0
 31
0.0
  0
LINE
  5
2856
330
2BE9
100
AcDbEntity
  8
0
 62
     0
100
AcDbLine
 10
-411.5000000000008
 20
-309.4362849741448
 30
0.0
 11
280.8473404646566
 21
-771.0000000000016
 31
0.0
  0
LINE
  5
2857
330
2BE9
100
AcDbEntity
  8
0
 62
     0
100
AcDbLine
 10
-411.5000000000017
 20
-306.4363184387266
 30
0.0
 11
285.3473017585411
 21
-771.0000000000004
 31
0.0
  0
LINE
  5
2858
330
2BE9
100
AcDbEntity
  8
0
 62
     0
100
AcDbLine
 10
-411.5000000000017
 20
-303.4363519033112
 30
0.0
 11
289.8472630524257
 21
-771.0000000000004
 31
0.0
  0
LINE
  5
2859
330
2BE9
100
AcDbEntity
  8
0
 62
     0
100
AcDbLine
 10
-411.5000000000008
 20
-300.4363853678943
 30
0.0
 11
294.3472243463111
 21
-771.0
 31
0.0
  0
LINE
  5
285A
330
2BE9
100
AcDbEntity
  8
0
 62
     0
100
AcDbLine
 10
-411.5000000000008
 20
-297.4364188324789
 30
0.0
 11
298.8471856401975
 21
-771.0000000000004
 31
0.0
  0
LINE
  5
285B
330
2BE9
100
AcDbEntity
  8
0
 62
     0
100
AcDbLine
 10
-411.5000000000008
 20
-294.4364522970628
 30
0.0
 11
303.3471469340839
 21
-771.0000000000004
 31
0.0
  0
LINE
  5
285C
330
2BE9
100
AcDbEntity
  8
0
 62
     0
100
AcDbLine
 10
-411.5000000000008
 20
-291.4364857616475
 30
0.0
 11
307.8471082279684
 21
-771.0000000000016
 31
0.0
  0
LINE
  5
285D
330
2BE9
100
AcDbEntity
  8
0
 62
     0
100
AcDbLine
 10
-411.5000000000008
 20
-288.4365192262303
 30
0.0
 11
312.3470695218549
 21
-771.0000000000004
 31
0.0
  0
LINE
  5
285E
330
2BE9
100
AcDbEntity
  8
0
 62
     0
100
AcDbLine
 10
-411.5000000000025
 20
-285.4365526908141
 30
0.0
 11
316.8470308157392
 21
-771.0000000000016
 31
0.0
  0
LINE
  5
285F
330
2BE9
100
AcDbEntity
  8
0
 62
     0
100
AcDbLine
 10
-411.5
 20
-282.4365861553979
 30
0.0
 11
321.3469921096266
 21
-771.0000000000016
 31
0.0
  0
LINE
  5
2860
330
2BE9
100
AcDbEntity
  8
0
 62
     0
100
AcDbLine
 10
-411.5000000000017
 20
-279.4366196199808
 30
0.0
 11
325.8469534035112
 21
-771.0
 31
0.0
  0
LINE
  5
2861
330
2BE9
100
AcDbEntity
  8
0
 62
     0
100
AcDbLine
 10
-411.5000000000017
 20
-276.4366530845655
 30
0.0
 11
330.3469146973965
 21
-771.0000000000016
 31
0.0
  0
LINE
  5
2862
330
2BE9
100
AcDbEntity
  8
0
 62
     0
100
AcDbLine
 10
-411.5000000000017
 20
-273.4366865491484
 30
0.0
 11
334.8468759912821
 21
-771.0
 31
0.0
  0
LINE
  5
2863
330
2BE9
100
AcDbEntity
  8
0
 62
     0
100
AcDbLine
 10
-411.5000000000017
 20
-270.4367200137331
 30
0.0
 11
339.3468372851676
 21
-771.0000000000016
 31
0.0
  0
LINE
  5
2864
330
2BE9
100
AcDbEntity
  8
0
 62
     0
100
AcDbLine
 10
-411.5000000000017
 20
-267.436753478316
 30
0.0
 11
343.846798579053
 21
-771.0000000000004
 31
0.0
  0
LINE
  5
2865
330
2BE9
100
AcDbEntity
  8
0
 62
     0
100
AcDbLine
 10
-411.5000000000008
 20
-264.4367869429016
 30
0.0
 11
348.3467598729386
 21
-771.0000000000004
 31
0.0
  0
LINE
  5
2866
330
2BE9
100
AcDbEntity
  8
0
 62
     0
100
AcDbLine
 10
-411.5000000000008
 20
-261.4368204074844
 30
0.0
 11
352.8467211668249
 21
-771.0000000000004
 31
0.0
  0
LINE
  5
2867
330
2BE9
100
AcDbEntity
  8
0
 62
     0
100
AcDbLine
 10
-411.5000000000017
 20
-258.4368538720681
 30
0.0
 11
357.3466824607095
 21
-771.0000000000004
 31
0.0
  0
LINE
  5
2868
330
2BE9
100
AcDbEntity
  8
0
 62
     0
100
AcDbLine
 10
-411.5000000000008
 20
-255.436887336652
 30
0.0
 11
361.8466437545949
 21
-771.0000000000004
 31
0.0
  0
LINE
  5
2869
330
2BE9
100
AcDbEntity
  8
0
 62
     0
100
AcDbLine
 10
-411.5000000000017
 20
-252.4369208012358
 30
0.0
 11
366.3466050484804
 21
-771.0000000000016
 31
0.0
  0
LINE
  5
286A
330
2BE9
100
AcDbEntity
  8
0
 62
     0
100
AcDbLine
 10
-411.5000000000017
 20
-249.4369542658187
 30
0.0
 11
370.8465663423658
 21
-771.0000000000004
 31
0.0
  0
LINE
  5
286B
330
2BE9
100
AcDbEntity
  8
0
 62
     0
100
AcDbLine
 10
-411.5000000000008
 20
-246.4369877304043
 30
0.0
 11
375.3465276362522
 21
-771.0000000000016
 31
0.0
  0
LINE
  5
286C
330
2BE9
100
AcDbEntity
  8
0
 62
     0
100
AcDbLine
 10
-411.5000000000008
 20
-243.4370211949872
 30
0.0
 11
379.8464889301377
 21
-771.0000000000004
 31
0.0
  0
LINE
  5
286D
330
2BE9
100
AcDbEntity
  8
0
 62
     0
100
AcDbLine
 10
-411.5000000000008
 20
-240.4370546595701
 30
0.0
 11
384.3464502240232
 21
-771.0
 31
0.0
  0
LINE
  5
286E
330
2BE9
100
AcDbEntity
  8
0
 62
     0
100
AcDbLine
 10
-411.5000000000008
 20
-237.4370881241548
 30
0.0
 11
388.8464115179086
 21
-771.0000000000016
 31
0.0
  0
LINE
  5
286F
330
2BE9
100
AcDbEntity
  8
0
 62
     0
100
AcDbLine
 10
-411.5000000000008
 20
-234.4371215887377
 30
0.0
 11
393.3463728117949
 21
-771.0000000000004
 31
0.0
  0
LINE
  5
2870
330
2BE9
100
AcDbEntity
  8
0
 62
     0
100
AcDbLine
 10
-411.5000000000025
 20
-231.4371550533224
 30
0.0
 11
397.8463341056795
 21
-771.0000000000016
 31
0.0
  0
LINE
  5
2871
330
2BE9
100
AcDbEntity
  8
0
 62
     0
100
AcDbLine
 10
-411.5
 20
-228.4371885179062
 30
0.0
 11
402.3462953995649
 21
-771.0
 31
0.0
  0
LINE
  5
2872
330
2BE9
100
AcDbEntity
  8
0
 62
     0
100
AcDbLine
 10
-411.5000000000017
 20
-225.43722198249
 30
0.0
 11
406.8462566934504
 21
-771.0000000000004
 31
0.0
  0
LINE
  5
2873
330
2BE9
100
AcDbEntity
  8
0
 62
     0
100
AcDbLine
 10
-411.5000000000017
 20
-222.4372554470729
 30
0.0
 11
411.3462179873359
 21
-771.0000000000004
 31
0.0
  0
LINE
  5
2874
330
2BE9
100
AcDbEntity
  8
0
 62
     0
100
AcDbLine
 10
-411.5000000000017
 20
-219.4372889116575
 30
0.0
 11
411.4999999999991
 21
-768.1025545445699
 31
0.0
  0
LINE
  5
2875
330
2BE9
100
AcDbEntity
  8
0
 62
     0
100
AcDbLine
 10
-411.5000000000017
 20
-216.4373223762414
 30
0.0
 11
411.4999999999978
 21
-765.1025880091525
 31
0.0
  0
LINE
  5
2876
330
2BE9
100
AcDbEntity
  8
0
 62
     0
100
AcDbLine
 10
-411.5000000000008
 20
-213.4373558408261
 30
0.0
 11
411.4999999999991
 21
-762.1026214737375
 31
0.0
  0
LINE
  5
2877
330
2BE9
100
AcDbEntity
  8
0
 62
     0
100
AcDbLine
 10
-411.5000000000008
 20
-210.437389305409
 30
0.0
 11
411.4999999999991
 21
-759.1026549383201
 31
0.0
  0
LINE
  5
2878
330
2BE9
100
AcDbEntity
  8
0
 62
     0
100
AcDbLine
 10
-411.5000000000008
 20
-207.4374227699936
 30
0.0
 11
411.4999999999991
 21
-756.1026884029048
 31
0.0
  0
LINE
  5
2879
330
2BE9
100
AcDbEntity
  8
0
 62
     0
100
AcDbLine
 10
-411.5000000000008
 20
-204.4374562345765
 30
0.0
 11
411.4999999999991
 21
-753.1027218674879
 31
0.0
  0
LINE
  5
287A
330
2BE9
100
AcDbEntity
  8
0
 62
     0
100
AcDbLine
 10
-411.5000000000008
 20
-201.4374896991621
 30
0.0
 11
411.4999999999991
 21
-750.1027553320724
 31
0.0
  0
LINE
  5
287B
330
2BE9
100
AcDbEntity
  8
0
 62
     0
100
AcDbLine
 10
-411.5000000000017
 20
-198.4375231637441
 30
0.0
 11
411.4999999999991
 21
-747.1027887966554
 31
0.0
  0
LINE
  5
287C
330
2BE9
100
AcDbEntity
  8
0
 62
     0
100
AcDbLine
 10
-411.5
 20
-195.4375566283279
 30
0.0
 11
411.5
 21
-744.1028222612393
 31
0.0
  0
LINE
  5
287D
330
2BE9
100
AcDbEntity
  8
0
 62
     0
100
AcDbLine
 10
-411.5000000000008
 20
-192.4375900929117
 30
0.0
 11
411.5
 21
-741.1028557258241
 31
0.0
  0
LINE
  5
287E
330
2BE9
100
AcDbEntity
  8
0
 62
     0
100
AcDbLine
 10
-411.5000000000008
 20
-189.4376235574945
 30
0.0
 11
411.4999999999991
 21
-738.1028891904062
 31
0.0
  0
LINE
  5
287F
330
2BE9
100
AcDbEntity
  8
0
 62
     0
100
AcDbLine
 10
-411.5000000000008
 20
-186.4376570220792
 30
0.0
 11
411.4999999999991
 21
-735.1029226549916
 31
0.0
  0
LINE
  5
2880
330
2BE9
100
AcDbEntity
  8
0
 62
     0
100
AcDbLine
 10
-411.5000000000008
 20
-183.4376904866631
 30
0.0
 11
411.4999999999978
 21
-732.1029561195738
 31
0.0
  0
LINE
  5
2881
330
2BE9
100
AcDbEntity
  8
0
 62
     0
100
AcDbLine
 10
-411.5000000000008
 20
-180.4377239512477
 30
0.0
 11
411.4999999999978
 21
-729.1029895841594
 31
0.0
  0
LINE
  5
2882
330
2BE9
100
AcDbEntity
  8
0
 62
     0
100
AcDbLine
 10
-411.5
 20
-177.4377574158306
 30
0.0
 11
411.4999999999991
 21
-726.1030230487421
 31
0.0
  0
LINE
  5
2883
330
2BE9
100
AcDbEntity
  8
0
 62
     0
100
AcDbLine
 10
-411.5
 20
-174.437790880415
 30
0.0
 11
411.4999999999991
 21
-723.1030565133269
 31
0.0
  0
LINE
  5
2884
330
2BE9
100
AcDbEntity
  8
0
 62
     0
100
AcDbLine
 10
-411.5000000000017
 20
-171.4378243449973
 30
0.0
 11
411.4999999999991
 21
-720.1030899779096
 31
0.0
  0
LINE
  5
2885
330
2BE9
100
AcDbEntity
  8
0
 62
     0
100
AcDbLine
 10
-411.5
 20
-168.4378578095838
 30
0.0
 11
411.4999999999991
 21
-717.1031234424945
 31
0.0
  0
LINE
  5
2886
330
2BE9
100
AcDbEntity
  8
0
 62
     0
100
AcDbLine
 10
-411.5000000000017
 20
-165.4378912741658
 30
0.0
 11
411.4999999999991
 21
-714.1031569070783
 31
0.0
  0
LINE
  5
2887
330
2BE9
100
AcDbEntity
  8
0
 62
     0
100
AcDbLine
 10
-411.5000000000017
 20
-162.4379247387505
 30
0.0
 11
411.4999999999978
 21
-711.1031903716621
 31
0.0
  0
LINE
  5
2888
330
2BE9
100
AcDbEntity
  8
0
 62
     0
100
AcDbLine
 10
-411.5000000000008
 20
-159.4379582033334
 30
0.0
 11
411.4999999999991
 21
-708.103223836245
 31
0.0
  0
LINE
  5
2889
330
2BE9
100
AcDbEntity
  8
0
 62
     0
100
AcDbLine
 10
-411.5000000000008
 20
-156.4379916679162
 30
0.0
 11
411.4999999999991
 21
-705.1032573008277
 31
0.0
  0
LINE
  5
288A
330
2BE9
100
AcDbEntity
  8
0
 62
     0
100
AcDbLine
 10
-411.5000000000008
 20
-153.4380251325019
 30
0.0
 11
411.4999999999991
 21
-702.1032907654124
 31
0.0
  0
LINE
  5
288B
330
2BE9
100
AcDbEntity
  8
0
 62
     0
100
AcDbLine
 10
-411.5000000000008
 20
-150.4380585970848
 30
0.0
 11
411.4999999999991
 21
-699.1033242299955
 31
0.0
  0
LINE
  5
288C
330
2BE9
100
AcDbEntity
  8
0
 62
     0
100
AcDbLine
 10
-411.5000000000008
 20
-147.4380920616694
 30
0.0
 11
411.4999999999991
 21
-696.1033576945809
 31
0.0
  0
LINE
  5
288D
330
2BE9
100
AcDbEntity
  8
0
 62
     0
100
AcDbLine
 10
-411.5000000000017
 20
-144.4381255262515
 30
0.0
 11
411.4999999999991
 21
-693.1033911591639
 31
0.0
  0
LINE
  5
288E
330
2BE9
100
AcDbEntity
  8
0
 62
     0
100
AcDbLine
 10
-411.5
 20
-141.4381589908371
 30
0.0
 11
411.5
 21
-690.1034246237487
 31
0.0
  0
LINE
  5
288F
330
2BE9
100
AcDbEntity
  8
0
 62
     0
100
AcDbLine
 10
-411.5000000000008
 20
-138.4381924554191
 30
0.0
 11
411.4999999999991
 21
-687.1034580883315
 31
0.0
  0
LINE
  5
2890
330
2BE9
100
AcDbEntity
  8
0
 62
     0
100
AcDbLine
 10
-411.5000000000008
 20
-135.4382259200047
 30
0.0
 11
411.4999999999991
 21
-684.1034915529161
 31
0.0
  0
LINE
  5
2891
330
2BE9
100
AcDbEntity
  8
0
 62
     0
100
AcDbLine
 10
-411.5000000000008
 20
-132.4382593845875
 30
0.0
 11
411.4999999999991
 21
-681.1035250174991
 31
0.0
  0
LINE
  5
2892
330
2BE9
100
AcDbEntity
  8
0
 62
     0
100
AcDbLine
 10
-411.5000000000008
 20
-129.4382928491723
 30
0.0
 11
411.4999999999978
 21
-678.1035584820839
 31
0.0
  0
LINE
  5
2893
330
2BE9
100
AcDbEntity
  8
0
 62
     0
100
AcDbLine
 10
-411.5000000000008
 20
-126.4383263137552
 30
0.0
 11
411.4999999999978
 21
-675.1035919466667
 31
0.0
  0
LINE
  5
2894
330
2BE9
100
AcDbEntity
  8
0
 62
     0
100
AcDbLine
 10
-411.5
 20
-123.4383597783399
 30
0.0
 11
411.4999999999991
 21
-672.1036254112512
 31
0.0
  0
LINE
  5
2895
330
2BE9
100
AcDbEntity
  8
0
 62
     0
100
AcDbLine
 10
-411.5
 20
-120.4383932429236
 30
0.0
 11
411.4999999999991
 21
-669.1036588758341
 31
0.0
  0
LINE
  5
2896
330
2BE9
100
AcDbEntity
  8
0
 62
     0
100
AcDbLine
 10
-411.5000000000017
 20
-117.4384267075056
 30
0.0
 11
411.4999999999991
 21
-666.1036923404179
 31
0.0
  0
LINE
  5
2897
330
2BE9
100
AcDbEntity
  8
0
 62
     0
100
AcDbLine
 10
-411.5
 20
-114.4384601720912
 30
0.0
 11
411.4999999999991
 21
-663.1037258050028
 31
0.0
  0
LINE
  5
2898
330
2BE9
100
AcDbEntity
  8
0
 62
     0
100
AcDbLine
 10
-411.5000000000017
 20
-111.4384936366732
 30
0.0
 11
411.4999999999978
 21
-660.1037592695847
 31
0.0
  0
LINE
  5
2899
330
2BE9
100
AcDbEntity
  8
0
 62
     0
100
AcDbLine
 10
-411.5000000000017
 20
-108.4385271012579
 30
0.0
 11
411.4999999999978
 21
-657.1037927341704
 31
0.0
  0
LINE
  5
289A
330
2BE9
100
AcDbEntity
  8
0
 62
     0
100
AcDbLine
 10
-411.5000000000008
 20
-105.4385605658417
 30
0.0
 11
411.4999999999991
 21
-654.1038261987532
 31
0.0
  0
LINE
  5
289B
330
2BE9
100
AcDbEntity
  8
0
 62
     0
100
AcDbLine
 10
-411.5000000000008
 20
-102.4385940304264
 30
0.0
 11
411.4999999999991
 21
-651.103859663337
 31
0.0
  0
LINE
  5
289C
330
2BE9
100
AcDbEntity
  8
0
 62
     0
100
AcDbLine
 10
-411.5000000000008
 20
-99.43862749500931
 30
0.0
 11
411.4999999999991
 21
-648.1038931279208
 31
0.0
  0
LINE
  5
289D
330
2BE9
100
AcDbEntity
  8
0
 62
     0
100
AcDbLine
 10
-411.5000000000008
 20
-96.43866095959404
 30
0.0
 11
411.4999999999991
 21
-645.1039265925054
 31
0.0
  0
LINE
  5
289E
330
2BE9
100
AcDbEntity
  8
0
 62
     0
100
AcDbLine
 10
-411.5000000000008
 20
-93.43869442417689
 30
0.0
 11
411.4999999999991
 21
-642.1039600570884
 31
0.0
  0
LINE
  5
289F
330
2BE9
100
AcDbEntity
  8
0
 62
     0
100
AcDbLine
 10
-411.5000000000017
 20
-90.43872788876068
 30
0.0
 11
411.4999999999991
 21
-639.1039935216732
 31
0.0
  0
LINE
  5
28A0
330
2BE9
100
AcDbEntity
  8
0
 62
     0
100
AcDbLine
 10
-411.5
 20
-87.43876135334541
 30
0.0
 11
411.5
 21
-636.104026986256
 31
0.0
  0
LINE
  5
28A1
330
2BE9
100
AcDbEntity
  8
0
 62
     0
100
AcDbLine
 10
-411.5000000000008
 20
-84.43879481792919
 30
0.0
 11
411.4999999999991
 21
-633.1040604508407
 31
0.0
  0
LINE
  5
28A2
330
2BE9
100
AcDbEntity
  8
0
 62
     0
100
AcDbLine
 10
-411.5000000000008
 20
-81.43882828251204
 30
0.0
 11
411.4999999999991
 21
-630.1040939154236
 31
0.0
  0
LINE
  5
28A3
330
2BE9
100
AcDbEntity
  8
0
 62
     0
100
AcDbLine
 10
-407.6582828107275
 20
-80.99999999999818
 30
0.0
 11
411.4999999999978
 21
-627.1041273800065
 31
0.0
  0
LINE
  5
28A4
330
2BE9
100
AcDbEntity
  8
0
 62
     0
100
AcDbLine
 10
-403.1583215168429
 20
-80.99999999999909
 30
0.0
 11
411.4999999999978
 21
-624.1041608445912
 31
0.0
  0
LINE
  5
28A5
330
2BE9
100
AcDbEntity
  8
0
 62
     0
100
AcDbLine
 10
-398.6583602229557
 20
-80.99999999999818
 30
0.0
 11
411.4999999999991
 21
-621.1041943091741
 31
0.0
  0
LINE
  5
28A6
330
2BE9
100
AcDbEntity
  8
0
 62
     0
100
AcDbLine
 10
-394.1583989290712
 20
-80.99999999999909
 30
0.0
 11
411.4999999999991
 21
-618.1042277737597
 31
0.0
  0
LINE
  5
28A7
330
2BE9
100
AcDbEntity
  8
0
 62
     0
100
AcDbLine
 10
-389.6584376351848
 20
-80.99999999999909
 30
0.0
 11
411.4999999999991
 21
-615.1042612383425
 31
0.0
  0
LINE
  5
28A8
330
2BE9
100
AcDbEntity
  8
0
 62
     0
100
AcDbLine
 10
-385.1584763413002
 20
-80.99999999999909
 30
0.0
 11
411.4999999999991
 21
-612.1042947029272
 31
0.0
  0
LINE
  5
28A9
330
2BE9
100
AcDbEntity
  8
0
 62
     0
100
AcDbLine
 10
-380.6585150474139
 20
-80.99999999999909
 30
0.0
 11
411.4999999999991
 21
-609.1043281675101
 31
0.0
  0
LINE
  5
28AA
330
2BE9
100
AcDbEntity
  8
0
 62
     0
100
AcDbLine
 10
-376.1585537535293
 20
-80.99999999999909
 30
0.0
 11
411.4999999999978
 21
-606.1043616320946
 31
0.0
  0
LINE
  5
28AB
330
2BE9
100
AcDbEntity
  8
0
 62
     0
100
AcDbLine
 10
-371.6585924596438
 20
-80.99999999999818
 30
0.0
 11
411.4999999999991
 21
-603.1043950966776
 31
0.0
  0
LINE
  5
28AC
330
2BE9
100
AcDbEntity
  8
0
 62
     0
100
AcDbLine
 10
-367.1586311657575
 20
-81.0
 30
0.0
 11
411.4999999999991
 21
-600.1044285612623
 31
0.0
  0
LINE
  5
28AD
330
2BE9
100
AcDbEntity
  8
0
 62
     0
100
AcDbLine
 10
-362.6586698718729
 20
-80.99999999999818
 30
0.0
 11
411.4999999999991
 21
-597.1044620258453
 31
0.0
  0
LINE
  5
28AE
330
2BE9
100
AcDbEntity
  8
0
 62
     0
100
AcDbLine
 10
-358.1587085779866
 20
-81.0
 30
0.0
 11
411.4999999999991
 21
-594.1044954904302
 31
0.0
  0
LINE
  5
28AF
330
2BE9
100
AcDbEntity
  8
0
 62
     0
100
AcDbLine
 10
-353.658747284102
 20
-80.99999999999818
 30
0.0
 11
411.4999999999991
 21
-591.1045289550129
 31
0.0
  0
LINE
  5
28B0
330
2BE9
100
AcDbEntity
  8
0
 62
     0
100
AcDbLine
 10
-349.1587859902156
 20
-80.99999999999818
 30
0.0
 11
411.4999999999991
 21
-588.1045624195958
 31
0.0
  0
LINE
  5
28B1
330
2BE9
100
AcDbEntity
  8
0
 62
     0
100
AcDbLine
 10
-344.6588246963283
 20
-81.0
 30
0.0
 11
411.5
 21
-585.1045958841815
 31
0.0
  0
LINE
  5
28B2
330
2BE9
100
AcDbEntity
  8
0
 62
     0
100
AcDbLine
 10
-340.1588634024437
 20
-80.99999999999818
 30
0.0
 11
411.5
 21
-582.1046293487643
 31
0.0
  0
LINE
  5
28B3
330
2BE9
100
AcDbEntity
  8
0
 62
     0
100
AcDbLine
 10
-335.6589021085583
 20
-81.0
 30
0.0
 11
411.4999999999991
 21
-579.104662813349
 31
0.0
  0
LINE
  5
28B4
330
2BE9
100
AcDbEntity
  8
0
 62
     0
100
AcDbLine
 10
-331.1589408146728
 20
-80.99999999999909
 30
0.0
 11
411.4999999999991
 21
-576.1046962779316
 31
0.0
  0
LINE
  5
28B5
330
2BE9
100
AcDbEntity
  8
0
 62
     0
100
AcDbLine
 10
-326.6589795207874
 20
-81.0
 30
0.0
 11
411.4999999999978
 21
-573.1047297425154
 31
0.0
  0
LINE
  5
28B6
330
2BE9
100
AcDbEntity
  8
0
 62
     0
100
AcDbLine
 10
-322.1590182269019
 20
-80.99999999999909
 30
0.0
 11
411.4999999999978
 21
-570.1047632070992
 31
0.0
  0
LINE
  5
28B7
330
2BE9
100
AcDbEntity
  8
0
 62
     0
100
AcDbLine
 10
-317.6590569330165
 20
-80.99999999999909
 30
0.0
 11
411.4999999999991
 21
-567.1047966716843
 31
0.0
  0
LINE
  5
28B8
330
2BE9
100
AcDbEntity
  8
0
 62
     0
100
AcDbLine
 10
-313.1590956391302
 20
-80.99999999999909
 30
0.0
 11
411.4999999999991
 21
-564.1048301362671
 31
0.0
  0
LINE
  5
28B9
330
2BE9
100
AcDbEntity
  8
0
 62
     0
100
AcDbLine
 10
-308.6591343452456
 20
-80.99999999999909
 30
0.0
 11
411.4999999999991
 21
-561.1048636008518
 31
0.0
  0
LINE
  5
28BA
330
2BE9
100
AcDbEntity
  8
0
 62
     0
100
AcDbLine
 10
-304.15917305136
 20
-80.99999999999909
 30
0.0
 11
411.4999999999991
 21
-558.1048970654347
 31
0.0
  0
LINE
  5
28BB
330
2BE9
100
AcDbEntity
  8
0
 62
     0
100
AcDbLine
 10
-299.6592117574746
 20
-81.0
 30
0.0
 11
411.4999999999991
 21
-555.1049305300201
 31
0.0
  0
LINE
  5
28BC
330
2BE9
100
AcDbEntity
  8
0
 62
     0
100
AcDbLine
 10
-295.1592504635891
 20
-80.99999999999909
 30
0.0
 11
411.4999999999978
 21
-552.104963994602
 31
0.0
  0
LINE
  5
28BD
330
2BE9
100
AcDbEntity
  8
0
 62
     0
100
AcDbLine
 10
-290.6592891697028
 20
-81.0
 30
0.0
 11
411.4999999999991
 21
-549.1049974591868
 31
0.0
  0
LINE
  5
28BE
330
2BE9
100
AcDbEntity
  8
0
 62
     0
100
AcDbLine
 10
-286.1593278758173
 20
-81.0
 30
0.0
 11
411.4999999999991
 21
-546.1050309237698
 31
0.0
  0
LINE
  5
28BF
330
2BE9
100
AcDbEntity
  8
0
 62
     0
100
AcDbLine
 10
-281.659366581931
 20
-80.99999999999909
 30
0.0
 11
411.4999999999991
 21
-543.1050643883527
 31
0.0
  0
LINE
  5
28C0
330
2BE9
100
AcDbEntity
  8
0
 62
     0
100
AcDbLine
 10
-277.1594052880464
 20
-81.0
 30
0.0
 11
411.4999999999991
 21
-540.1050978529374
 31
0.0
  0
LINE
  5
28C1
330
2BE9
100
AcDbEntity
  8
0
 62
     0
100
AcDbLine
 10
-272.65944399416
 20
-80.99999999999909
 30
0.0
 11
411.4999999999991
 21
-537.1051313175212
 31
0.0
  0
LINE
  5
28C2
330
2BE9
100
AcDbEntity
  8
0
 62
     0
100
AcDbLine
 10
-268.1594827002755
 20
-81.0
 30
0.0
 11
411.4999999999991
 21
-534.1051647821059
 31
0.0
  0
LINE
  5
28C3
330
2BE9
100
AcDbEntity
  8
0
 62
     0
100
AcDbLine
 10
-263.65952140639
 20
-80.99999999999909
 30
0.0
 11
411.5
 21
-531.1051982466888
 31
0.0
  0
LINE
  5
28C4
330
2BE9
100
AcDbEntity
  8
0
 62
     0
100
AcDbLine
 10
-259.1595601125046
 20
-80.99999999999909
 30
0.0
 11
411.4999999999991
 21
-528.1052317112735
 31
0.0
  0
LINE
  5
28C5
330
2BE9
100
AcDbEntity
  8
0
 62
     0
100
AcDbLine
 10
-254.6595988186191
 20
-80.99999999999909
 30
0.0
 11
411.4999999999991
 21
-525.1052651758564
 31
0.0
  0
LINE
  5
28C6
330
2BE9
100
AcDbEntity
  8
0
 62
     0
100
AcDbLine
 10
-250.1596375247336
 20
-80.99999999999909
 30
0.0
 11
411.4999999999991
 21
-522.1052986404409
 31
0.0
  0
LINE
  5
28C7
330
2BE9
100
AcDbEntity
  8
0
 62
     0
100
AcDbLine
 10
-245.6596762308482
 20
-80.99999999999909
 30
0.0
 11
411.4999999999978
 21
-519.1053321050239
 31
0.0
  0
LINE
  5
28C8
330
2BE9
100
AcDbEntity
  8
0
 62
     0
100
AcDbLine
 10
-241.1597149369617
 20
-81.00000000000093
 30
0.0
 11
411.4999999999978
 21
-516.1053655696085
 31
0.0
  0
LINE
  5
28C9
330
2BE9
100
AcDbEntity
  8
0
 62
     0
100
AcDbLine
 10
-236.6597536430763
 20
-80.99999999999909
 30
0.0
 11
411.4999999999991
 21
-513.1053990341913
 31
0.0
  0
LINE
  5
28CA
330
2BE9
100
AcDbEntity
  8
0
 62
     0
100
AcDbLine
 10
-232.1597923491899
 20
-81.00000000000093
 30
0.0
 11
411.4999999999991
 21
-510.1054324987761
 31
0.0
  0
LINE
  5
28CB
330
2BE9
100
AcDbEntity
  8
0
 62
     0
100
AcDbLine
 10
-227.6598310553054
 20
-80.99999999999909
 30
0.0
 11
411.4999999999991
 21
-507.1054659633601
 31
0.0
  0
LINE
  5
28CC
330
2BE9
100
AcDbEntity
  8
0
 62
     0
100
AcDbLine
 10
-223.159869761419
 20
-80.99999999999909
 30
0.0
 11
411.4999999999991
 21
-504.1054994279429
 31
0.0
  0
LINE
  5
28CD
330
2BE9
100
AcDbEntity
  8
0
 62
     0
100
AcDbLine
 10
-218.6599084675345
 20
-81.0
 30
0.0
 11
411.4999999999978
 21
-501.1055328925267
 31
0.0
  0
LINE
  5
28CE
330
2BE9
100
AcDbEntity
  8
0
 62
     0
100
AcDbLine
 10
-214.1599471736472
 20
-80.99999999999909
 30
0.0
 11
411.4999999999991
 21
-498.1055663571105
 31
0.0
  0
LINE
  5
28CF
330
2BE9
100
AcDbEntity
  8
0
 62
     0
100
AcDbLine
 10
-209.6599858797627
 20
-81.0
 30
0.0
 11
411.4999999999991
 21
-495.1055998216951
 31
0.0
  0
LINE
  5
28D0
330
2BE9
100
AcDbEntity
  8
0
 62
     0
100
AcDbLine
 10
-205.1600245858781
 20
-80.99999999999818
 30
0.0
 11
411.4999999999991
 21
-492.1056332862772
 31
0.0
  0
LINE
  5
28D1
330
2BE9
100
AcDbEntity
  8
0
 62
     0
100
AcDbLine
 10
-200.6600632919917
 20
-81.0
 30
0.0
 11
411.4999999999991
 21
-489.1056667508627
 31
0.0
  0
LINE
  5
28D2
330
2BE9
100
AcDbEntity
  8
0
 62
     0
100
AcDbLine
 10
-196.1601019981071
 20
-80.99999999999909
 30
0.0
 11
411.4999999999991
 21
-486.1057002154457
 31
0.0
  0
LINE
  5
28D3
330
2BE9
100
AcDbEntity
  8
0
 62
     0
100
AcDbLine
 10
-191.6601407042208
 20
-81.0
 30
0.0
 11
411.4999999999991
 21
-483.1057336800303
 31
0.0
  0
LINE
  5
28D4
330
2BE9
100
AcDbEntity
  8
0
 62
     0
100
AcDbLine
 10
-187.1601794103353
 20
-80.99999999999909
 30
0.0
 11
411.5
 21
-480.1057671446129
 31
0.0
  0
LINE
  5
28D5
330
2BE9
100
AcDbEntity
  8
0
 62
     0
100
AcDbLine
 10
-182.6602181164489
 20
-81.00000000000093
 30
0.0
 11
411.5
 21
-477.105800609198
 31
0.0
  0
LINE
  5
28D6
330
2BE9
100
AcDbEntity
  8
0
 62
     0
100
AcDbLine
 10
-178.1602568225642
 20
-80.99999999999909
 30
0.0
 11
411.4999999999991
 21
-474.1058340737809
 31
0.0
  0
LINE
  5
28D7
330
2BE9
100
AcDbEntity
  8
0
 62
     0
100
AcDbLine
 10
-173.660295528678
 20
-81.00000000000093
 30
0.0
 11
411.4999999999991
 21
-471.1058675383656
 31
0.0
  0
LINE
  5
28D8
330
2BE9
100
AcDbEntity
  8
0
 62
     0
100
AcDbLine
 10
-169.1603342347916
 20
-81.0
 30
0.0
 11
411.4999999999978
 21
-468.1059010029485
 31
0.0
  0
LINE
  5
28D9
330
2BE9
100
AcDbEntity
  8
0
 62
     0
100
AcDbLine
 10
-164.6603729409071
 20
-80.99999999999909
 30
0.0
 11
411.4999999999978
 21
-465.1059344675314
 31
0.0
  0
LINE
  5
28DA
330
2BE9
100
AcDbEntity
  8
0
 62
     0
100
AcDbLine
 10
-160.1604116470198
 20
-81.00000000000093
 30
0.0
 11
411.4999999999991
 21
-462.105967932116
 31
0.0
  0
LINE
  5
28DB
330
2BE9
100
AcDbEntity
  8
0
 62
     0
100
AcDbLine
 10
-155.6604503531352
 20
-80.99999999999909
 30
0.0
 11
411.4999999999991
 21
-459.1060013966997
 31
0.0
  0
LINE
  5
28DC
330
2BE9
100
AcDbEntity
  8
0
 62
     0
100
AcDbLine
 10
-151.1604890592506
 20
-81.0
 30
0.0
 11
411.4999999999991
 21
-456.1060348612845
 31
0.0
  0
LINE
  5
28DD
330
2BE9
100
AcDbEntity
  8
0
 62
     0
100
AcDbLine
 10
-146.6605277653662
 20
-80.99999999999818
 30
0.0
 11
411.4999999999991
 21
-453.1060683258671
 31
0.0
  0
LINE
  5
28DE
330
2BE9
100
AcDbEntity
  8
0
 62
     0
100
AcDbLine
 10
-142.1605664714798
 20
-81.0
 30
0.0
 11
411.4999999999991
 21
-450.1061017904521
 31
0.0
  0
LINE
  5
28DF
330
2BE9
100
AcDbEntity
  8
0
 62
     0
100
AcDbLine
 10
-137.6606051775934
 20
-81.0
 30
0.0
 11
411.4999999999978
 21
-447.1061352550348
 31
0.0
  0
LINE
  5
28E0
330
2BE9
100
AcDbEntity
  8
0
 62
     0
100
AcDbLine
 10
-133.1606438837079
 20
-81.0
 30
0.0
 11
411.4999999999991
 21
-444.1061687196197
 31
0.0
  0
LINE
  5
28E1
330
2BE9
100
AcDbEntity
  8
0
 62
     0
100
AcDbLine
 10
-128.6606825898216
 20
-81.0
 30
0.0
 11
411.4999999999978
 21
-441.1062021842026
 31
0.0
  0
LINE
  5
28E2
330
2BE9
100
AcDbEntity
  8
0
 62
     0
100
AcDbLine
 10
-124.160721295937
 20
-81.0
 30
0.0
 11
411.4999999999978
 21
-438.1062356487872
 31
0.0
  0
LINE
  5
28E3
330
2BE9
100
AcDbEntity
  8
0
 62
     0
100
AcDbLine
 10
-119.6607600020506
 20
-81.0
 30
0.0
 11
411.4999999999991
 21
-435.1062691133702
 31
0.0
  0
LINE
  5
28E4
330
2BE9
100
AcDbEntity
  8
0
 62
     0
100
AcDbLine
 10
-115.1607987081661
 20
-81.00000000000093
 30
0.0
 11
411.4999999999991
 21
-432.1063025779546
 31
0.0
  0
LINE
  5
28E5
330
2BE9
100
AcDbEntity
  8
0
 62
     0
100
AcDbLine
 10
-110.6608374142797
 20
-81.0
 30
0.0
 11
411.4999999999991
 21
-429.1063360425387
 31
0.0
  0
LINE
  5
28E6
330
2BE9
100
AcDbEntity
  8
0
 62
     0
100
AcDbLine
 10
-106.1608761203933
 20
-81.0
 30
0.0
 11
411.4999999999991
 21
-426.1063695071205
 31
0.0
  0
LINE
  5
28E7
330
2BE9
100
AcDbEntity
  8
0
 62
     0
100
AcDbLine
 10
-101.6609148265079
 20
-81.0
 30
0.0
 11
411.5
 21
-423.1064029717063
 31
0.0
  0
LINE
  5
28E8
330
2BE9
100
AcDbEntity
  8
0
 62
     0
100
AcDbLine
 10
-97.16095353262243
 20
-81.0
 30
0.0
 11
411.4999999999978
 21
-420.1064364362882
 31
0.0
  0
LINE
  5
28E9
330
2BE9
100
AcDbEntity
  8
0
 62
     0
100
AcDbLine
 10
195.6999999999997
 20
-273.2401706012606
 30
0.0
 11
198.0397500727194
 21
-274.8000000000001
 31
0.0
  0
LINE
  5
28EA
330
2BE9
100
AcDbEntity
  8
0
 62
     0
100
AcDbLine
 10
198.0397500727194
 20
-274.8000000000001
 30
0.0
 11
411.4999999999991
 21
-417.1064699008737
 31
0.0
  0
LINE
  5
28EB
330
2BE9
100
AcDbEntity
  8
0
 62
     0
100
AcDbLine
 10
-92.66099223873878
 20
-81.0
 30
0.0
 11
195.6999999999997
 21
-273.2401706012606
 31
0.0
  0
LINE
  5
28EC
330
2BE9
100
AcDbEntity
  8
0
 62
     0
100
AcDbLine
 10
195.6999999999997
 20
-270.2402040658435
 30
0.0
 11
202.539711366604
 21
-274.7999999999993
 31
0.0
  0
LINE
  5
28ED
330
2BE9
100
AcDbEntity
  8
0
 62
     0
100
AcDbLine
 10
202.5397113666059
 20
-274.8000000000001
 30
0.0
 11
411.4999999999978
 21
-414.1065033654558
 31
0.0
  0
LINE
  5
28EE
330
2BE9
100
AcDbEntity
  8
0
 62
     0
100
AcDbLine
 10
-88.16103094485242
 20
-80.99999999999909
 30
0.0
 11
195.6999999999997
 21
-270.2402040658435
 31
0.0
  0
LINE
  5
28EF
330
2BE9
100
AcDbEntity
  8
0
 62
     0
100
AcDbLine
 10
195.6999999999997
 20
-267.2402375304282
 30
0.0
 11
207.0396726604886
 21
-274.7999999999993
 31
0.0
  0
LINE
  5
28F0
330
2BE9
100
AcDbEntity
  8
0
 62
     0
100
AcDbLine
 10
207.0396726604904
 20
-274.8000000000011
 30
0.0
 11
411.4999999999978
 21
-411.1065368300415
 31
0.0
  0
LINE
  5
28F1
330
2BE9
100
AcDbEntity
  8
0
 62
     0
100
AcDbLine
 10
-83.66106965096696
 20
-81.00000000000093
 30
0.0
 11
195.6999999999997
 21
-267.2402375304282
 31
0.0
  0
LINE
  5
28F2
330
2BE9
100
AcDbEntity
  8
0
 62
     0
100
AcDbLine
 10
195.7000000000007
 20
-264.2402709950111
 30
0.0
 11
211.5396339543758
 21
-274.7999999999993
 31
0.0
  0
LINE
  5
28F3
330
2BE9
100
AcDbEntity
  8
0
 62
     0
100
AcDbLine
 10
211.5396339543768
 20
-274.8000000000001
 30
0.0
 11
411.4999999999991
 21
-408.1065702946244
 31
0.0
  0
LINE
  5
28F4
330
2BE9
100
AcDbEntity
  8
0
 62
     0
100
AcDbLine
 10
-79.16110835707968
 20
-81.00000000000093
 30
0.0
 11
195.7000000000007
 21
-264.2402709950111
 31
0.0
  0
LINE
  5
28F5
330
2BE9
100
AcDbEntity
  8
0
 62
     0
100
AcDbLine
 10
195.7000000000007
 20
-261.2403044595967
 30
0.0
 11
216.0395952482622
 21
-274.8000000000011
 31
0.0
  0
LINE
  5
28F6
330
2BE9
100
AcDbEntity
  8
0
 62
     0
100
AcDbLine
 10
216.0395952482622
 20
-274.8000000000011
 30
0.0
 11
411.4999999999991
 21
-405.1066037592089
 31
0.0
  0
LINE
  5
28F7
330
2BE9
100
AcDbEntity
  8
0
 62
     0
100
AcDbLine
 10
-74.66114706319605
 20
-81.0
 30
0.0
 11
195.7000000000007
 21
-261.2403044595967
 31
0.0
  0
LINE
  5
28F8
330
2BE9
100
AcDbEntity
  8
0
 62
     0
100
AcDbLine
 10
195.7000000000007
 20
-258.2403379241787
 30
0.0
 11
220.5395565421468
 21
-274.7999999999993
 31
0.0
  0
LINE
  5
28F9
330
2BE9
100
AcDbEntity
  8
0
 62
     0
100
AcDbLine
 10
220.5395565421476
 20
-274.8000000000001
 30
0.0
 11
411.4999999999978
 21
-402.1066372237919
 31
0.0
  0
LINE
  5
28FA
330
2BE9
100
AcDbEntity
  8
0
 62
     0
100
AcDbLine
 10
-70.16118576930967
 20
-81.0
 30
0.0
 11
195.6999999999997
 21
-258.2403379241787
 31
0.0
  0
LINE
  5
28FB
330
2BE9
100
AcDbEntity
  8
0
 62
     0
100
AcDbLine
 10
195.7000000000007
 20
-255.2403713887634
 30
0.0
 11
225.0395178360331
 21
-274.8000000000011
 31
0.0
  0
LINE
  5
28FC
330
2BE9
100
AcDbEntity
  8
0
 62
     0
100
AcDbLine
 10
225.0395178360341
 20
-274.800000000002
 30
0.0
 11
411.4999999999978
 21
-399.1066706883768
 31
0.0
  0
LINE
  5
28FD
330
2BE9
100
AcDbEntity
  8
0
 62
     0
100
AcDbLine
 10
-65.66122447542422
 20
-81.00000000000093
 30
0.0
 11
195.7000000000007
 21
-255.2403713887634
 31
0.0
  0
LINE
  5
28FE
330
2BE9
100
AcDbEntity
  8
0
 62
     0
100
AcDbLine
 10
195.6999999999997
 20
-252.2404048533463
 30
0.0
 11
229.5394791299177
 21
-274.8000000000001
 31
0.0
  0
LINE
  5
28FF
330
2BE9
100
AcDbEntity
  8
0
 62
     0
100
AcDbLine
 10
229.5394791299186
 20
-274.8000000000011
 30
0.0
 11
411.4999999999969
 21
-396.1067041529596
 31
0.0
  0
LINE
  5
2900
330
2BE9
100
AcDbEntity
  8
0
 62
     0
100
AcDbLine
 10
-61.16126318153781
 20
-81.00000000000093
 30
0.0
 11
195.6999999999997
 21
-252.2404048533463
 31
0.0
  0
LINE
  5
2901
330
2BE9
100
AcDbEntity
  8
0
 62
     0
100
AcDbLine
 10
195.6999999999997
 20
-249.240438317931
 30
0.0
 11
234.0394404238041
 21
-274.8000000000011
 31
0.0
  0
LINE
  5
2902
330
2BE9
100
AcDbEntity
  8
0
 62
     0
100
AcDbLine
 10
234.039440423805
 20
-274.800000000002
 30
0.0
 11
411.4999999999969
 21
-393.1067376175442
 31
0.0
  0
LINE
  5
2903
330
2BE9
100
AcDbEntity
  8
0
 62
     0
100
AcDbLine
 10
-56.66130188765146
 20
-81.00000000000269
 30
0.0
 11
195.6999999999997
 21
-249.240438317931
 31
0.0
  0
LINE
  5
2904
330
2BE9
100
AcDbEntity
  8
0
 62
     0
100
AcDbLine
 10
195.7000000000007
 20
-246.2404717825148
 30
0.0
 11
238.5394017176905
 21
-274.8000000000011
 31
0.0
  0
LINE
  5
2905
330
2BE9
100
AcDbEntity
  8
0
 62
     0
100
AcDbLine
 10
238.5394017176905
 20
-274.8000000000011
 30
0.0
 11
411.4999999999978
 21
-390.1067710821271
 31
0.0
  0
LINE
  5
2906
330
2BE9
100
AcDbEntity
  8
0
 62
     0
100
AcDbLine
 10
-52.16134059376781
 20
-81.0
 30
0.0
 11
195.7000000000007
 21
-246.2404717825148
 31
0.0
  0
LINE
  5
2907
330
2BE9
100
AcDbEntity
  8
0
 62
     0
100
AcDbLine
 10
195.7000000000007
 20
-243.2405052470977
 30
0.0
 11
243.039363011575
 21
-274.7999999999993
 31
0.0
  0
LINE
  5
2908
330
2BE9
100
AcDbEntity
  8
0
 62
     0
100
AcDbLine
 10
243.0393630115768
 20
-274.8000000000011
 30
0.0
 11
411.4999999999978
 21
-387.1068045467099
 31
0.0
  0
LINE
  5
2909
330
2BE9
100
AcDbEntity
  8
0
 62
     0
100
AcDbLine
 10
-47.66137929988143
 20
-81.0
 30
0.0
 11
195.7000000000007
 21
-243.2405052470977
 31
0.0
  0
LINE
  5
290A
330
2BE9
100
AcDbEntity
  8
0
 62
     0
100
AcDbLine
 10
195.7000000000007
 20
-240.2405387116823
 30
0.0
 11
247.5393243054614
 21
-274.8000000000011
 31
0.0
  0
LINE
  5
290B
330
2BE9
100
AcDbEntity
  8
0
 62
     0
100
AcDbLine
 10
247.5393243054614
 20
-274.8000000000011
 30
0.0
 11
411.4999999999978
 21
-384.1068380112948
 31
0.0
  0
LINE
  5
290C
330
2BE9
100
AcDbEntity
  8
0
 62
     0
100
AcDbLine
 10
-43.16141800599506
 20
-81.00000000000093
 30
0.0
 11
195.7000000000007
 21
-240.2405387116823
 31
0.0
  0
LINE
  5
290D
330
2BE9
100
AcDbEntity
  8
0
 62
     0
100
AcDbLine
 10
195.7000000000007
 20
-237.2405721762652
 30
0.0
 11
252.0392855993459
 21
-274.8000000000001
 31
0.0
  0
LINE
  5
290E
330
2BE9
100
AcDbEntity
  8
0
 62
     0
100
AcDbLine
 10
252.0392855993459
 20
-274.8000000000001
 30
0.0
 11
411.4999999999978
 21
-381.1068714758785
 31
0.0
  0
LINE
  5
290F
330
2BE9
100
AcDbEntity
  8
0
 62
     0
100
AcDbLine
 10
-38.66145671211143
 20
-80.99999999999909
 30
0.0
 11
195.6999999999997
 21
-237.2405721762652
 31
0.0
  0
LINE
  5
2910
330
2BE9
100
AcDbEntity
  8
0
 62
     0
100
AcDbLine
 10
195.6999999999997
 20
-234.2406056408499
 30
0.0
 11
256.5392468932314
 21
-274.8000000000001
 31
0.0
  0
LINE
  5
2911
330
2BE9
100
AcDbEntity
  8
0
 62
     0
100
AcDbLine
 10
256.5392468932323
 20
-274.8000000000011
 30
0.0
 11
411.4999999999991
 21
-378.1069049404631
 31
0.0
  0
LINE
  5
2912
330
2BE9
100
AcDbEntity
  8
0
 62
     0
100
AcDbLine
 10
-34.16149541822597
 20
-81.00000000000093
 30
0.0
 11
195.6999999999997
 21
-234.2406056408499
 31
0.0
  0
LINE
  5
2913
330
2BE9
100
AcDbEntity
  8
0
 62
     0
100
AcDbLine
 10
195.6999999999997
 20
-231.2406391054328
 30
0.0
 11
261.0392081871169
 21
-274.8000000000001
 31
0.0
  0
LINE
  5
2914
330
2BE9
100
AcDbEntity
  8
0
 62
     0
100
AcDbLine
 10
261.0392081871169
 20
-274.8000000000001
 30
0.0
 11
411.4999999999978
 21
-375.1069384050452
 31
0.0
  0
LINE
  5
2915
330
2BE9
100
AcDbEntity
  8
0
 62
     0
100
AcDbLine
 10
-29.6615341243396
 20
-81.0
 30
0.0
 11
195.6999999999989
 21
-231.2406391054319
 31
0.0
  0
LINE
  5
2916
330
2BE9
100
AcDbEntity
  8
0
 62
     0
100
AcDbLine
 10
195.6999999999997
 20
-228.2406725700174
 30
0.0
 11
265.5391694810033
 21
-274.8000000000001
 31
0.0
  0
LINE
  5
2917
330
2BE9
100
AcDbEntity
  8
0
 62
     0
100
AcDbLine
 10
265.5391694810041
 20
-274.800000000002
 30
0.0
 11
411.4999999999991
 21
-372.1069718696308
 31
0.0
  0
LINE
  5
2918
330
2BE9
100
AcDbEntity
  8
0
 62
     0
100
AcDbLine
 10
-25.16157283045505
 20
-81.0
 30
0.0
 11
195.6999999999997
 21
-228.2406725700174
 31
0.0
  0
LINE
  5
2919
330
2BE9
100
AcDbEntity
  8
0
 62
     0
100
AcDbLine
 10
195.6999999999997
 20
-225.2407060346004
 30
0.0
 11
270.0391307748887
 21
-274.8000000000001
 31
0.0
  0
LINE
  5
291A
330
2BE9
100
AcDbEntity
  8
0
 62
     0
100
AcDbLine
 10
270.0391307748887
 20
-274.8000000000001
 30
0.0
 11
411.4999999999978
 21
-369.1070053342128
 31
0.0
  0
LINE
  5
291B
330
2BE9
100
AcDbEntity
  8
0
 62
     0
100
AcDbLine
 10
-20.66161153656958
 20
-80.99999999999909
 30
0.0
 11
195.6999999999997
 21
-225.2407060346004
 31
0.0
  0
LINE
  5
291C
330
2BE9
100
AcDbEntity
  8
0
 62
     0
100
AcDbLine
 10
195.6999999999997
 20
-222.2407394991851
 30
0.0
 11
274.5390920687732
 21
-274.8000000000011
 31
0.0
  0
LINE
  5
291D
330
2BE9
100
AcDbEntity
  8
0
 62
     0
100
AcDbLine
 10
274.539092068775
 20
-274.800000000002
 30
0.0
 11
411.4999999999978
 21
-366.1070387987976
 31
0.0
  0
LINE
  5
291E
330
2BE9
100
AcDbEntity
  8
0
 62
     0
100
AcDbLine
 10
-16.16165024268321
 20
-81.00000000000093
 30
0.0
 11
195.6999999999997
 21
-222.2407394991851
 31
0.0
  0
LINE
  5
291F
330
2BE9
100
AcDbEntity
  8
0
 62
     0
100
AcDbLine
 10
195.6999999999997
 20
-219.240772963768
 30
0.0
 11
279.0390533626596
 21
-274.8000000000001
 31
0.0
  0
LINE
  5
2920
330
2BE9
100
AcDbEntity
  8
0
 62
     0
100
AcDbLine
 10
279.0390533626596
 20
-274.8000000000001
 30
0.0
 11
411.4999999999978
 21
-363.1070722633813
 31
0.0
  0
LINE
  5
2921
330
2BE9
100
AcDbEntity
  8
0
 62
     0
100
AcDbLine
 10
-11.66168894879684
 20
-81.00000000000093
 30
0.0
 11
195.6999999999997
 21
-219.240772963768
 31
0.0
  0
LINE
  5
2922
330
2BE9
100
AcDbEntity
  8
0
 62
     0
100
AcDbLine
 10
195.6999999999997
 20
-216.2408064283527
 30
0.0
 11
283.5390146565443
 21
-274.8000000000011
 31
0.0
  0
LINE
  5
2923
330
2BE9
100
AcDbEntity
  8
0
 62
     0
100
AcDbLine
 10
283.539014656546
 20
-274.800000000002
 30
0.0
 11
411.4999999999978
 21
-360.107105727966
 31
0.0
  0
LINE
  5
2924
330
2BE9
100
AcDbEntity
  8
0
 62
     0
100
AcDbLine
 10
-7.161727654910463
 20
-81.00000000000182
 30
0.0
 11
195.6999999999997
 21
-216.2408064283527
 31
0.0
  0
LINE
  5
2925
330
2BE9
100
AcDbEntity
  8
0
 62
     0
100
AcDbLine
 10
195.7000000000007
 20
-213.2408398929364
 30
0.0
 11
288.0389759504314
 21
-274.8000000000011
 31
0.0
  0
LINE
  5
2926
330
2BE9
100
AcDbEntity
  8
0
 62
     0
100
AcDbLine
 10
288.0389759504333
 20
-274.800000000002
 30
0.0
 11
411.4999999999991
 21
-357.1071391925489
 31
0.0
  0
LINE
  5
2927
330
2BE9
100
AcDbEntity
  8
0
 62
     0
100
AcDbLine
 10
-2.66176636102682
 20
-81.0
 30
0.0
 11
195.6999999999997
 21
-213.2408398929356
 31
0.0
  0
LINE
  5
2928
330
2BE9
100
AcDbEntity
  8
0
 62
     0
100
AcDbLine
 10
195.6999999999997
 20
-210.2408733575203
 30
0.0
 11
292.5389372443178
 21
-274.800000000002
 31
0.0
  0
LINE
  5
2929
330
2BE9
100
AcDbEntity
  8
0
 62
     0
100
AcDbLine
 10
292.5389372443178
 20
-274.800000000002
 30
0.0
 11
411.4999999999991
 21
-354.1071726571336
 31
0.0
  0
LINE
  5
292A
330
2BE9
100
AcDbEntity
  8
0
 62
     0
100
AcDbLine
 10
1.838194932859551
 20
-81.00000000000093
 30
0.0
 11
195.6999999999997
 21
-210.2408733575203
 31
0.0
  0
LINE
  5
292B
330
2BE9
100
AcDbEntity
  8
0
 62
     0
100
AcDbLine
 10
195.7000000000007
 20
-207.2409068221041
 30
0.0
 11
297.0388985382024
 21
-274.8000000000011
 31
0.0
  0
LINE
  5
292C
330
2BE9
100
AcDbEntity
  8
0
 62
     0
100
AcDbLine
 10
297.0388985382024
 20
-274.8000000000011
 30
0.0
 11
411.4999999999991
 21
-351.1072061217165
 31
0.0
  0
LINE
  5
292D
330
2BE9
100
AcDbEntity
  8
0
 62
     0
100
AcDbLine
 10
6.33815622674592
 20
-81.00000000000093
 30
0.0
 11
195.6999999999997
 21
-207.2409068221032
 31
0.0
  0
LINE
  5
292E
330
2BE9
100
AcDbEntity
  8
0
 62
     0
100
AcDbLine
 10
195.6999999999997
 20
-204.240940286686
 30
0.0
 11
301.5388598320888
 21
-274.8000000000001
 31
0.0
  0
LINE
  5
292F
330
2BE9
100
AcDbEntity
  8
0
 62
     0
100
AcDbLine
 10
301.5388598320888
 20
-274.8000000000001
 30
0.0
 11
411.4999999999978
 21
-348.1072395862993
 31
0.0
  0
LINE
  5
2930
330
2BE9
100
AcDbEntity
  8
0
 62
     0
100
AcDbLine
 10
10.83811752063229
 20
-81.00000000000093
 30
0.0
 11
195.6999999999997
 21
-204.240940286686
 31
0.0
  0
LINE
  5
2931
330
2BE9
100
AcDbEntity
  8
0
 62
     0
100
AcDbLine
 10
195.7000000000007
 20
-201.2409737512717
 30
0.0
 11
306.0388211259733
 21
-274.8000000000011
 31
0.0
  0
LINE
  5
2932
330
2BE9
100
AcDbEntity
  8
0
 62
     0
100
AcDbLine
 10
306.0388211259733
 20
-274.8000000000011
 30
0.0
 11
411.4999999999978
 21
-345.107273050884
 31
0.0
  0
LINE
  5
2933
330
2BE9
100
AcDbEntity
  8
0
 62
     0
100
AcDbLine
 10
15.33807881451503
 20
-81.0
 30
0.0
 11
195.6999999999997
 21
-201.2409737512708
 31
0.0
  0
LINE
  5
2934
330
2BE9
100
AcDbEntity
  8
0
 62
     0
100
AcDbLine
 10
195.6999999999997
 20
-198.2410072158544
 30
0.0
 11
310.538782419858
 21
-274.8000000000001
 31
0.0
  0
LINE
  5
2935
330
2BE9
100
AcDbEntity
  8
0
 62
     0
100
AcDbLine
 10
310.538782419858
 20
-274.8000000000001
 30
0.0
 11
411.4999999999969
 21
-342.1073065154669
 31
0.0
  0
LINE
  5
2936
330
2BE9
100
AcDbEntity
  8
0
 62
     0
100
AcDbLine
 10
19.8380401084014
 20
-81.0
 30
0.0
 11
195.6999999999997
 21
-198.2410072158544
 31
0.0
  0
LINE
  5
2937
330
2BE9
100
AcDbEntity
  8
0
 62
     0
100
AcDbLine
 10
195.7000000000007
 20
-195.2410406804392
 30
0.0
 11
315.0387437137451
 21
-274.8000000000011
 31
0.0
  0
LINE
  5
2938
330
2BE9
100
AcDbEntity
  8
0
 62
     0
100
AcDbLine
 10
315.0387437137451
 20
-274.8000000000011
 30
0.0
 11
411.4999999999978
 21
-339.1073399800516
 31
0.0
  0
LINE
  5
2939
330
2BE9
100
AcDbEntity
  8
0
 62
     0
100
AcDbLine
 10
24.33800140228868
 20
-81.00000000000093
 30
0.0
 11
195.7000000000007
 21
-195.2410406804392
 31
0.0
  0
LINE
  5
293A
330
2BE9
100
AcDbEntity
  8
0
 62
     0
100
AcDbLine
 10
195.7000000000007
 20
-192.2410741450221
 30
0.0
 11
319.5387050076297
 21
-274.8000000000001
 31
0.0
  0
LINE
  5
293B
330
2BE9
100
AcDbEntity
  8
0
 62
     0
100
AcDbLine
 10
319.5387050076315
 20
-274.8000000000011
 30
0.0
 11
411.4999999999978
 21
-336.1073734446345
 31
0.0
  0
LINE
  5
293C
330
2BE9
100
AcDbEntity
  8
0
 62
     0
100
AcDbLine
 10
28.83796269617143
 20
-80.99999999999909
 30
0.0
 11
195.7000000000007
 21
-192.2410741450221
 31
0.0
  0
LINE
  5
293D
330
2BE9
100
AcDbEntity
  8
0
 62
     0
100
AcDbLine
 10
195.7000000000007
 20
-189.2411076096068
 30
0.0
 11
324.038666301516
 21
-274.8000000000011
 31
0.0
  0
LINE
  5
293E
330
2BE9
100
AcDbEntity
  8
0
 62
     0
100
AcDbLine
 10
324.038666301516
 20
-274.8000000000011
 30
0.0
 11
411.4999999999978
 21
-333.10740690922
 31
0.0
  0
LINE
  5
293F
330
2BE9
100
AcDbEntity
  8
0
 62
     0
100
AcDbLine
 10
33.33792399005779
 20
-81.00000000000093
 30
0.0
 11
195.7000000000007
 21
-189.2411076096068
 31
0.0
  0
LINE
  5
2940
330
2BE9
100
AcDbEntity
  8
0
 62
     0
100
AcDbLine
 10
195.6999999999997
 20
-186.2411410741897
 30
0.0
 11
328.5386275954006
 21
-274.8000000000001
 31
0.0
  0
LINE
  5
2941
330
2BE9
100
AcDbEntity
  8
0
 62
     0
100
AcDbLine
 10
328.5386275954024
 20
-274.8000000000011
 30
0.0
 11
411.4999999999978
 21
-330.107440373803
 31
0.0
  0
LINE
  5
2942
330
2BE9
100
AcDbEntity
  8
0
 62
     0
100
AcDbLine
 10
37.83788528394416
 20
-81.0
 30
0.0
 11
195.6999999999997
 21
-186.2411410741897
 31
0.0
  0
LINE
  5
2943
330
2BE9
100
AcDbEntity
  8
0
 62
     0
100
AcDbLine
 10
195.7000000000007
 20
-183.2411745387753
 30
0.0
 11
333.0385888892869
 21
-274.800000000002
 31
0.0
  0
LINE
  5
2944
330
2BE9
100
AcDbEntity
  8
0
 62
     0
100
AcDbLine
 10
333.0385888892869
 20
-274.800000000002
 30
0.0
 11
411.4999999999978
 21
-327.1074738383877
 31
0.0
  0
LINE
  5
2945
330
2BE9
100
AcDbEntity
  8
0
 62
     0
100
AcDbLine
 10
42.33784657783053
 20
-81.00000000000182
 30
0.0
 11
195.6999999999989
 21
-183.2411745387734
 31
0.0
  0
LINE
  5
2946
330
2BE9
100
AcDbEntity
  8
0
 62
     0
100
AcDbLine
 10
195.6999999999989
 20
-180.2412080033573
 30
0.0
 11
337.5385501831734
 21
-274.8000000000011
 31
0.0
  0
LINE
  5
2947
330
2BE9
100
AcDbEntity
  8
0
 62
     0
100
AcDbLine
 10
337.5385501831734
 20
-274.8000000000011
 30
0.0
 11
411.4999999999978
 21
-324.1075073029706
 31
0.0
  0
LINE
  5
2948
330
2BE9
100
AcDbEntity
  8
0
 62
     0
100
AcDbLine
 10
46.83780787171325
 20
-80.99999999999909
 30
0.0
 11
195.6999999999989
 21
-180.2412080033573
 31
0.0
  0
LINE
  5
2949
330
2BE9
100
AcDbEntity
  8
0
 62
     0
100
AcDbLine
 10
195.7000000000007
 20
-177.241241467942
 30
0.0
 11
342.0385114770588
 21
-274.800000000002
 31
0.0
  0
LINE
  5
294A
330
2BE9
100
AcDbEntity
  8
0
 62
     0
100
AcDbLine
 10
342.0385114770588
 20
-274.800000000002
 30
0.0
 11
411.4999999999991
 21
-321.1075407675552
 31
0.0
  0
LINE
  5
294B
330
2BE9
100
AcDbEntity
  8
0
 62
     0
100
AcDbLine
 10
51.33776916560055
 20
-81.00000000000093
 30
0.0
 11
195.6999999999997
 21
-177.241241467942
 31
0.0
  0
LINE
  5
294C
330
2BE9
100
AcDbEntity
  8
0
 62
     0
100
AcDbLine
 10
195.6999999999997
 20
-174.2412749325249
 30
0.0
 11
346.5384727709452
 21
-274.8000000000011
 31
0.0
  0
LINE
  5
294D
330
2BE9
100
AcDbEntity
  8
0
 62
     0
100
AcDbLine
 10
346.5384727709452
 20
-274.8000000000011
 30
0.0
 11
411.4999999999991
 21
-318.1075742321382
 31
0.0
  0
LINE
  5
294E
330
2BE9
100
AcDbEntity
  8
0
 62
     0
100
AcDbLine
 10
55.83773045948692
 20
-81.00000000000093
 30
0.0
 11
195.6999999999997
 21
-174.2412749325249
 31
0.0
  0
LINE
  5
294F
330
2BE9
100
AcDbEntity
  8
0
 62
     0
100
AcDbLine
 10
195.6999999999997
 20
-171.2413083971096
 30
0.0
 11
351.0384340648297
 21
-274.800000000002
 31
0.0
  0
LINE
  5
2950
330
2BE9
100
AcDbEntity
  8
0
 62
     0
100
AcDbLine
 10
351.0384340648297
 20
-274.800000000002
 30
0.0
 11
411.4999999999978
 21
-315.1076076967229
 31
0.0
  0
LINE
  5
2951
330
2BE9
100
AcDbEntity
  8
0
 62
     0
100
AcDbLine
 10
60.33769175337329
 20
-81.00000000000182
 30
0.0
 11
195.6999999999997
 21
-171.2413083971096
 31
0.0
  0
LINE
  5
2952
330
2BE9
100
AcDbEntity
  8
0
 62
     0
100
AcDbLine
 10
195.6999999999997
 20
-168.2413418616924
 30
0.0
 11
355.5383953587161
 21
-274.800000000002
 31
0.0
  0
LINE
  5
2953
330
2BE9
100
AcDbEntity
  8
0
 62
     0
100
AcDbLine
 10
355.5383953587161
 20
-274.800000000002
 30
0.0
 11
411.4999999999978
 21
-312.1076411613058
 31
0.0
  0
LINE
  5
2954
330
2BE9
100
AcDbEntity
  8
0
 62
     0
100
AcDbLine
 10
64.83765304725602
 20
-81.0
 30
0.0
 11
195.6999999999997
 21
-168.2413418616924
 31
0.0
  0
LINE
  5
2955
330
2BE9
100
AcDbEntity
  8
0
 62
     0
100
AcDbLine
 10
195.6999999999997
 20
-165.2413753262781
 30
0.0
 11
360.0383566526008
 21
-274.800000000002
 31
0.0
  0
LINE
  5
2956
330
2BE9
100
AcDbEntity
  8
0
 62
     0
100
AcDbLine
 10
360.0383566526016
 20
-274.8000000000029
 30
0.0
 11
411.4999999999978
 21
-309.1076746258905
 31
0.0
  0
LINE
  5
2957
330
2BE9
100
AcDbEntity
  8
0
 62
     0
100
AcDbLine
 10
69.3376143411424
 20
-81.00000000000093
 30
0.0
 11
195.6999999999989
 21
-165.2413753262772
 31
0.0
  0
LINE
  5
2958
330
2BE9
100
AcDbEntity
  8
0
 62
     0
100
AcDbLine
 10
195.6999999999997
 20
-162.241408790861
 30
0.0
 11
364.5383179464852
 21
-274.8000000000011
 31
0.0
  0
LINE
  5
2959
330
2BE9
100
AcDbEntity
  8
0
 62
     0
100
AcDbLine
 10
364.5383179464861
 20
-274.8000000000011
 30
0.0
 11
411.4999999999978
 21
-306.1077080904734
 31
0.0
  0
LINE
  5
295A
330
2BE9
100
AcDbEntity
  8
0
 62
     0
100
AcDbLine
 10
73.83757563502875
 20
-81.00000000000093
 30
0.0
 11
195.6999999999989
 21
-162.2414087908601
 31
0.0
  0
LINE
  5
295B
330
2BE9
100
AcDbEntity
  8
0
 62
     0
100
AcDbLine
 10
195.6999999999997
 20
-159.2414422554439
 30
0.0
 11
369.0382792403724
 21
-274.8000000000001
 31
0.0
  0
LINE
  5
295C
330
2BE9
100
AcDbEntity
  8
0
 62
     0
100
AcDbLine
 10
369.0382792403735
 20
-274.8000000000011
 30
0.0
 11
411.4999999999991
 21
-303.1077415550563
 31
0.0
  0
LINE
  5
295D
330
2BE9
100
AcDbEntity
  8
0
 62
     0
100
AcDbLine
 10
78.33753692891604
 20
-81.00000000000093
 30
0.0
 11
195.6999999999997
 21
-159.2414422554429
 31
0.0
  0
LINE
  5
295E
330
2BE9
100
AcDbEntity
  8
0
 62
     0
100
AcDbLine
 10
195.6999999999997
 20
-156.2414757200285
 30
0.0
 11
373.5382405342571
 21
-274.8000000000011
 31
0.0
  0
LINE
  5
295F
330
2BE9
100
AcDbEntity
  8
0
 62
     0
100
AcDbLine
 10
373.538240534258
 20
-274.800000000002
 30
0.0
 11
411.4999999999991
 21
-300.107775019642
 31
0.0
  0
LINE
  5
2960
330
2BE9
100
AcDbEntity
  8
0
 62
     0
100
AcDbLine
 10
82.83749822279878
 20
-81.0
 30
0.0
 11
195.6999999999997
 21
-156.2414757200276
 31
0.0
  0
LINE
  5
2961
330
2BE9
100
AcDbEntity
  8
0
 62
     0
100
AcDbLine
 10
195.6999999999997
 20
-153.2415091846104
 30
0.0
 11
378.0382018281434
 21
-274.8000000000011
 31
0.0
  0
LINE
  5
2962
330
2BE9
100
AcDbEntity
  8
0
 62
     0
100
AcDbLine
 10
378.0382018281442
 20
-274.8000000000011
 30
0.0
 11
411.4999999999991
 21
-297.1078084842247
 31
0.0
  0
LINE
  5
2963
330
2BE9
100
AcDbEntity
  8
0
 62
     0
100
AcDbLine
 10
87.33745951668515
 20
-81.0
 30
0.0
 11
195.6999999999997
 21
-153.2415091846104
 31
0.0
  0
LINE
  5
2964
330
2BE9
100
AcDbEntity
  8
0
 62
     0
100
AcDbLine
 10
195.6999999999997
 20
-150.2415426491961
 30
0.0
 11
382.538163122028
 21
-274.8000000000011
 31
0.0
  0
LINE
  5
2965
330
2BE9
100
AcDbEntity
  8
0
 62
     0
100
AcDbLine
 10
382.5381631220298
 20
-274.8000000000029
 30
0.0
 11
411.4999999999978
 21
-294.1078419488085
 31
0.0
  0
LINE
  5
2966
330
2BE9
100
AcDbEntity
  8
0
 62
     0
100
AcDbLine
 10
91.83742081057152
 20
-81.00000000000182
 30
0.0
 11
195.6999999999997
 21
-150.2415426491961
 31
0.0
  0
LINE
  5
2967
330
2BE9
100
AcDbEntity
  8
0
 62
     0
100
AcDbLine
 10
195.6999999999997
 20
-147.241576113779
 30
0.0
 11
387.0381244159144
 21
-274.8000000000011
 31
0.0
  0
LINE
  5
2968
330
2BE9
100
AcDbEntity
  8
0
 62
     0
100
AcDbLine
 10
387.0381244159152
 20
-274.8000000000011
 30
0.0
 11
411.4999999999978
 21
-291.1078754133923
 31
0.0
  0
LINE
  5
2969
330
2BE9
100
AcDbEntity
  8
0
 62
     0
100
AcDbLine
 10
96.33738210445427
 20
-80.99999999999909
 30
0.0
 11
195.6999999999997
 21
-147.241576113779
 31
0.0
  0
LINE
  5
296A
330
2BE9
100
AcDbEntity
  8
0
 62
     0
100
AcDbLine
 10
195.6999999999997
 20
-144.2416095783637
 30
0.0
 11
391.5380857097998
 21
-274.8000000000029
 31
0.0
  0
LINE
  5
296B
330
2BE9
100
AcDbEntity
  8
0
 62
     0
100
AcDbLine
 10
391.5380857098007
 20
-274.8000000000029
 30
0.0
 11
411.4999999999969
 21
-288.1079088779761
 31
0.0
  0
LINE
  5
296C
330
2BE9
100
AcDbEntity
  8
0
 62
     0
100
AcDbLine
 10
100.8373433983406
 20
-81.00000000000093
 30
0.0
 11
195.6999999999997
 21
-144.2416095783637
 31
0.0
  0
LINE
  5
296D
330
2BE9
100
AcDbEntity
  8
0
 62
     0
100
AcDbLine
 10
195.7000000000007
 20
-141.2416430429464
 30
0.0
 11
396.0380470036863
 21
-274.8000000000011
 31
0.0
  0
LINE
  5
296E
330
2BE9
100
AcDbEntity
  8
0
 62
     0
100
AcDbLine
 10
396.0380470036863
 20
-274.800000000002
 30
0.0
 11
411.4999999999978
 21
-285.1079423425599
 31
0.0
  0
LINE
  5
296F
330
2BE9
100
AcDbEntity
  8
0
 62
     0
100
AcDbLine
 10
105.3373046922279
 20
-81.0
 30
0.0
 11
195.6999999999997
 21
-141.2416430429464
 31
0.0
  0
LINE
  5
2970
330
2BE9
100
AcDbEntity
  8
0
 62
     0
100
AcDbLine
 10
195.7000000000007
 20
-138.2416765075313
 30
0.0
 11
400.5380082975716
 21
-274.8000000000029
 31
0.0
  0
LINE
  5
2971
330
2BE9
100
AcDbEntity
  8
0
 62
     0
100
AcDbLine
 10
400.5380082975722
 20
-274.8000000000029
 30
0.0
 11
411.4999999999978
 21
-282.1079758071446
 31
0.0
  0
LINE
  5
2972
330
2BE9
100
AcDbEntity
  8
0
 62
     0
100
AcDbLine
 10
109.8372659861143
 20
-81.00000000000182
 30
0.0
 11
195.6999999999997
 21
-138.2416765075313
 31
0.0
  0
LINE
  5
2973
330
2BE9
100
AcDbEntity
  8
0
 62
     0
100
AcDbLine
 10
195.7000000000007
 20
-135.2417099721151
 30
0.0
 11
405.0379695914569
 21
-274.8000000000011
 31
0.0
  0
LINE
  5
2974
330
2BE9
100
AcDbEntity
  8
0
 62
     0
100
AcDbLine
 10
405.0379695914569
 20
-274.800000000002
 30
0.0
 11
411.4999999999978
 21
-279.1080092717275
 31
0.0
  0
LINE
  5
2975
330
2BE9
100
AcDbEntity
  8
0
 62
     0
100
AcDbLine
 10
114.337227279997
 20
-80.99999999999909
 30
0.0
 11
195.6999999999997
 21
-135.2417099721142
 31
0.0
  0
LINE
  5
2976
330
2BE9
100
AcDbEntity
  8
0
 62
     0
100
AcDbLine
 10
195.6999999999997
 20
-132.2417434366989
 30
0.0
 11
409.5379308853416
 21
-274.800000000002
 31
0.0
  0
LINE
  5
2977
330
2BE9
100
AcDbEntity
  8
0
 62
     0
100
AcDbLine
 10
409.5379308853424
 20
-274.800000000002
 30
0.0
 11
411.4999999999978
 21
-276.1080427363122
 31
0.0
  0
LINE
  5
2978
330
2BE9
100
AcDbEntity
  8
0
 62
     0
100
AcDbLine
 10
118.8371885738834
 20
-81.00000000000093
 30
0.0
 11
195.6999999999989
 21
-132.2417434366989
 31
0.0
  0
LINE
  5
2979
330
2BE9
100
AcDbEntity
  8
0
 62
     0
100
AcDbLine
 10
195.6999999999997
 20
-129.2417769012818
 30
0.0
 11
411.4999999999978
 21
-273.1080762008951
 31
0.0
  0
LINE
  5
297A
330
2BE9
100
AcDbEntity
  8
0
 62
     0
100
AcDbLine
 10
123.3371498677698
 20
-81.00000000000093
 30
0.0
 11
195.6999999999989
 21
-129.2417769012818
 31
0.0
  0
LINE
  5
297B
330
2BE9
100
AcDbEntity
  8
0
 62
     0
100
AcDbLine
 10
195.6999999999989
 20
-126.2418103658665
 30
0.0
 11
411.4999999999978
 21
-270.1081096654807
 31
0.0
  0
LINE
  5
297C
330
2BE9
100
AcDbEntity
  8
0
 62
     0
100
AcDbLine
 10
127.8371111616552
 20
-81.00000000000182
 30
0.0
 11
195.6999999999989
 21
-126.2418103658665
 31
0.0
  0
LINE
  5
297D
330
2BE9
100
AcDbEntity
  8
0
 62
     0
100
AcDbLine
 10
195.6999999999997
 20
-123.2418438304494
 30
0.0
 11
411.4999999999991
 21
-267.1081431300636
 31
0.0
  0
LINE
  5
297E
330
2BE9
100
AcDbEntity
  8
0
 62
     0
100
AcDbLine
 10
132.3370724555398
 20
-81.0
 30
0.0
 11
195.6999999999997
 21
-123.2418438304494
 31
0.0
  0
LINE
  5
297F
330
2BE9
100
AcDbEntity
  8
0
 62
     0
100
AcDbLine
 10
195.6999999999997
 20
-120.2418772950323
 30
0.0
 11
411.4999999999991
 21
-264.1081765946465
 31
0.0
  0
LINE
  5
2980
330
2BE9
100
AcDbEntity
  8
0
 62
     0
100
AcDbLine
 10
136.8370337494261
 20
-80.99999999999909
 30
0.0
 11
195.6999999999997
 21
-120.2418772950323
 31
0.0
  0
LINE
  5
2981
330
2BE9
100
AcDbEntity
  8
0
 62
     0
100
AcDbLine
 10
195.6999999999997
 20
-117.2419107596178
 30
0.0
 11
411.4999999999991
 21
-261.1082100592313
 31
0.0
  0
LINE
  5
2982
330
2BE9
100
AcDbEntity
  8
0
 62
     0
100
AcDbLine
 10
141.3369950433116
 20
-81.00000000000093
 30
0.0
 11
195.6999999999997
 21
-117.2419107596178
 31
0.0
  0
LINE
  5
2983
330
2BE9
100
AcDbEntity
  8
0
 62
     0
100
AcDbLine
 10
195.6999999999997
 20
-114.2419442242007
 30
0.0
 11
411.4999999999991
 21
-258.108243523814
 31
0.0
  0
LINE
  5
2984
330
2BE9
100
AcDbEntity
  8
0
 62
     0
100
AcDbLine
 10
145.8369563371961
 20
-80.99999999999909
 30
0.0
 11
195.6999999999989
 21
-114.2419442241997
 31
0.0
  0
LINE
  5
2985
330
2BE9
100
AcDbEntity
  8
0
 62
     0
100
AcDbLine
 10
195.6999999999997
 20
-111.2419776887854
 30
0.0
 11
411.4999999999978
 21
-255.1082769883977
 31
0.0
  0
LINE
  5
2986
330
2BE9
100
AcDbEntity
  8
0
 62
     0
100
AcDbLine
 10
150.3369176310825
 20
-81.00000000000093
 30
0.0
 11
195.6999999999989
 21
-111.2419776887854
 31
0.0
  0
LINE
  5
2987
330
2BE9
100
AcDbEntity
  8
0
 62
     0
100
AcDbLine
 10
195.6999999999997
 20
-108.2420111533684
 30
0.0
 11
411.4999999999978
 21
-252.1083104529816
 31
0.0
  0
LINE
  5
2988
330
2BE9
100
AcDbEntity
  8
0
 62
     0
100
AcDbLine
 10
154.8368789249671
 20
-80.99999999999909
 30
0.0
 11
195.6999999999989
 21
-108.2420111533674
 31
0.0
  0
LINE
  5
2989
330
2BE9
100
AcDbEntity
  8
0
 62
     0
100
AcDbLine
 10
195.6999999999997
 20
-105.2420446179531
 30
0.0
 11
411.4999999999991
 21
-249.1083439175663
 31
0.0
  0
LINE
  5
298A
330
2BE9
100
AcDbEntity
  8
0
 62
     0
100
AcDbLine
 10
159.3368402188542
 20
-81.00000000000093
 30
0.0
 11
195.6999999999997
 21
-105.2420446179521
 31
0.0
  0
LINE
  5
298B
330
2BE9
100
AcDbEntity
  8
0
 62
     0
100
AcDbLine
 10
195.6999999999997
 20
-102.2420780825359
 30
0.0
 11
411.4999999999991
 21
-246.1083773821492
 31
0.0
  0
LINE
  5
298C
330
2BE9
100
AcDbEntity
  8
0
 62
     0
100
AcDbLine
 10
163.8368015127398
 20
-81.00000000000093
 30
0.0
 11
195.6999999999997
 21
-102.2420780825359
 31
0.0
  0
LINE
  5
298D
330
2BE9
100
AcDbEntity
  8
0
 62
     0
100
AcDbLine
 10
195.6999999999997
 20
-99.24211154712065
 30
0.0
 11
411.4999999999991
 21
-243.1084108467339
 31
0.0
  0
LINE
  5
298E
330
2BE9
100
AcDbEntity
  8
0
 62
     0
100
AcDbLine
 10
168.3367628066253
 20
-81.00000000000093
 30
0.0
 11
195.6999999999997
 21
-99.24211154712065
 31
0.0
  0
LINE
  5
298F
330
2BE9
100
AcDbEntity
  8
0
 62
     0
100
AcDbLine
 10
195.6999999999997
 20
-96.24214501170357
 30
0.0
 11
411.4999999999991
 21
-240.1084443113168
 31
0.0
  0
LINE
  5
2990
330
2BE9
100
AcDbEntity
  8
0
 62
     0
100
AcDbLine
 10
172.8367241005107
 20
-81.00000000000093
 30
0.0
 11
195.6999999999997
 21
-96.24214501170357
 31
0.0
  0
LINE
  5
2991
330
2BE9
100
AcDbEntity
  8
0
 62
     0
100
AcDbLine
 10
195.6999999999997
 20
-93.24217847628824
 30
0.0
 11
411.4999999999991
 21
-237.1084777759024
 31
0.0
  0
LINE
  5
2992
330
2BE9
100
AcDbEntity
  8
0
 62
     0
100
AcDbLine
 10
177.3366853943961
 20
-81.00000000000093
 30
0.0
 11
195.6999999999997
 21
-93.24217847628824
 31
0.0
  0
LINE
  5
2993
330
2BE9
100
AcDbEntity
  8
0
 62
     0
100
AcDbLine
 10
195.6999999999997
 20
-90.24221194087113
 30
0.0
 11
411.4999999999978
 21
-234.1085112404844
 31
0.0
  0
LINE
  5
2994
330
2BE9
100
AcDbEntity
  8
0
 62
     0
100
AcDbLine
 10
181.8366466882816
 20
-81.00000000000093
 30
0.0
 11
195.6999999999989
 21
-90.24221194087113
 31
0.0
  0
LINE
  5
2995
330
2BE9
100
AcDbEntity
  8
0
 62
     0
100
AcDbLine
 10
195.7000000000007
 20
-87.24224540545675
 30
0.0
 11
411.4999999999991
 21
-231.10854470507
 31
0.0
  0
LINE
  5
2996
330
2BE9
100
AcDbEntity
  8
0
 62
     0
100
AcDbLine
 10
186.3366079821671
 20
-81.00000000000182
 30
0.0
 11
195.6999999999989
 21
-87.2422454054549
 31
0.0
  0
LINE
  5
2997
330
2BE9
100
AcDbEntity
  8
0
 62
     0
100
AcDbLine
 10
195.7000000000007
 20
-84.24227887003963
 30
0.0
 11
411.4999999999978
 21
-228.108578169652
 31
0.0
  0
LINE
  5
2998
330
2BE9
100
AcDbEntity
  8
0
 62
     0
100
AcDbLine
 10
190.8365692760535
 20
-81.00000000000093
 30
0.0
 11
195.6999999999989
 21
-84.24227887003871
 31
0.0
  0
LINE
  5
2999
330
2BE9
100
AcDbEntity
  8
0
 62
     0
100
AcDbLine
 10
195.7000000000007
 20
-81.24231233462253
 30
0.0
 11
411.4999999999978
 21
-225.1086116342349
 31
0.0
  0
LINE
  5
299A
330
2BE9
100
AcDbEntity
  8
0
 62
     0
100
AcDbLine
 10
195.336530569938
 20
-81.0
 30
0.0
 11
195.6999999999989
 21
-81.24231233462159
 31
0.0
  0
LINE
  5
299B
330
2BE9
100
AcDbEntity
  8
0
 62
     0
100
AcDbLine
 10
199.8364918638272
 20
-81.00000000000269
 30
0.0
 11
411.4999999999978
 21
-222.1086450988205
 31
0.0
  0
LINE
  5
299C
330
2BE9
100
AcDbEntity
  8
0
 62
     0
100
AcDbLine
 10
204.3364531577136
 20
-81.00000000000269
 30
0.0
 11
411.4999999999978
 21
-219.1086785634034
 31
0.0
  0
LINE
  5
299D
330
2BE9
100
AcDbEntity
  8
0
 62
     0
100
AcDbLine
 10
208.836414451599
 20
-81.00000000000269
 30
0.0
 11
411.4999999999991
 21
-216.1087120279881
 31
0.0
  0
LINE
  5
299E
330
2BE9
100
AcDbEntity
  8
0
 62
     0
100
AcDbLine
 10
213.3363757454854
 20
-81.00000000000269
 30
0.0
 11
411.4999999999991
 21
-213.1087454925709
 31
0.0
  0
LINE
  5
299F
330
2BE9
100
AcDbEntity
  8
0
 62
     0
100
AcDbLine
 10
217.8363370393699
 20
-81.00000000000362
 30
0.0
 11
411.4999999999991
 21
-210.1087789571557
 31
0.0
  0
LINE
  5
29A0
330
2BE9
100
AcDbEntity
  8
0
 62
     0
100
AcDbLine
 10
222.3362983332554
 20
-81.00000000000269
 30
0.0
 11
411.4999999999991
 21
-207.1088124217385
 31
0.0
  0
LINE
  5
29A1
330
2BE9
100
AcDbEntity
  8
0
 62
     0
100
AcDbLine
 10
226.8362596271408
 20
-81.00000000000362
 30
0.0
 11
411.4999999999991
 21
-204.1088458863232
 31
0.0
  0
LINE
  5
29A2
330
2BE9
100
AcDbEntity
  8
0
 62
     0
100
AcDbLine
 10
231.3362209210254
 20
-81.00000000000182
 30
0.0
 11
411.4999999999978
 21
-201.1088793509062
 31
0.0
  0
LINE
  5
29A3
330
2BE9
100
AcDbEntity
  8
0
 62
     0
100
AcDbLine
 10
235.8361822149109
 20
-81.00000000000269
 30
0.0
 11
411.4999999999991
 21
-198.1089128154908
 31
0.0
  0
LINE
  5
29A4
330
2BE9
100
AcDbEntity
  8
0
 62
     0
100
AcDbLine
 10
240.3361435087973
 20
-81.00000000000269
 30
0.0
 11
411.4999999999991
 21
-195.1089462800737
 31
0.0
  0
LINE
  5
29A5
330
2BE9
100
AcDbEntity
  8
0
 62
     0
100
AcDbLine
 10
244.8361048026818
 20
-81.00000000000269
 30
0.0
 11
411.4999999999991
 21
-192.1089797446584
 31
0.0
  0
LINE
  5
29A6
330
2BE9
100
AcDbEntity
  8
0
 62
     0
100
AcDbLine
 10
249.3360660965682
 20
-81.00000000000269
 30
0.0
 11
411.4999999999991
 21
-189.1090132092421
 31
0.0
  0
LINE
  5
29A7
330
2BE9
100
AcDbEntity
  8
0
 62
     0
100
AcDbLine
 10
253.8360273904527
 20
-81.00000000000093
 30
0.0
 11
411.4999999999969
 21
-186.1090466738242
 31
0.0
  0
LINE
  5
29A8
330
2BE9
100
AcDbEntity
  8
0
 62
     0
100
AcDbLine
 10
258.3359886843391
 20
-81.00000000000269
 30
0.0
 11
411.4999999999963
 21
-183.109080138408
 31
0.0
  0
LINE
  5
29A9
330
2BE9
100
AcDbEntity
  8
0
 62
     0
100
AcDbLine
 10
262.8359499782245
 20
-81.00000000000182
 30
0.0
 11
411.4999999999969
 21
-180.1091136029916
 31
0.0
  0
LINE
  5
29AA
330
2BE9
100
AcDbEntity
  8
0
 62
     0
100
AcDbLine
 10
267.3359112721109
 20
-81.00000000000269
 30
0.0
 11
411.4999999999969
 21
-177.1091470675765
 31
0.0
  0
LINE
  5
29AB
330
2BE9
100
AcDbEntity
  8
0
 62
     0
100
AcDbLine
 10
271.8358725659964
 20
-81.00000000000269
 30
0.0
 11
411.4999999999969
 21
-174.1091805321584
 31
0.0
  0
LINE
  5
29AC
330
2BE9
100
AcDbEntity
  8
0
 62
     0
100
AcDbLine
 10
276.3358338598818
 20
-81.00000000000362
 30
0.0
 11
411.4999999999969
 21
-171.1092139967441
 31
0.0
  0
LINE
  5
29AD
330
2BE9
100
AcDbEntity
  8
0
 62
     0
100
AcDbLine
 10
280.8357951537673
 20
-81.00000000000269
 30
0.0
 11
411.4999999999969
 21
-168.1092474613269
 31
0.0
  0
LINE
  5
29AE
330
2BE9
100
AcDbEntity
  8
0
 62
     0
100
AcDbLine
 10
285.3357564476519
 20
-81.00000000000362
 30
0.0
 11
411.4999999999969
 21
-165.1092809259116
 31
0.0
  0
LINE
  5
29AF
330
2BE9
100
AcDbEntity
  8
0
 62
     0
100
AcDbLine
 10
289.8357177415383
 20
-81.00000000000182
 30
0.0
 11
411.4999999999969
 21
-162.1093143904944
 31
0.0
  0
LINE
  5
29B0
330
2BE9
100
AcDbEntity
  8
0
 62
     0
100
AcDbLine
 10
294.3356790354228
 20
-81.00000000000269
 30
0.0
 11
411.4999999999969
 21
-159.1093478550792
 31
0.0
  0
LINE
  5
29B1
330
2BE9
100
AcDbEntity
  8
0
 62
     0
100
AcDbLine
 10
298.8356403293092
 20
-81.00000000000182
 30
0.0
 11
411.4999999999963
 21
-156.1093813196621
 31
0.0
  0
LINE
  5
29B2
330
2BE9
100
AcDbEntity
  8
0
 62
     0
100
AcDbLine
 10
303.3356016231937
 20
-81.00000000000269
 30
0.0
 11
411.4999999999963
 21
-153.1094147842468
 31
0.0
  0
LINE
  5
29B3
330
2BE9
100
AcDbEntity
  8
0
 62
     0
100
AcDbLine
 10
307.8355629170801
 20
-81.00000000000269
 30
0.0
 11
411.4999999999963
 21
-150.1094482488297
 31
0.0
  0
LINE
  5
29B4
330
2BE9
100
AcDbEntity
  8
0
 62
     0
100
AcDbLine
 10
312.3355242109647
 20
-81.00000000000093
 30
0.0
 11
411.4999999999963
 21
-147.1094817134126
 31
0.0
  0
LINE
  5
29B5
330
2BE9
100
AcDbEntity
  8
0
 62
     0
100
AcDbLine
 10
316.8354855048511
 20
-81.00000000000269
 30
0.0
 11
411.4999999999969
 21
-144.1095151779973
 31
0.0
  0
LINE
  5
29B6
330
2BE9
100
AcDbEntity
  8
0
 62
     0
100
AcDbLine
 10
321.3354467987365
 20
-81.00000000000093
 30
0.0
 11
411.4999999999969
 21
-141.1095486425811
 31
0.0
  0
LINE
  5
29B7
330
2BE9
100
AcDbEntity
  8
0
 62
     0
100
AcDbLine
 10
325.835408092622
 20
-81.00000000000269
 30
0.0
 11
411.4999999999969
 21
-138.1095821071658
 31
0.0
  0
LINE
  5
29B8
330
2BE9
100
AcDbEntity
  8
0
 62
     0
100
AcDbLine
 10
330.3353693865073
 20
-81.00000000000182
 30
0.0
 11
411.4999999999963
 21
-135.1096155717478
 31
0.0
  0
LINE
  5
29B9
330
2BE9
100
AcDbEntity
  8
0
 62
     0
100
AcDbLine
 10
334.8353306803929
 20
-81.00000000000269
 30
0.0
 11
411.4999999999963
 21
-132.1096490363334
 31
0.0
  0
LINE
  5
29BA
330
2BE9
100
AcDbEntity
  8
0
 62
     0
100
AcDbLine
 10
339.3352919742774
 20
-81.00000000000182
 30
0.0
 11
411.4999999999963
 21
-129.1096825009153
 31
0.0
  0
LINE
  5
29BB
330
2BE9
100
AcDbEntity
  8
0
 62
     0
100
AcDbLine
 10
343.8352532681648
 20
-81.00000000000362
 30
0.0
 11
411.4999999999969
 21
-126.1097159655
 31
0.0
  0
LINE
  5
29BC
330
2BE9
100
AcDbEntity
  8
0
 62
     0
100
AcDbLine
 10
348.3352145620493
 20
-81.00000000000182
 30
0.0
 11
411.4999999999969
 21
-123.1097494300838
 31
0.0
  0
LINE
  5
29BD
330
2BE9
100
AcDbEntity
  8
0
 62
     0
100
AcDbLine
 10
352.8351758559348
 20
-81.00000000000269
 30
0.0
 11
411.4999999999969
 21
-120.1097828946686
 31
0.0
  0
LINE
  5
29BE
330
2BE9
100
AcDbEntity
  8
0
 62
     0
100
AcDbLine
 10
357.3351371498202
 20
-81.00000000000182
 30
0.0
 11
411.4999999999969
 21
-117.1098163592514
 31
0.0
  0
LINE
  5
29BF
330
2BE9
100
AcDbEntity
  8
0
 62
     0
100
AcDbLine
 10
361.8350984437057
 20
-81.00000000000269
 30
0.0
 11
411.4999999999969
 21
-114.1098498238361
 31
0.0
  0
LINE
  5
29C0
330
2BE9
100
AcDbEntity
  8
0
 62
     0
100
AcDbLine
 10
366.3350597375902
 20
-81.00000000000093
 30
0.0
 11
411.4999999999963
 21
-111.109883288419
 31
0.0
  0
LINE
  5
29C1
330
2BE9
100
AcDbEntity
  8
0
 62
     0
100
AcDbLine
 10
370.8350210314766
 20
-81.00000000000269
 30
0.0
 11
411.4999999999969
 21
-108.1099167530037
 31
0.0
  0
LINE
  5
29C2
330
2BE9
100
AcDbEntity
  8
0
 62
     0
100
AcDbLine
 10
375.3349823253628
 20
-81.00000000000269
 30
0.0
 11
411.4999999999969
 21
-105.1099502175866
 31
0.0
  0
LINE
  5
29C3
330
2BE9
100
AcDbEntity
  8
0
 62
     0
100
AcDbLine
 10
379.8349436192475
 20
-81.00000000000093
 30
0.0
 11
411.4999999999963
 21
-102.1099836821695
 31
0.0
  0
LINE
  5
29C4
330
2BE9
100
AcDbEntity
  8
0
 62
     0
100
AcDbLine
 10
384.3349049131339
 20
-81.00000000000269
 30
0.0
 11
411.4999999999963
 21
-99.11001714675421
 31
0.0
  0
LINE
  5
29C5
330
2BE9
100
AcDbEntity
  8
0
 62
     0
100
AcDbLine
 10
388.8348662070184
 20
-81.00000000000182
 30
0.0
 11
411.4999999999963
 21
-96.1100506113371
 31
0.0
  0
LINE
  5
29C6
330
2BE9
100
AcDbEntity
  8
0
 62
     0
100
AcDbLine
 10
393.3348275009057
 20
-81.00000000000269
 30
0.0
 11
411.4999999999969
 21
-93.11008407592272
 31
0.0
  0
LINE
  5
29C7
330
2BE9
100
AcDbEntity
  8
0
 62
     0
100
AcDbLine
 10
397.8347887947904
 20
-81.00000000000182
 30
0.0
 11
411.4999999999969
 21
-90.1101175405056
 31
0.0
  0
LINE
  5
29C8
330
2BE9
100
AcDbEntity
  8
0
 62
     0
100
AcDbLine
 10
402.3347500886766
 20
-81.00000000000269
 30
0.0
 11
411.4999999999969
 21
-87.11015100509028
 31
0.0
  0
LINE
  5
29C9
330
2BE9
100
AcDbEntity
  8
0
 62
     0
100
AcDbLine
 10
406.8347113825612
 20
-81.00000000000182
 30
0.0
 11
411.4999999999963
 21
-84.11018446967318
 31
0.0
  0
LINE
  5
29CA
330
2BE9
100
AcDbEntity
  8
0
 62
     0
100
AcDbLine
 10
411.3346726764456
 20
-81.00000000000269
 30
0.0
 11
411.4999999999963
 21
-81.11021793425789
 31
0.0
  0
ENDBLK
  5
29CB
330
2BE9
100
AcDbEntity
  8
0
100
AcDbBlockEnd
  0
ENDSEC
  0
SECTION
  2
ENTITIES
  0
TEXT
  5
953
330
2B16
100
AcDbEntity
  8
OUTLINE
  6
Continuous
 62
     3
100
AcDbText
 10
-418.231467
 20
13.715189
 30
0.0
 40
64.0
  1
 
 41
0.9
100
AcDbText
  0
TEXT
  5
954
330
2B16
100
AcDbEntity
  8
OUTLINE
  6
Continuous
 62
     3
100
AcDbText
 10
-418.231467
 20
13.715189
 30
0.0
 40
64.0
  1
 
 41
0.9
100
AcDbText
  0
TEXT
  5
955
330
2B16
100
AcDbEntity
  8
OUTLINE
  6
Continuous
 62
     3
100
AcDbText
 10
1341.41903
 20
-706.0588199999997
 30
0.0
 40
64.0
  1
 
 41
0.9
100
AcDbText
  0
TEXT
  5
956
330
2B16
100
AcDbEntity
  8
OUTLINE
  6
Continuous
 62
     3
100
AcDbText
 10
1341.41903
 20
-706.0588199999997
 30
0.0
 40
64.0
  1
 
 41
0.9
100
AcDbText
  0
TEXT
  5
957
330
2B16
100
AcDbEntity
  8
OUTLINE
  6
Continuous
 62
     3
100
AcDbText
 10
1341.41903
 20
-706.0588199999997
 30
0.0
 40
64.0
  1
 
 41
0.9
100
AcDbText
  0
TEXT
  5
958
330
2B16
100
AcDbEntity
  8
OUTLINE
  6
Continuous
 62
     3
100
AcDbText
 10
1341.41903
 20
-706.0588199999997
 30
0.0
 40
64.0
  1
 
 41
0.9
100
AcDbText
  0
TEXT
  5
2A20
330
2B16
100
AcDbEntity
  8
ETC
100
AcDbText
 10
703.1707774738841
 20
638.8783149610516
 30
0.0
 40
64.0
  1
システム部材
 41
0.9
100
AcDbText
  0
TEXT
  5
2A21
330
2B16
100
AcDbEntity
  8
ETC
100
AcDbText
 10
709.3787754738841
 20
739.7616409610508
 30
0.0
 40
64.0
  1
W-80SDACM-A_6
 41
0.9
100
AcDbText
  0
TEXT
  5
2A22
330
2B16
100
AcDbEntity
  8
ETC
100
AcDbText
 10
709.3787754738841
 20
539.7616409610508
 30
0.0
 40
64.0
  1
W-80SDACM-A
 41
0.9
100
AcDbText
  0
CIRCLE
  5
2A23
330
2B16
100
AcDbEntity
  8
ARRANGE
100
AcDbCircle
 10
0.0
 20
0.0
 30
0.0
 40
40.0
  0
LINE
  5
2A24
330
2B16
100
AcDbEntity
  8
BASIS
100
AcDbLine
 10
0.0
 20
25.0
 30
0.0
 11
0.0
 21
-817.0
 31
0.0
  0
POINT
  5
2A25
330
2B16
100
AcDbEntity
  8
ARRANGE
100
AcDbPoint
 10
0.0
 20
0.0
 30
0.0
 39
50.0
  0
LINE
  5
2A26
330
2B16
100
AcDbEntity
  8
DETAIL
100
AcDbLine
 10
-411.5
 20
-771.0
 30
0.0
 11
-411.5
 21
-81.0
 31
0.0
  0
LINE
  5
2A27
330
2B16
100
AcDbEntity
  8
DETAIL
100
AcDbLine
 10
411.499999999998
 20
-771.0
 30
0.0
 11
411.5
 21
-81.0
 31
0.0
  0
LINE
  5
2A28
330
2B16
100
AcDbEntity
  8
DETAIL
100
AcDbLine
 10
-437.0
 20
-792.0
 30
0.0
 11
-437.0
 21
-3.000000000000908
 31
0.0
  0
LINE
  5
2A29
330
2B16
100
AcDbEntity
  8
DETAIL
100
AcDbLine
 10
437.0
 20
-792.0
 30
0.0
 11
437.0
 21
-3.000000000000908
 31
0.0
  0
LINE
  5
2A2A
330
2B16
100
AcDbEntity
  8
DETAIL
100
AcDbLine
 10
-411.5
 20
-81.0
 30
0.0
 11
411.5
 21
-81.0
 31
0.0
  0
LINE
  5
2A2B
330
2B16
100
AcDbEntity
  8
DETAIL
100
AcDbLine
 10
-437.0
 20
-40.0
 30
0.0
 11
437.0
 21
-40.0
 31
0.0
  0
LINE
  5
2A2C
330
2B16
100
AcDbEntity
  8
DETAIL
100
AcDbLine
 10
-475.0
 20
-3.0
 30
0.0
 11
475.0
 21
-3.0
 31
0.0
  0
LINE
  5
2A2D
330
2B16
100
AcDbEntity
  8
DETAIL
100
AcDbLine
 10
-475.0
 20
0.0
 30
0.0
 11
475.0
 21
0.0
 31
0.0
  0
LINE
  5
2A2E
330
2B16
100
AcDbEntity
  8
DETAIL
100
AcDbLine
 10
-437.0
 20
-192.0
 30
0.0
 11
-437.0
 21
-3.0
 31
0.0
  0
LINE
  5
2A2F
330
2B16
100
AcDbEntity
  8
DETAIL
100
AcDbLine
 10
-475.0
 20
-3.0
 30
0.0
 11
-475.0
 21
0.0
 31
0.0
  0
LINE
  5
2A30
330
2B16
100
AcDbEntity
  8
NOTE
100
AcDbLine
 10
-450.0
 20
12.5
 30
0.0
 11
-450.0
 21
-12.5
 31
0.0
  0
LINE
  5
2A31
330
2B16
100
AcDbEntity
  8
NOTE
100
AcDbLine
 10
449.9999999999982
 20
-12.5
 30
0.0
 11
449.9999999999982
 21
12.5
 31
0.0
  0
LINE
  5
2A32
330
2B16
100
AcDbEntity
  8
DETAIL
100
AcDbLine
 10
475.0
 20
0.0
 30
0.0
 11
475.0
 21
-3.0
 31
0.0
  0
LINE
  5
2A33
330
2B16
100
AcDbEntity
  8
DETAIL
100
AcDbLine
 10
-411.5
 20
-771.0
 30
0.0
 11
411.5
 21
-771.0
 31
0.0
  0
LINE
  5
2A34
330
2B16
100
AcDbEntity
  8
DETAIL
100
AcDbLine
 10
-437.0
 20
-792.0
 30
0.0
 11
437.0
 21
-792.0
 31
0.0
  0
LINE
  5
2A35
330
2B16
100
AcDbEntity
  8
DETAIL
100
AcDbLine
 10
163.0
 20
-792.0
 30
0.0
 11
381.0
 21
-792.0
 31
0.0
  0
LINE
  5
2A36
330
2B16
100
AcDbEntity
  8
DETAIL
100
AcDbLine
 10
-437.0
 20
-60.0
 30
0.0
 11
437.0
 21
-60.0
 31
0.0
  0
INSERT
  5
2A37
330
2B16
100
AcDbEntity
  8
0
100
AcDbBlockReference
  2
*U66
 10
0.0
 20
0.0
 30
0.0
1001
ACAD
1000
DSTYLE
1002
{
1070
    41
1040
12.0
1070
    42
1040
20.0
1070
    43
1040
200.0
1070
    44
1040
20.0
1070
    73
1070
     0
1070
    74
1070
     0
1070
    77
1070
     1
1070
    78
1070
     8
1070
   140
1040
64.0
1070
   147
1040
50.0
1070
   172
1070
     1
1070
   174
1070
     1
1070
   275
1070
     0
1070
   284
1070
     0
1070
   285
1070
     0
1070
   286
1070
     0
1070
   341
1005
0
1070
   342
1005
0
1002
}
  0
INSERT
  5
2A38
330
2B16
100
AcDbEntity
  8
0
100
AcDbBlockReference
  2
*U67
 10
0.0
 20
0.0
 30
0.0
  0
LINE
  5
2A39
330
2B16
100
AcDbEntity
  8
NOTE
100
AcDbLine
 39
50.0
 10
-462.5
 20
0.0
 30
0.0
 11
-437.5
 21
0.0
 31
0.0
  0
LINE
  5
2A3A
330
2B16
100
AcDbEntity
  8
NOTE
100
AcDbLine
 39
50.0
 10
437.4999999999982
 20
0.0
 30
0.0
 11
462.4999999999982
 21
0.0
 31
0.0
  0
LINE
  5
2A3B
330
2B16
100
AcDbEntity
  8
OUTLINE
100
AcDbLine
 10
-437.0
 20
-792.0
 30
0.0
 11
-437.0
 21
-3.000000000000908
 31
0.0
  0
LINE
  5
2A3C
330
2B16
100
AcDbEntity
  8
OUTLINE
100
AcDbLine
 10
437.0
 20
-792.0
 30
0.0
 11
437.0
 21
-3.000000000000908
 31
0.0
  0
LINE
  5
2A3D
330
2B16
100
AcDbEntity
  8
OUTLINE
100
AcDbLine
 10
-437.0
 20
-40.0
 30
0.0
 11
437.0
 21
-40.0
 31
0.0
  0
LINE
  5
2A3E
330
2B16
100
AcDbEntity
  8
OUTLINE
100
AcDbLine
 10
-475.0
 20
-3.0
 30
0.0
 11
475.0
 21
-3.0
 31
0.0
  0
LINE
  5
2A3F
330
2B16
100
AcDbEntity
  8
OUTLINE
100
AcDbLine
 10
-437.0
 20
-192.0
 30
0.0
 11
-437.0
 21
-3.0
 31
0.0
  0
LINE
  5
2A40
330
2B16
100
AcDbEntity
  8
OUTLINE
100
AcDbLine
 10
-437.0
 20
-792.0
 30
0.0
 11
437.0
 21
-792.0
 31
0.0
  0
LINE
  5
2A41
330
2B16
100
AcDbEntity
  8
OUTLINE
100
AcDbLine
 10
163.0
 20
-792.0
 30
0.0
 11
381.0
 21
-792.0
 31
0.0
  0
LINE
  5
2A42
330
2B16
100
AcDbEntity
  8
OUTLINE
100
AcDbLine
 10
-437.0
 20
-60.0
 30
0.0
 11
437.0
 21
-60.0
 31
0.0
  0
LINE
  5
2A43
330
2B16
100
AcDbEntity
  8
OUTLINE
100
AcDbLine
 39
50.0
 10
-475.0
 20
-3.0
 30
0.0
 11
-475.0
 21
0.0
 31
0.0
  0
LINE
  5
2A44
330
2B16
100
AcDbEntity
  8
OUTLINE
100
AcDbLine
 39
50.0
 10
-475.0
 20
0.0
 30
0.0
 11
475.0
 21
0.0
 31
0.0
  0
LINE
  5
2A45
330
2B16
100
AcDbEntity
  8
OUTLINE
100
AcDbLine
 39
50.0
 10
475.0
 20
0.0
 30
0.0
 11
475.0
 21
-3.0
 31
0.0
  0
LINE
  5
2A46
330
2B16
100
AcDbEntity
  8
DETAIL
100
AcDbLine
 10
-411.5
 20
-771.0
 30
0.0
 11
-411.5
 21
-81.0
 31
0.0
  0
LINE
  5
2A47
330
2B16
100
AcDbEntity
  8
DETAIL
100
AcDbLine
 10
411.499999999998
 20
-771.0
 30
0.0
 11
411.5
 21
-81.0
 31
0.0
  0
LINE
  5
2A48
330
2B16
100
AcDbEntity
  8
DETAIL
100
AcDbLine
 10
-411.5
 20
-81.0
 30
0.0
 11
411.5
 21
-81.0
 31
0.0
  0
LINE
  5
2A49
330
2B16
100
AcDbEntity
  8
DETAIL
100
AcDbLine
 10
-411.5
 20
-771.0
 30
0.0
 11
411.5
 21
-771.0
 31
0.0
  0
INSERT
  5
2A4A
330
2B16
100
AcDbEntity
  8
DETAIL
100
AcDbBlockReference
  2
*X68
 10
0.0
 20
0.0
 30
0.0
1001
ACADANNOTATIVE
1000
AnnotativeData
1002
{
1070
     1
1070
     0
1002
}
1001
ACAD
1000
HATCH
1002
{
1070
    19
1000
LINE
1040
19.969
1040
0.5880014249968896
1000
R14_HATCH_DATA
1000
8D85
1011
1.0
1021
0.0
1031
0.0
1011
0.0
1021
1.0
1031
0.0
1011
0.0
1021
0.0
1031
1.0
1040
0.0
1010
0.0
1020
0.0
1030
1.0
1000
LINE
1070
     0
1070
     0
1071
        2
1071
        7
1070
     0
1070
     1
1071
        6
1040
411.5
1040
-274.7999999999994
1040
195.7000000000007
1040
-274.8000000000001
1040
195.6999999999989
1040
-81.00000000000093
1040
-411.5
1040
-81.0
1040
-411.5
1040
-771.0
1040
411.5
1040
-771.0
1071
        0
1071
       23
1070
     0
1070
     1
1071
        4
1040
411.4999999999978
1040
-81.0
1040
195.7000000000007
1040
-81.00000000000093
1040
195.7000000000025
1040
-274.7999999999994
1040
411.5
1040
-274.8000000000011
1071
        0
1070
     0
1070
     1
1040
0.5880014249968896
1040
19.969
1070
     0
1070
     1
1040
0.5880014249968896
1040
14365.34330158045
1040
6492.174240754803
1040
-1.384598579568018
1040
2.076903172775084
1070
     0
1040
3.496551852423428
1071
        2
1040
-45.15003399978193
1040
-283.2074989198427
1040
0.0
1040
342.0833088850486
1040
-199.7214214842233
1040
0.0
1002
}
  0
INSERT
  5
2A4B
330
2B16
100
AcDbEntity
  8
DETAIL
100
AcDbBlockReference
  2
*X69
 10
0.0
 20
0.0
 30
0.0
1001
ACADANNOTATIVE
1000
AnnotativeData
1002
{
1070
     1
1070
     0
1002
}
1001
ACAD
1000
HATCH
1002
{
1070
    19
1000
LINE
1040
19.969
1040
5.695183882182695
1000
R14_HATCH_DATA
1000
8D8B
1011
1.0
1021
0.0
1031
0.0
1011
0.0
1021
1.0
1031
0.0
1011
0.0
1021
0.0
1031
1.0
1040
0.0
1010
0.0
1020
0.0
1030
1.0
1000
LINE
1070
     0
1070
     0
1071
        2
1071
        7
1070
     0
1070
     1
1071
        6
1040
195.7000000000007
1040
-81.0
1040
-411.5
1040
-80.99999999999909
1040
-411.5
1040
-771.0
1040
411.5
1040
-771.0
1040
411.5
1040
-274.8000000000001
1040
195.7000000000007
1040
-274.7999999999994
1071
        0
1071
       23
1070
     0
1070
     1
1071
        4
1040
195.7000000000007
1040
-81.00000000000093
1040
195.7000000000025
1040
-274.7999999999994
1040
411.5
1040
-274.8000000000011
1040
411.4999999999978
1040
-81.00000000000093
1071
        0
1070
     0
1070
     1
1040
5.695183882182695
1040
19.969
1070
     0
1070
     1
1040
5.695183882182695
1040
14365.34330158045
1040
6492.174240754803
1040
1.384598579568018
1040
2.076903172775084
1070
     0
1040
2.251578873441232
1071
        2
1040
-67.52454840403697
1040
-266.8425960173025
1040
0.0
1040
307.0780182326852
1040
-126.3693230282433
1040
0.0
1002
}
  0
LINE
  5
2A4C
330
2B16
100
AcDbEntity
  8
DETAIL
100
AcDbLine
 10
-411.5
 20
-771.0
 30
0.0
 11
-411.5
 21
-81.0
 31
0.0
  0
LINE
  5
2A4D
330
2B16
100
AcDbEntity
  8
DETAIL
100
AcDbLine
 10
411.499999999998
 20
-771.0
 30
0.0
 11
411.5
 21
-81.0
 31
0.0
  0
LINE
  5
2A4E
330
2B16
100
AcDbEntity
  8
DETAIL
100
AcDbLine
 10
-411.5
 20
-81.0
 30
0.0
 11
411.5
 21
-81.0
 31
0.0
  0
LINE
  5
2A4F
330
2B16
100
AcDbEntity
  8
DETAIL
100
AcDbLine
 10
-411.5
 20
-771.0
 30
0.0
 11
411.5
 21
-771.0
 31
0.0
  0
LINE
  5
2A50
330
2B16
100
AcDbEntity
  8
SIZE
100
AcDbLine
 10
475.0
 20
20.0
 30
0.0
 11
475.0
 21
383.6920227499204
 31
0.0
  0
LINE
  5
2A51
330
2B16
100
AcDbEntity
  8
SIZE
100
AcDbLine
 10
-475.0
 20
20.0
 30
0.0
 11
-475.0
 21
383.6920227499204
 31
0.0
  0
LINE
  5
2A52
330
2B16
100
AcDbEntity
  8
SIZE
100
AcDbLine
 10
463.0
 20
363.6920227499203
 30
0.0
 11
-463.0
 21
363.6920227499203
 31
0.0
  0
INSERT
  5
2A53
330
2B16
100
AcDbEntity
  8
SIZE
100
AcDbBlockReference
  2
_DOTBLANK
 10
475.0
 20
363.6920227499203
 30
0.0
 41
12.0
 42
12.0
 43
12.0
  0
INSERT
  5
2A54
330
2B16
100
AcDbEntity
  8
SIZE
100
AcDbBlockReference
  2
_DOTBLANK
 10
-475.0
 20
363.6920227499203
 30
0.0
 41
12.0
 42
12.0
 43
12.0
 50
180.0
  0
LINE
  5
2A55
330
2B16
100
AcDbEntity
  8
SIZE
100
AcDbLine
 10
449.9999999999982
 20
32.5
 30
0.0
 11
449.9999999999982
 21
245.4072788520753
 31
0.0
  0
LINE
  5
2A56
330
2B16
100
AcDbEntity
  8
SIZE
100
AcDbLine
 10
-450.0
 20
32.5
 30
0.0
 11
-450.0
 21
245.4072788520753
 31
0.0
  0
LINE
  5
2A57
330
2B16
100
AcDbEntity
  8
SIZE
100
AcDbLine
 10
437.9999999999982
 20
225.4072788520752
 30
0.0
 11
-438.0
 21
225.4072788520752
 31
0.0
  0
INSERT
  5
2A58
330
2B16
100
AcDbEntity
  8
SIZE
100
AcDbBlockReference
  2
_DOTBLANK
 10
449.9999999999982
 20
225.4072788520752
 30
0.0
 41
12.0
 42
12.0
 43
12.0
  0
INSERT
  5
2A59
330
2B16
100
AcDbEntity
  8
SIZE
100
AcDbBlockReference
  2
_DOTBLANK
 10
-450.0
 20
225.4072788520752
 30
0.0
 41
12.0
 42
12.0
 43
12.0
 50
180.0
  0
LINE
  5
2A5A
330
2B16
100
AcDbEntity
  8
SIZE
100
AcDbLine
 10
-457.0
 20
-792.0
 30
0.0
 11
-812.1152426731551
 21
-792.0
 31
0.0
  0
LINE
  5
2A5B
330
2B16
100
AcDbEntity
  8
SIZE
100
AcDbLine
 10
-495.0
 20
0.0
 30
0.0
 11
-812.1152426731551
 21
0.0
 31
0.0
  0
LINE
  5
2A5C
330
2B16
100
AcDbEntity
  8
SIZE
100
AcDbLine
 10
-792.1152426731548
 20
-779.9999999999997
 30
0.0
 11
-792.1152426731548
 21
-12.0
 31
0.0
  0
INSERT
  5
2A5D
330
2B16
100
AcDbEntity
  8
SIZE
100
AcDbBlockReference
  2
_DOTBLANK
 10
-792.1152426731548
 20
-792.0
 30
0.0
 41
12.0
 42
12.0
 43
12.0
 50
270.0
  0
INSERT
  5
2A5E
330
2B16
100
AcDbEntity
  8
SIZE
100
AcDbBlockReference
  2
_DOTBLANK
 10
-792.1152426731548
 20
0.0
 30
0.0
 41
12.0
 42
12.0
 43
12.0
 50
90.0
  0
LINE
  5
2A5F
330
2B16
100
AcDbEntity
  8
SIZE
100
AcDbLine
 10
437.0
 20
-812.0
 30
0.0
 11
437.0
 21
-1077.822995541721
 31
0.0
  0
LINE
  5
2A60
330
2B16
100
AcDbEntity
  8
SIZE
100
AcDbLine
 10
-437.0
 20
-812.0
 30
0.0
 11
-437.0
 21
-1077.822995541721
 31
0.0
  0
LINE
  5
2A61
330
2B16
100
AcDbEntity
  8
SIZE
100
AcDbLine
 10
425.0
 20
-1057.822995541721
 30
0.0
 11
-425.0
 21
-1057.822995541721
 31
0.0
  0
INSERT
  5
2A62
330
2B16
100
AcDbEntity
  8
SIZE
100
AcDbBlockReference
  2
_DOTBLANK
 10
437.0
 20
-1057.822995541721
 30
0.0
 41
12.0
 42
12.0
 43
12.0
  0
INSERT
  5
2A63
330
2B16
100
AcDbEntity
  8
SIZE
100
AcDbBlockReference
  2
_DOTBLANK
 10
-437.0
 20
-1057.822995541721
 30
0.0
 41
12.0
 42
12.0
 43
12.0
 50
180.0
  0
TEXT
  5
2A64
330
2B16
100
AcDbEntity
  8
SIZE
100
AcDbText
 10
-75.42857142857155
 20
-1047.822995541721
 30
0.0
 40
64.0
  1
874
 41
0.9
100
AcDbText
  0
TEXT
  5
2A65
330
2B16
100
AcDbEntity
  8
SIZE
100
AcDbText
 10
-802.1152426731548
 20
-470.5571428571427
 30
0.0
 40
64.0
  1
792
 50
90.0
 41
0.9
100
AcDbText
  0
TEXT
  5
2A66
330
2B16
100
AcDbEntity
  8
SIZE
100
AcDbText
 10
-73.37318084211165
 20
235.4072788520753
 30
0.0
 40
64.0
  1
900
 41
0.9
100
AcDbText
  0
TEXT
  5
2A67
330
2B16
100
AcDbEntity
  8
SIZE
100
AcDbText
 10
-75.29736118102937
 20
373.6920227499203
 30
0.0
 40
64.0
  1
950
 41
0.9
100
AcDbText
  0
ENDSEC
  0
SECTION
  2
OBJECTS
  0
DICTIONARY
  5
2AAE
330
0
100
AcDbDictionary
281
     1
  3
ACAD_2007HEADERVARS_RT
350
2CF6
  3
ACAD_COLOR
350
2B0C
  3
ACAD_GROUP
350
2AAF
  3
ACAD_LAYOUT
350
2B0B
  3
ACAD_MATERIAL
350
2AB2
  3
ACAD_MLEADERSTYLE
350
2B0F
  3
ACAD_MLINESTYLE
350
2B08
  3
ACAD_PLOTSETTINGS
350
2B0A
  3
ACAD_PLOTSTYLENAME
350
2AB0
  3
ACAD_SCALELIST
350
2ADC
  3
ACAD_TABLESTYLE
350
2B0D
  3
ACAD_VISUALSTYLE
350
2ACB
  3
ACDB_RECOMPOSE_DATA
350
2CF4
  3
AcDbVariableDictionary
350
2CEB
  3
AcmDictionary
350
2C9E
  3
AMG
350
2BEB
  3
DWGPROPS
350
2CF5
  3
MAPISURF_MODULE
350
2C6B
  0
DICTIONARY
  5
2CC6
330
2AFE
100
AcDbDictionary
280
     1
281
     1
  3
ADSK_XREC_LAYER_RECONCILED
360
2CC7
  0
DICTIONARY
  5
2CC8
330
2B2D
100
AcDbDictionary
280
     1
281
     1
  3
ADSK_XREC_LAYER_RECONCILED
360
2CC9
  0
DICTIONARY
  5
2CCA
330
2B2E
100
AcDbDictionary
280
     1
281
     1
  3
ADSK_XREC_LAYER_RECONCILED
360
2CCB
  0
DICTIONARY
  5
2CCC
330
2B2F
100
AcDbDictionary
280
     1
281
     1
  3
ADSK_XREC_LAYER_RECONCILED
360
2CCD
  0
DICTIONARY
  5
2CCE
330
2B30
100
AcDbDictionary
280
     1
281
     1
  3
ADSK_XREC_LAYER_RECONCILED
360
2CCF
  0
DICTIONARY
  5
2CD0
330
2B31
100
AcDbDictionary
280
     1
281
     1
  3
ADSK_XREC_LAYER_RECONCILED
360
2CD1
  0
DICTIONARY
  5
2CD2
330
2B33
100
AcDbDictionary
280
     1
281
     1
  3
ADSK_XREC_LAYER_RECONCILED
360
2CD3
  0
DICTIONARY
  5
2CD4
330
2B34
100
AcDbDictionary
280
     1
281
     1
  3
ADSK_XREC_LAYER_RECONCILED
360
2CD5
  0
DICTIONARY
  5
2CD6
330
2B35
100
AcDbDictionary
280
     1
281
     1
  3
ADSK_XREC_LAYER_RECONCILED
360
2CD7
  0
DICTIONARY
  5
2CD8
330
2B36
100
AcDbDictionary
280
     1
281
     1
  3
ADSK_XREC_LAYER_RECONCILED
360
2CD9
  0
DICTIONARY
  5
2CDA
330
2B37
100
AcDbDictionary
280
     1
281
     1
  3
ADSK_XREC_LAYER_RECONCILED
360
2CDB
  0
DICTIONARY
  5
2CDC
330
2B16
100
AcDbDictionary
280
     1
281
     1
  3
ACAD_INDEX
360
2CDD
  0
DICTIONARY
  5
2CF6
102
{ACAD_REACTORS
330
2AAE
102
}
330
2AAE
100
AcDbDictionary
281
     1
  3
DIMARCSYM
350
2CF7
  3
DIMLTEX1
350
2CF9
  3
DIMLTEX2
350
2CFA
  3
DIMLTYPE
350
2CF8
  0
DICTIONARY
  5
2B0C
102
{ACAD_REACTORS
330
2AAE
102
}
330
2AAE
100
AcDbDictionary
281
     1
  0
DICTIONARY
  5
2AAF
102
{ACAD_REACTORS
330
2AAE
102
}
330
2AAE
100
AcDbDictionary
281
     1
  0
DICTIONARY
  5
2B0B
102
{ACAD_REACTORS
330
2AAE
102
}
330
2AAE
100
AcDbDictionary
281
     1
  3
Model
350
2B19
  3
レイアウト1
350
2B15
  0
DICTIONARY
  5
2AB2
102
{ACAD_REACTORS
330
2AAE
102
}
330
2AAE
100
AcDbDictionary
281
     1
  3
ByBlock
350
2ABB
  3
ByLayer
350
2AB3
  3
Global
350
2AC3
  0
DICTIONARY
  5
2B0F
102
{ACAD_REACTORS
330
2AAE
102
}
330
2AAE
100
AcDbDictionary
281
     1
  3
Standard
350
2B10
  0
DICTIONARY
  5
2B08
102
{ACAD_REACTORS
330
2AAE
102
}
330
2AAE
100
AcDbDictionary
281
     1
  3
Standard
350
2B09
  0
DICTIONARY
  5
2B0A
102
{ACAD_REACTORS
330
2AAE
102
}
330
2AAE
100
AcDbDictionary
281
     1
  0
ACDBDICTIONARYWDFLT
  5
2AB0
102
{ACAD_REACTORS
330
2AAE
102
}
330
2AAE
100
AcDbDictionary
281
     1
  3
Normal
350
2AB1
100
AcDbDictionaryWithDefault
340
2AB1
  0
DICTIONARY
  5
2ADC
102
{ACAD_REACTORS
330
2AAE
102
}
330
2AAE
100
AcDbDictionary
281
     1
  3
A0
350
2ADD
  3
A1
350
2ADE
  3
A2
350
2ADF
  3
A3
350
2AE0
  3
A4
350
2AE1
  3
A5
350
2AE2
  3
A6
350
2AE3
  3
A7
350
2AE4
  3
A8
350
2AE5
  3
A9
350
2AE6
  3
B0
350
2AE7
  3
B1
350
2AE8
  3
B2
350
2AE9
  3
B3
350
2AEA
  3
B4
350
2AEB
  3
B5
350
2AEC
  3
B6
350
2AED
  3
B7
350
2AEE
  3
B8
350
2AEF
  3
B9
350
2AF0
  3
C0
350
2AF1
  3
C1
350
2AF2
  3
C2
350
2AF3
  3
C3
350
2AF4
  3
C4
350
2AF5
  3
C5
350
2AF6
  3
C6
350
2AF7
  3
C7
350
2AF8
  3
C8
350
2AF9
  3
C9
350
2AFA
  3
D0
350
2AFB
  3
D1
350
2AFC
  3
D2
350
2AFD
  0
DICTIONARY
  5
2B0D
102
{ACAD_REACTORS
330
2AAE
102
}
330
2AAE
100
AcDbDictionary
281
     1
  3
Standard
350
2B0E
  0
DICTIONARY
  5
2ACB
102
{ACAD_REACTORS
330
2AAE
102
}
330
2AAE
100
AcDbDictionary
281
     1
  3
2dWireframe
350
2AD1
  3
3D Hidden
350
2AD3
  3
3dWireframe
350
2AD2
  3
Basic
350
2AD0
  3
Brighten
350
2AD7
  3
ColorChange
350
2ADB
  3
Conceptual
350
2AD4
  3
Dim
350
2AD6
  3
Facepattern
350
2ADA
  3
Flat
350
2ACC
  3
FlatWithEdges
350
2ACD
  3
Gouraud
350
2ACE
  3
GouraudWithEdges
350
2ACF
  3
Linepattern
350
2AD9
  3
Realistic
350
2AD5
  3
Thicken
350
2AD8
  0
XRECORD
  5
2CF4
102
{ACAD_REACTORS
330
2AAE
102
}
330
2AAE
100
AcDbXrecord
280
     1
 90
        1
330
2B0E
  0
DICTIONARY
  5
2CEB
102
{ACAD_REACTORS
330
2AAE
102
}
330
2AAE
100
AcDbDictionary
281
     1
  3
CANNOSCALE
350
2CEE
  3
CMLEADERSTYLE
350
2CED
  3
CTABLESTYLE
350
2CEC
  3
DIMASSOC
350
2CF1
  3
INDEXCTL
350
2CF0
  3
SORTENTS
350
2CEF
  0
DICTIONARY
  5
2C9E
102
{ACAD_REACTORS
330
2AAE
102
}
330
2AAE
100
AcDbDictionary
281
     1
  3
AcmStdDictionary
350
2CAC
  0
DICTIONARY
  5
2BEB
102
{ACAD_REACTORS
330
2AAE
102
}
330
2AAE
100
AcDbDictionary
281
     1
  3
AcMgSettings
350
2BEC
  0
XRECORD
  5
2CF5
102
{ACAD_REACTORS
330
2AAE
102
}
330
2AAE
100
AcDbXrecord
280
     1
  1
DWGPROPS COOKIE
  2

  3

  4

  6

  7

  8
A090053
  9

300
AmdtFileType=84
301
=
302
=
303
=
304
=
305
=
306
=
307
=
308
=
309
=
 40
1.040839849537037
 41
2452321.396199653
 42
2456210.764929375
  1

 90
        1
  0
XRECORD
  5
2CC7
102
{ACAD_REACTORS
330
2CC6
102
}
330
2CC6
100
AcDbXrecord
280
     1
290
     1
  0
XRECORD
  5
2CC9
102
{ACAD_REACTORS
330
2CC8
102
}
330
2CC8
100
AcDbXrecord
280
     1
290
     1
  0
XRECORD
  5
2CCB
102
{ACAD_REACTORS
330
2CCA
102
}
330
2CCA
100
AcDbXrecord
280
     1
290
     1
  0
XRECORD
  5
2CCD
102
{ACAD_REACTORS
330
2CCC
102
}
330
2CCC
100
AcDbXrecord
280
     1
290
     1
  0
XRECORD
  5
2CCF
102
{ACAD_REACTORS
330
2CCE
102
}
330
2CCE
100
AcDbXrecord
280
     1
290
     1
  0
XRECORD
  5
2CD1
102
{ACAD_REACTORS
330
2CD0
102
}
330
2CD0
100
AcDbXrecord
280
     1
290
     1
  0
XRECORD
  5
2CD3
102
{ACAD_REACTORS
330
2CD2
102
}
330
2CD2
100
AcDbXrecord
280
     1
290
     1
  0
XRECORD
  5
2CD5
102
{ACAD_REACTORS
330
2CD4
102
}
330
2CD4
100
AcDbXrecord
280
     1
290
     1
  0
XRECORD
  5
2CD7
102
{ACAD_REACTORS
330
2CD6
102
}
330
2CD6
100
AcDbXrecord
280
     1
290
     1
  0
XRECORD
  5
2CD9
102
{ACAD_REACTORS
330
2CD8
102
}
330
2CD8
100
AcDbXrecord
280
     1
290
     1
  0
XRECORD
  5
2CDB
102
{ACAD_REACTORS
330
2CDA
102
}
330
2CDA
100
AcDbXrecord
280
     1
290
     1
  0
DICTIONARY
  5
2CDD
102
{ACAD_REACTORS
330
2CDC
102
}
330
2CDC
100
AcDbDictionary
281
     1
  3
*A1
350
2CDE
  0
XRECORD
  5
2CF7
102
{ACAD_REACTORS
330
2CF6
102
}
330
2CF6
100
AcDbXrecord
280
     1
 70
     1
  0
XRECORD
  5
2CF9
102
{ACAD_REACTORS
330
2CF6
102
}
330
2CF6
100
AcDbXrecord
280
     1
340
2B04
  0
XRECORD
  5
2CFA
102
{ACAD_REACTORS
330
2CF6
102
}
330
2CF6
100
AcDbXrecord
280
     1
340
2B04
  0
XRECORD
  5
2CF8
102
{ACAD_REACTORS
330
2CF6
102
}
330
2CF6
100
AcDbXrecord
280
     1
340
2B04
  0
LAYOUT
  5
2B19
102
{ACAD_XDICTIONARY
360
2D01
102
}
102
{ACAD_REACTORS
330
2B0B
102
}
330
2B0B
100
AcDbPlotSettings
  1

  2
自動 EPSON LP-9600S (W2450527 上)
  4

  6

 40
0.0
 41
0.0
 42
0.0
 43
0.0
 44
0.0
 45
0.0
 46
0.0
 47
0.0
 48
0.0
 49
0.0
140
0.0
141
0.0
142
1.0
143
1.0
 70
  1712
 72
     0
 73
     0
 74
     0
  7

 75
     0
147
1.0
148
0.0
149
0.0
100
AcDbLayout
  1
Model
 70
     1
 71
     0
 10
0.0
 20
0.0
 11
12.0
 21
9.0
 12
0.0
 22
0.0
 32
0.0
 14
0.0
 24
0.0
 34
0.0
 15
0.0
 25
0.0
 35
0.0
146
0.0
 13
0.0
 23
0.0
 33
0.0
 16
1.0
 26
0.0
 36
0.0
 17
0.0
 27
1.0
 37
0.0
 76
     0
330
2B16
331
2B1A
  0
LAYOUT
  5
2B15
102
{ACAD_XDICTIONARY
360
2CFF
102
}
102
{ACAD_REACTORS
330
2B0B
102
}
330
2B0B
100
AcDbPlotSettings
  1

  2
自動 EPSON LP-9600S (W2450527 上)
  4

  6

 40
0.0
 41
0.0
 42
0.0
 43
0.0
 44
0.0
 45
0.0
 46
0.0
 47
0.0
 48
0.0
 49
0.0
140
0.0
141
0.0
142
1.0
143
1.0
 70
   688
 72
     0
 73
     0
 74
     5
  7

 75
    16
147
1.0
148
0.0
149
0.0
100
AcDbLayout
  1
レイアウト1
 70
     1
 71
     1
 10
0.0
 20
0.0
 11
12.0
 21
9.0
 12
0.0
 22
0.0
 32
0.0
 14
1.000000000000000E+20
 24
1.000000000000000E+20
 34
1.000000000000000E+20
 15
-1.000000000000000E+20
 25
-1.000000000000000E+20
 35
-1.000000000000000E+20
146
0.0
 13
0.0
 23
0.0
 33
0.0
 16
1.0
 26
0.0
 36
0.0
 17
0.0
 27
1.0
 37
0.0
 76
     0
330
2B12
  0
MATERIAL
  5
2ABB
102
{ACAD_XDICTIONARY
360
2ABC
102
}
102
{ACAD_REACTORS
330
2AB2
102
}
330
2AB2
100
AcDbMaterial
  1
ByBlock
 72
     0
 43
0.0208333333333333
 43
0.0
 43
0.0
 43
0.0
 43
0.0
 43
0.0208333333333333
 43
0.0
 43
0.0
 43
0.0
 43
0.0
 43
1.0
 43
0.0
 43
0.0
 43
0.0
 43
0.0
 43
1.0
 77
     0
 47
0.0208333333333333
 47
0.0
 47
0.0
 47
0.0
 47
0.0
 47
0.0208333333333333
 47
0.0
 47
0.0
 47
0.0
 47
0.0
 47
1.0
 47
0.0
 47
0.0
 47
0.0
 47
0.0
 47
1.0
171
     0
 49
0.0208333333333333
 49
0.0
 49
0.0
 49
0.0
 49
0.0
 49
0.0208333333333333
 49
0.0
 49
0.0
 49
0.0
 49
0.0
 49
1.0
 49
0.0
 49
0.0
 49
0.0
 49
0.0
 49
1.0
175
     0
142
0.0208333333333333
142
0.0
142
0.0
142
0.0
142
0.0
142
0.0208333333333333
142
0.0
142
0.0
142
0.0
142
0.0
142
1.0
142
0.0
142
0.0
142
0.0
142
0.0
142
1.0
179
     0
144
0.0208333333333333
144
0.0
144
0.0
144
0.0
144
0.0
144
0.0208333333333333
144
0.0
144
0.0
144
0.0
144
0.0
144
1.0
144
0.0
144
0.0
144
0.0
144
0.0
144
1.0
147
0.0208333333333333
147
0.0
147
0.0
147
0.0
147
0.0
147
0.0208333333333333
147
0.0
147
0.0
147
0.0
147
0.0
147
1.0
147
0.0
147
0.0
147
0.0
147
0.0
147
1.0
  0
MATERIAL
  5
2AB3
102
{ACAD_XDICTIONARY
360
2AB4
102
}
102
{ACAD_REACTORS
330
2AB2
102
}
330
2AB2
100
AcDbMaterial
  1
ByLayer
 72
     0
 43
0.0208333333333333
 43
0.0
 43
0.0
 43
0.0
 43
0.0
 43
0.0208333333333333
 43
0.0
 43
0.0
 43
0.0
 43
0.0
 43
1.0
 43
0.0
 43
0.0
 43
0.0
 43
0.0
 43
1.0
 77
     0
 47
0.0208333333333333
 47
0.0
 47
0.0
 47
0.0
 47
0.0
 47
0.0208333333333333
 47
0.0
 47
0.0
 47
0.0
 47
0.0
 47
1.0
 47
0.0
 47
0.0
 47
0.0
 47
0.0
 47
1.0
171
     0
 49
0.0208333333333333
 49
0.0
 49
0.0
 49
0.0
 49
0.0
 49
0.0208333333333333
 49
0.0
 49
0.0
 49
0.0
 49
0.0
 49
1.0
 49
0.0
 49
0.0
 49
0.0
 49
0.0
 49
1.0
175
     0
142
0.0208333333333333
142
0.0
142
0.0
142
0.0
142
0.0
142
0.0208333333333333
142
0.0
142
0.0
142
0.0
142
0.0
142
1.0
142
0.0
142
0.0
142
0.0
142
0.0
142
1.0
179
     0
144
0.0208333333333333
144
0.0
144
0.0
144
0.0
144
0.0
144
0.0208333333333333
144
0.0
144
0.0
144
0.0
144
0.0
144
1.0
144
0.0
144
0.0
144
0.0
144
0.0
144
1.0
147
0.0208333333333333
147
0.0
147
0.0
147
0.0
147
0.0
147
0.0208333333333333
147
0.0
147
0.0
147
0.0
147
0.0
147
1.0
147
0.0
147
0.0
147
0.0
147
0.0
147
1.0
  0
MATERIAL
  5
2AC3
102
{ACAD_XDICTIONARY
360
2AC4
102
}
102
{ACAD_REACTORS
330
2AB2
102
}
330
2AB2
100
AcDbMaterial
  1
Global
 72
     0
 43
0.0208333333333333
 43
0.0
 43
0.0
 43
0.0
 43
0.0
 43
0.0208333333333333
 43
0.0
 43
0.0
 43
0.0
 43
0.0
 43
1.0
 43
0.0
 43
0.0
 43
0.0
 43
0.0
 43
1.0
 77
     0
 47
0.0208333333333333
 47
0.0
 47
0.0
 47
0.0
 47
0.0
 47
0.0208333333333333
 47
0.0
 47
0.0
 47
0.0
 47
0.0
 47
1.0
 47
0.0
 47
0.0
 47
0.0
 47
0.0
 47
1.0
171
     0
 49
0.0208333333333333
 49
0.0
 49
0.0
 49
0.0
 49
0.0
 49
0.0208333333333333
 49
0.0
 49
0.0
 49
0.0
 49
0.0
 49
1.0
 49
0.0
 49
0.0
 49
0.0
 49
0.0
 49
1.0
175
     0
142
0.0208333333333333
142
0.0
142
0.0
142
0.0
142
0.0
142
0.0208333333333333
142
0.0
142
0.0
142
0.0
142
0.0
142
1.0
142
0.0
142
0.0
142
0.0
142
0.0
142
1.0
179
     0
144
0.0208333333333333
144
0.0
144
0.0
144
0.0
144
0.0
144
0.0208333333333333
144
0.0
144
0.0
144
0.0
144
0.0
144
1.0
144
0.0
144
0.0
144
0.0
144
0.0
144
1.0
147
0.0208333333333333
147
0.0
147
0.0
147
0.0
147
0.0
147
0.0208333333333333
147
0.0
147
0.0
147
0.0
147
0.0
147
1.0
147
0.0
147
0.0
147
0.0
147
0.0
147
1.0
  0
MLEADERSTYLE
  5
2B10
102
{ACAD_REACTORS
330
2B0F
102
}
330
2B0F
100
AcDbMLeaderStyle
170
     2
171
     1
172
     0
 90
        2
 40
0.0
 41
0.0
173
     1
 91
-1056964608
340
2B04
 92
       -2
290
     1
 42
0.09
291
     1
 43
0.36
  3
Standard
 44
0.18
300

342
2AFF
174
     1
178
     6
175
     1
176
     0
 93
-1056964608
 45
0.18
292
     0
297
     0
 46
0.18
 94
-1056964608
 47
1.0
 49
1.0
140
1.0
293
     1
141
0.0
294
     1
177
     0
142
1.0
295
     0
296
     0
143
0.125
1001
ACAD_MLEADERVER
1070
     2
  0
MLINESTYLE
  5
2B09
102
{ACAD_REACTORS
330
2B08
102
}
330
2B08
100
AcDbMlineStyle
  2
STANDARD
 70
     0
  3

 62
   256
 51
90.0
 52
90.0
 71
     2
 49
0.5
 62
   256
  6
BYLAYER
 49
-0.5
 62
   256
  6
BYLAYER
  0
ACDBPLACEHOLDER
  5
2AB1
102
{ACAD_REACTORS
330
2AB0
102
}
330
2AB0
  0
SCALE
  5
2ADD
102
{ACAD_REACTORS
330
2ADC
102
}
330
2ADC
100
AcDbScale
 70
     0
300
1:1
140
1.0
141
1.0
290
     1
  0
SCALE
  5
2ADE
102
{ACAD_REACTORS
330
2ADC
102
}
330
2ADC
100
AcDbScale
 70
     0
300
1:2
140
1.0
141
2.0
290
     0
  0
SCALE
  5
2ADF
102
{ACAD_REACTORS
330
2ADC
102
}
330
2ADC
100
AcDbScale
 70
     0
300
1:4
140
1.0
141
4.0
290
     0
  0
SCALE
  5
2AE0
102
{ACAD_REACTORS
330
2ADC
102
}
330
2ADC
100
AcDbScale
 70
     0
300
1:5
140
1.0
141
5.0
290
     0
  0
SCALE
  5
2AE1
102
{ACAD_REACTORS
330
2ADC
102
}
330
2ADC
100
AcDbScale
 70
     0
300
1:8
140
1.0
141
8.0
290
     0
  0
SCALE
  5
2AE2
102
{ACAD_REACTORS
330
2ADC
102
}
330
2ADC
100
AcDbScale
 70
     0
300
1:10
140
1.0
141
10.0
290
     0
  0
SCALE
  5
2AE3
102
{ACAD_REACTORS
330
2ADC
102
}
330
2ADC
100
AcDbScale
 70
     0
300
1:16
140
1.0
141
16.0
290
     0
  0
SCALE
  5
2AE4
102
{ACAD_REACTORS
330
2ADC
102
}
330
2ADC
100
AcDbScale
 70
     0
300
1:20
140
1.0
141
20.0
290
     0
  0
SCALE
  5
2AE5
102
{ACAD_REACTORS
330
2ADC
102
}
330
2ADC
100
AcDbScale
 70
     0
300
1:30
140
1.0
141
30.0
290
     0
  0
SCALE
  5
2AE6
102
{ACAD_REACTORS
330
2ADC
102
}
330
2ADC
100
AcDbScale
 70
     0
300
1:40
140
1.0
141
40.0
290
     0
  0
SCALE
  5
2AE7
102
{ACAD_REACTORS
330
2ADC
102
}
330
2ADC
100
AcDbScale
 70
     0
300
1:50
140
1.0
141
50.0
290
     0
  0
SCALE
  5
2AE8
102
{ACAD_REACTORS
330
2ADC
102
}
330
2ADC
100
AcDbScale
 70
     0
300
1:100
140
1.0
141
100.0
290
     0
  0
SCALE
  5
2AE9
102
{ACAD_REACTORS
330
2ADC
102
}
330
2ADC
100
AcDbScale
 70
     0
300
2:1
140
2.0
141
1.0
290
     0
  0
SCALE
  5
2AEA
102
{ACAD_REACTORS
330
2ADC
102
}
330
2ADC
100
AcDbScale
 70
     0
300
4:1
140
4.0
141
1.0
290
     0
  0
SCALE
  5
2AEB
102
{ACAD_REACTORS
330
2ADC
102
}
330
2ADC
100
AcDbScale
 70
     0
300
8:1
140
8.0
141
1.0
290
     0
  0
SCALE
  5
2AEC
102
{ACAD_REACTORS
330
2ADC
102
}
330
2ADC
100
AcDbScale
 70
     0
300
10:1
140
10.0
141
1.0
290
     0
  0
SCALE
  5
2AED
102
{ACAD_REACTORS
330
2ADC
102
}
330
2ADC
100
AcDbScale
 70
     0
300
100:1
140
100.0
141
1.0
290
     0
  0
SCALE
  5
2AEE
102
{ACAD_REACTORS
330
2ADC
102
}
330
2ADC
100
AcDbScale
 70
     0
300
1/128" = 1'-0"
140
0.0078125
141
12.0
290
     0
  0
SCALE
  5
2AEF
102
{ACAD_REACTORS
330
2ADC
102
}
330
2ADC
100
AcDbScale
 70
     0
300
1/64" = 1'-0"
140
0.015625
141
12.0
290
     0
  0
SCALE
  5
2AF0
102
{ACAD_REACTORS
330
2ADC
102
}
330
2ADC
100
AcDbScale
 70
     0
300
1/32" = 1'-0"
140
0.03125
141
12.0
290
     0
  0
SCALE
  5
2AF1
102
{ACAD_REACTORS
330
2ADC
102
}
330
2ADC
100
AcDbScale
 70
     0
300
1/16" = 1'-0"
140
0.0625
141
12.0
290
     0
  0
SCALE
  5
2AF2
102
{ACAD_REACTORS
330
2ADC
102
}
330
2ADC
100
AcDbScale
 70
     0
300
3/32" = 1'-0"
140
0.09375
141
12.0
290
     0
  0
SCALE
  5
2AF3
102
{ACAD_REACTORS
330
2ADC
102
}
330
2ADC
100
AcDbScale
 70
     0
300
1/8" = 1'-0"
140
0.125
141
12.0
290
     0
  0
SCALE
  5
2AF4
102
{ACAD_REACTORS
330
2ADC
102
}
330
2ADC
100
AcDbScale
 70
     0
300
3/16" = 1'-0"
140
0.1875
141
12.0
290
     0
  0
SCALE
  5
2AF5
102
{ACAD_REACTORS
330
2ADC
102
}
330
2ADC
100
AcDbScale
 70
     0
300
1/4" = 1'-0"
140
0.25
141
12.0
290
     0
  0
SCALE
  5
2AF6
102
{ACAD_REACTORS
330
2ADC
102
}
330
2ADC
100
AcDbScale
 70
     0
300
3/8" = 1'-0"
140
0.375
141
12.0
290
     0
  0
SCALE
  5
2AF7
102
{ACAD_REACTORS
330
2ADC
102
}
330
2ADC
100
AcDbScale
 70
     0
300
1/2" = 1'-0"
140
0.5
141
12.0
290
     0
  0
SCALE
  5
2AF8
102
{ACAD_REACTORS
330
2ADC
102
}
330
2ADC
100
AcDbScale
 70
     0
300
3/4" = 1'-0"
140
0.75
141
12.0
290
     0
  0
SCALE
  5
2AF9
102
{ACAD_REACTORS
330
2ADC
102
}
330
2ADC
100
AcDbScale
 70
     0
300
1" = 1'-0"
140
1.0
141
12.0
290
     0
  0
SCALE
  5
2AFA
102
{ACAD_REACTORS
330
2ADC
102
}
330
2ADC
100
AcDbScale
 70
     0
300
1-1/2" = 1'-0"
140
1.5
141
12.0
290
     0
  0
SCALE
  5
2AFB
102
{ACAD_REACTORS
330
2ADC
102
}
330
2ADC
100
AcDbScale
 70
     0
300
3" = 1'-0"
140
3.0
141
12.0
290
     0
  0
SCALE
  5
2AFC
102
{ACAD_REACTORS
330
2ADC
102
}
330
2ADC
100
AcDbScale
 70
     0
300
6" = 1'-0"
140
6.0
141
12.0
290
     0
  0
SCALE
  5
2AFD
102
{ACAD_REACTORS
330
2ADC
102
}
330
2ADC
100
AcDbScale
 70
     0
300
1'-0" = 1'-0"
140
12.0
141
12.0
290
     0
  0
TABLESTYLE
  5
2B0E
102
{ACAD_XDICTIONARY
360
2CF2
102
}
102
{ACAD_REACTORS
330
2B0D
102
}
330
2B0D
100
AcDbTableStyle
  3
Standard
 70
     0
 71
     0
 40
0.06
 41
0.06
280
     0
281
     0
  7
STANDARD
140
0.18
170
     2
 62
     0
 63
     7
283
     0
274
    -2
284
     1
 64
     0
275
    -2
285
     1
 65
     0
276
    -2
286
     1
 66
     0
277
    -2
287
     1
 67
     0
278
    -2
288
     1
 68
     0
279
    -2
289
     1
 69
     0
  7
STANDARD
140
0.25
170
     5
 62
     0
 63
     7
283
     0
274
    -2
284
     1
 64
     0
275
    -2
285
     1
 65
     0
276
    -2
286
     1
 66
     0
277
    -2
287
     1
 67
     0
278
    -2
288
     1
 68
     0
279
    -2
289
     1
 69
     0
  7
STANDARD
140
0.18
170
     5
 62
     0
 63
     7
283
     0
274
    -2
284
     1
 64
     0
275
    -2
285
     1
 65
     0
276
    -2
286
     1
 66
     0
277
    -2
287
     1
 67
     0
278
    -2
288
     1
 68
     0
279
    -2
289
     1
 69
     0
  0
VISUALSTYLE
  5
2AD1
102
{ACAD_REACTORS
330
2ACB
102
}
330
2ACB
100
AcDbVisualStyle
  2
2dWireframe
 70
     4
 71
     0
 72
     2
 73
     0
 90
        0
 40
-0.6
 41
-30.0
 62
     5
 63
     7
 74
     1
 91
        4
 64
     7
 65
   257
 75
     1
175
     1
 42
1.0
 92
        0
 66
   257
 43
1.0
 76
     1
 77
     6
 78
     2
 67
     7
 79
     5
170
     0
171
     0
290
     0
174
     0
 93
        1
 44
0.0
173
     0
291
     0
 45
0.0
1001
ACAD
1000
AcDbSavedByObjectVersion
1070
     0
  0
VISUALSTYLE
  5
2AD3
102
{ACAD_REACTORS
330
2ACB
102
}
330
2ACB
100
AcDbVisualStyle
  2
3D Hidden
 70
     6
 71
     1
 72
     2
 73
     2
 90
        0
 40
-0.6
 41
-30.0
 62
     5
 63
     7
 74
     2
 91
        2
 64
     7
 65
   257
 75
     2
175
     1
 42
40.0
 92
        0
 66
   257
 43
1.0
 76
     1
 77
     6
 78
     2
 67
     7
 79
     3
170
     0
171
     0
290
     0
174
     0
 93
        1
 44
0.0
173
     0
291
     0
 45
0.0
1001
ACAD
1000
AcDbSavedByObjectVersion
1070
     0
  0
VISUALSTYLE
  5
2AD2
102
{ACAD_REACTORS
330
2ACB
102
}
330
2ACB
100
AcDbVisualStyle
  2
3dWireframe
 70
     5
 71
     0
 72
     2
 73
     0
 90
        0
 40
-0.6
 41
-30.0
 62
     5
 63
     7
 74
     1
 91
        4
 64
     7
 65
   257
 75
     1
175
     1
 42
1.0
 92
        0
 66
   257
 43
1.0
 76
     1
 77
     6
 78
     2
 67
     7
 79
     5
170
     0
171
     0
290
     0
174
     0
 93
        1
 44
0.0
173
     0
291
     0
 45
0.0
1001
ACAD
1000
AcDbSavedByObjectVersion
1070
     0
  0
VISUALSTYLE
  5
2AD0
102
{ACAD_REACTORS
330
2ACB
102
}
330
2ACB
100
AcDbVisualStyle
  2
Basic
 70
     7
 71
     1
 72
     0
 73
     1
 90
        0
 40
-0.6
 41
-30.0
 62
     5
 63
     7
 74
     0
 91
        4
 64
     7
 65
   257
 75
     1
175
     1
 42
1.0
 92
        8
 66
     7
 43
1.0
 76
     1
 77
     6
 78
     2
 67
     7
 79
     5
170
     0
171
     0
290
     0
174
     0
 93
        1
 44
0.0
173
     0
291
     1
 45
0.0
1001
ACAD
1000
AcDbSavedByObjectVersion
1070
     0
  0
VISUALSTYLE
  5
2AD7
102
{ACAD_REACTORS
330
2ACB
102
}
330
2ACB
100
AcDbVisualStyle
  2
Brighten
 70
    12
 71
     2
 72
     2
 73
     0
 90
        0
 40
-0.6
 41
-30.0
 62
     5
 63
     7
 74
     1
 91
        4
 64
     7
 65
   257
 75
     1
175
     1
 42
1.0
 92
        8
 66
     7
 43
1.0
 76
     1
 77
     6
 78
     2
 67
     7
 79
     5
170
     0
171
     0
290
     0
174
     0
 93
        1
 44
50.0
173
     0
291
     1
 45
0.0
1001
ACAD
1000
AcDbSavedByObjectVersion
1070
     0
  0
VISUALSTYLE
  5
2ADB
102
{ACAD_REACTORS
330
2ACB
102
}
330
2ACB
100
AcDbVisualStyle
  2
ColorChange
 70
    16
 71
     2
 72
     2
 73
     3
 90
        0
 40
-0.6
 41
-30.0
 62
     5
 63
     8
 74
     1
 91
        4
 64
     7
 65
   257
 75
     1
175
     1
 42
1.0
 92
        8
 66
     8
 43
1.0
 76
     1
 77
     6
 78
     2
 67
     7
 79
     5
170
     0
171
     0
290
     0
174
     0
 93
        1
 44
0.0
173
     0
291
     1
 45
0.0
1001
ACAD
1000
AcDbSavedByObjectVersion
1070
     0
  0
VISUALSTYLE
  5
2AD4
102
{ACAD_REACTORS
330
2ACB
102
}
330
2ACB
100
AcDbVisualStyle
  2
Conceptual
 70
     9
 71
     3
 72
     2
 73
     0
 90
        0
 40
-0.6
 41
-30.0
 62
     5
 63
     7
 74
     2
 91
        2
 64
     7
 65
   257
 75
     1
175
     1
 42
40.0
 92
        8
 66
     7
 43
1.0
 76
     1
 77
     6
 78
     2
 67
     7
 79
     3
170
     0
171
     0
290
     0
174
     0
 93
        1
 44
0.0
173
     0
291
     0
 45
0.0
1001
ACAD
1000
AcDbSavedByObjectVersion
1070
     0
  0
VISUALSTYLE
  5
2AD6
102
{ACAD_REACTORS
330
2ACB
102
}
330
2ACB
100
AcDbVisualStyle
  2
Dim
 70
    11
 71
     2
 72
     2
 73
     0
 90
        0
 40
-0.6
 41
-30.0
 62
     5
 63
     7
 74
     1
 91
        4
 64
     7
 65
   257
 75
     1
175
     1
 42
1.0
 92
        8
 66
     7
 43
1.0
 76
     1
 77
     6
 78
     2
 67
     7
 79
     5
170
     0
171
     0
290
     0
174
     0
 93
        1
 44
-50.0
173
     0
291
     1
 45
0.0
1001
ACAD
1000
AcDbSavedByObjectVersion
1070
     0
  0
VISUALSTYLE
  5
2ADA
102
{ACAD_REACTORS
330
2ACB
102
}
330
2ACB
100
AcDbVisualStyle
  2
Facepattern
 70
    15
 71
     2
 72
     2
 73
     0
 90
        0
 40
-0.6
 41
-30.0
 62
     5
 63
     7
 74
     1
 91
        4
 64
     7
 65
   257
 75
     1
175
     1
 42
1.0
 92
        8
 66
     7
 43
1.0
 76
     1
 77
     6
 78
     2
 67
     7
 79
     5
170
     0
171
     0
290
     0
174
     0
 93
        1
 44
0.0
173
     0
291
     1
 45
0.0
1001
ACAD
1000
AcDbSavedByObjectVersion
1070
     0
  0
VISUALSTYLE
  5
2ACC
102
{ACAD_REACTORS
330
2ACB
102
}
330
2ACB
100
AcDbVisualStyle
  2
Flat
 70
     0
 71
     2
 72
     1
 73
     1
 90
        2
 40
-0.6
 41
30.0
 62
     5
 63
     7
 74
     0
 91
        4
 64
     7
 65
   257
 75
     1
175
     1
 42
1.0
 92
        8
 66
     7
 43
1.0
 76
     1
 77
     6
 78
     2
 67
     7
 79
     5
170
     0
171
     0
290
     0
174
     0
 93
       13
 44
0.0
173
     0
291
     1
 45
0.0
1001
ACAD
1000
AcDbSavedByObjectVersion
1070
     0
  0
VISUALSTYLE
  5
2ACD
102
{ACAD_REACTORS
330
2ACB
102
}
330
2ACB
100
AcDbVisualStyle
  2
FlatWithEdges
 70
     1
 71
     2
 72
     1
 73
     1
 90
        2
 40
-0.6
 41
30.0
 62
     5
 63
     7
 74
     1
 91
        4
 64
     7
 65
   257
 75
     1
175
     1
 42
1.0
 92
        0
 66
   257
 43
1.0
 76
     1
 77
     6
 78
     2
 67
     7
 79
     5
170
     0
171
     0
290
     0
174
     0
 93
       13
 44
0.0
173
     0
291
     1
 45
0.0
1001
ACAD
1000
AcDbSavedByObjectVersion
1070
     0
  0
VISUALSTYLE
  5
2ACE
102
{ACAD_REACTORS
330
2ACB
102
}
330
2ACB
100
AcDbVisualStyle
  2
Gouraud
 70
     2
 71
     2
 72
     2
 73
     1
 90
        2
 40
-0.6
 41
30.0
 62
     5
 63
     7
 74
     0
 91
        4
 64
     7
 65
   257
 75
     1
175
     1
 42
1.0
 92
        0
 66
     7
 43
1.0
 76
     1
 77
     6
 78
     2
 67
     7
 79
     5
170
     0
171
     0
290
     0
174
     0
 93
       13
 44
0.0
173
     0
291
     1
 45
0.0
1001
ACAD
1000
AcDbSavedByObjectVersion
1070
     0
  0
VISUALSTYLE
  5
2ACF
102
{ACAD_REACTORS
330
2ACB
102
}
330
2ACB
100
AcDbVisualStyle
  2
GouraudWithEdges
 70
     3
 71
     2
 72
     2
 73
     1
 90
        2
 40
-0.6
 41
30.0
 62
     5
 63
     7
 74
     1
 91
        4
 64
     7
 65
   257
 75
     1
175
     1
 42
1.0
 92
        0
 66
   257
 43
1.0
 76
     1
 77
     6
 78
     2
 67
     7
 79
     5
170
     0
171
     0
290
     0
174
     0
 93
       13
 44
0.0
173
     0
291
     1
 45
0.0
1001
ACAD
1000
AcDbSavedByObjectVersion
1070
     0
  0
VISUALSTYLE
  5
2AD9
102
{ACAD_REACTORS
330
2ACB
102
}
330
2ACB
100
AcDbVisualStyle
  2
Linepattern
 70
    14
 71
     2
 72
     2
 73
     0
 90
        0
 40
-0.6
 41
-30.0
 62
     5
 63
     7
 74
     1
 91
        4
 64
     7
 65
   257
 75
     7
175
     7
 42
1.0
 92
        8
 66
     7
 43
1.0
 76
     1
 77
     6
 78
     2
 67
     7
 79
     5
170
     0
171
     0
290
     0
174
     0
 93
        1
 44
0.0
173
     0
291
     1
 45
0.0
1001
ACAD
1000
AcDbSavedByObjectVersion
1070
     0
  0
VISUALSTYLE
  5
2AD5
102
{ACAD_REACTORS
330
2ACB
102
}
330
2ACB
100
AcDbVisualStyle
  2
Realistic
 70
     8
 71
     2
 72
     2
 73
     0
 90
        0
 40
-0.6
 41
-30.0
 62
     5
 63
     7
 74
     1
 91
        0
 64
     7
 65
   257
 75
     1
175
     1
 42
1.0
 92
        8
 66
     8
 43
1.0
 76
     1
 77
     6
 78
     2
 67
     7
 79
     5
170
     0
171
     0
290
     0
174
     0
 93
       13
 44
0.0
173
     0
291
     0
 45
0.0
1001
ACAD
1000
AcDbSavedByObjectVersion
1070
     0
  0
VISUALSTYLE
  5
2AD8
102
{ACAD_REACTORS
330
2ACB
102
}
330
2ACB
100
AcDbVisualStyle
  2
Thicken
 70
    13
 71
     2
 72
     2
 73
     0
 90
        0
 40
-0.6
 41
-30.0
 62
     5
 63
     7
 74
     1
 91
        4
 64
     7
 65
   257
 75
     1
175
     1
 42
1.0
 92
       12
 66
     7
 43
1.0
 76
     1
 77
     6
 78
     2
 67
     7
 79
     5
170
     0
171
     0
290
     0
174
     0
 93
        1
 44
0.0
173
     0
291
     1
 45
0.0
1001
ACAD
1000
AcDbSavedByObjectVersion
1070
     0
  0
DICTIONARYVAR
  5
2CEE
102
{ACAD_REACTORS
330
2CEB
102
}
330
2CEB
100
DictionaryVariables
280
     0
  1
1:1
  0
DICTIONARYVAR
  5
2CED
102
{ACAD_REACTORS
330
2CEB
102
}
330
2CEB
100
DictionaryVariables
280
     0
  1
STANDARD
  0
DICTIONARYVAR
  5
2CEC
102
{ACAD_REACTORS
330
2CEB
102
}
330
2CEB
100
DictionaryVariables
280
     0
  1
STANDARD
  0
DICTIONARYVAR
  5
2CF1
102
{ACAD_REACTORS
330
2CEB
102
}
330
2CEB
100
DictionaryVariables
280
     0
  1
1
  0
DICTIONARYVAR
  5
2CF0
102
{ACAD_REACTORS
330
2CEB
102
}
330
2CEB
100
DictionaryVariables
280
     0
  1
1
  0
DICTIONARYVAR
  5
2CEF
102
{ACAD_REACTORS
330
2CEB
102
}
330
2CEB
100
DictionaryVariables
280
     0
  1
127
  0
DICTIONARY
  5
2CAC
102
{ACAD_REACTORS
330
2C9E
102
}
330
2C9E
100
AcDbDictionary
281
     1
  0
DICTIONARY
  5
2BEC
102
{ACAD_REACTORS
330
2BEB
102
}
330
2BEB
100
AcDbDictionary
281
     1
  3
DWGSETTINGS
350
2BED
  3
TRANSSETTINGS
350
2BEE
  0
LAYER_INDEX
  5
2CDE
102
{ACAD_REACTORS
330
2CDD
102
}
330
2CDD
100
AcDbIndex
 40
2456210.764929375
100
AcDbLayerIndex
  8
0
360
2CDF
 90
        2
  8
OUTLINE
360
2CE0
 90
       17
  8
SIZE
360
2CE1
 90
       24
  8
BASIS
360
2CE2
 90
        1
  8
DETAIL
360
2CE3
 90
       25
  8
ARRANGE
360
2CE4
 90
        2
  8
DEFPOINTS
360
2CE5
 90
        0
  8
ETC
360
2CE6
 90
        3
  8
FIX
360
2CE7
 90
        0
  8
NOTE
360
2CE8
 90
        4
  8
SERVICESPACE
360
2CE9
 90
        0
  8
SYMBOLLINE
360
2CEA
 90
        0
  0
DICTIONARY
  5
2D01
330
2B19
100
AcDbDictionary
280
     1
281
     1
  3
ACAD_XREC_ROUNDTRIP
360
2D02
  0
DICTIONARY
  5
2CFF
330
2B15
100
AcDbDictionary
280
     1
281
     1
  3
ACAD_XREC_ROUNDTRIP
360
2D00
  0
DICTIONARY
  5
2ABC
330
2ABB
100
AcDbDictionary
280
     1
281
     1
  3
ACAD_XREC_ROUNDTRIP
360
2CFC
  3
BUMPTILE
360
2ABE
  3
DIFFUSETILE
360
2ABD
  3
OPACITYTILE
360
2AC1
  3
REFLECTIONTILE
360
2AC0
  3
REFRACTIONTILE
360
2AC2
  3
SPECULARTILE
360
2ABF
  0
DICTIONARY
  5
2AB4
330
2AB3
100
AcDbDictionary
280
     1
281
     1
  3
ACAD_XREC_ROUNDTRIP
360
2CFB
  3
BUMPTILE
360
2AB6
  3
DIFFUSETILE
360
2AB5
  3
OPACITYTILE
360
2AB9
  3
REFLECTIONTILE
360
2AB8
  3
REFRACTIONTILE
360
2ABA
  3
SPECULARTILE
360
2AB7
  0
DICTIONARY
  5
2AC4
330
2AC3
100
AcDbDictionary
280
     1
281
     1
  3
ACAD_XREC_ROUNDTRIP
360
2CFD
  3
BUMPTILE
360
2AC6
  3
DIFFUSETILE
360
2AC5
  3
OPACITYTILE
360
2AC9
  3
REFLECTIONTILE
360
2AC8
  3
REFRACTIONTILE
360
2ACA
  3
SPECULARTILE
360
2AC7
  0
DICTIONARY
  5
2CF2
330
2B0E
100
AcDbDictionary
280
     1
281
     1
  3
ACAD_ROUNDTRIP_2008_TABLESTYLE_CELLSTYLEMAP
360
2CF3
  3
ACAD_XREC_ROUNDTRIP
360
2CFE
  0
IDBUFFER
  5
2CDF
330
0
100
AcDbIdBuffer
330
2A37
330
2A38
  0
IDBUFFER
  5
2CE0
330
0
100
AcDbIdBuffer
330
2A45
330
953
330
954
330
955
330
956
330
957
330
958
330
2A3B
330
2A3C
330
2A3D
330
2A3E
330
2A3F
330
2A40
330
2A41
330
2A42
330
2A43
330
2A44
  0
IDBUFFER
  5
2CE1
330
0
100
AcDbIdBuffer
330
2A60
330
2A61
330
2A62
330
2A63
330
2A64
330
2A65
330
2A66
330
2A67
330
2A50
330
2A51
330
2A52
330
2A53
330
2A54
330
2A55
330
2A56
330
2A57
330
2A58
330
2A59
330
2A5A
330
2A5B
330
2A5C
330
2A5D
330
2A5E
330
2A5F
  0
IDBUFFER
  5
2CE2
330
0
100
AcDbIdBuffer
330
2A24
  0
IDBUFFER
  5
2CE3
330
0
100
AcDbIdBuffer
330
2A47
330
2A48
330
2A49
330
2A4A
330
2A4B
330
2A4C
330
2A4D
330
2A4E
330
2A4F
330
2A26
330
2A27
330
2A28
330
2A29
330
2A2A
330
2A2B
330
2A2C
330
2A2D
330
2A2E
330
2A2F
330
2A32
330
2A33
330
2A34
330
2A35
330
2A36
330
2A46
  0
IDBUFFER
  5
2CE4
330
0
100
AcDbIdBuffer
330
2A23
330
2A25
  0
IDBUFFER
  5
2CE5
330
0
100
AcDbIdBuffer
  0
IDBUFFER
  5
2CE6
330
0
100
AcDbIdBuffer
330
2A20
330
2A21
330
2A22
  0
IDBUFFER
  5
2CE7
330
0
100
AcDbIdBuffer
  0
IDBUFFER
  5
2CE8
330
0
100
AcDbIdBuffer
330
2A30
330
2A31
330
2A39
330
2A3A
  0
IDBUFFER
  5
2CE9
330
0
100
AcDbIdBuffer
  0
IDBUFFER
  5
2CEA
330
0
100
AcDbIdBuffer
  0
XRECORD
  5
2D02
102
{ACAD_REACTORS
330
2D01
102
}
330
2D01
100
AcDbXrecord
280
     1
102
SHADEPLOT
 70
     0
102
SHADEPLOTRESLEVEL
 70
     2
102
SHADEPLOTCUSTOMDPI
 70
   300
  0
XRECORD
  5
2D00
102
{ACAD_REACTORS
330
2CFF
102
}
330
2CFF
100
AcDbXrecord
280
     1
102
SHADEPLOT
 70
     0
102
SHADEPLOTRESLEVEL
 70
     2
102
SHADEPLOTCUSTOMDPI
 70
   300
  0
XRECORD
  5
2CFC
102
{ACAD_REACTORS
330
2ABC
102
}
330
2ABC
100
AcDbXrecord
280
     1
102
MATERIAL
148
0.0
149
0.0
149
0.0
 93
        0
 94
      127
282
     0
 72
     0
 77
     0
171
     0
175
     0
179
     0
273
     0
  0
XRECORD
  5
2ABE
102
{ACAD_REACTORS
330
2ABC
102
}
330
2ABC
100
AcDbXrecord
280
     1
270
     1
271
     1
  0
XRECORD
  5
2ABD
102
{ACAD_REACTORS
330
2ABC
102
}
330
2ABC
100
AcDbXrecord
280
     1
270
     1
271
     1
  0
XRECORD
  5
2AC1
102
{ACAD_REACTORS
330
2ABC
102
}
330
2ABC
100
AcDbXrecord
280
     1
270
     1
271
     1
  0
XRECORD
  5
2AC0
102
{ACAD_REACTORS
330
2ABC
102
}
330
2ABC
100
AcDbXrecord
280
     1
270
     1
271
     1
  0
XRECORD
  5
2AC2
102
{ACAD_REACTORS
330
2ABC
102
}
330
2ABC
100
AcDbXrecord
280
     1
270
     1
271
     1
  0
XRECORD
  5
2ABF
102
{ACAD_REACTORS
330
2ABC
102
}
330
2ABC
100
AcDbXrecord
280
     1
270
     1
271
     1
  0
XRECORD
  5
2CFB
102
{ACAD_REACTORS
330
2AB4
102
}
330
2AB4
100
AcDbXrecord
280
     1
102
MATERIAL
148
0.0
149
0.0
149
0.0
 93
        0
 94
      127
282
     0
 72
     0
 77
     0
171
     0
175
     0
179
     0
273
     0
  0
XRECORD
  5
2AB6
102
{ACAD_REACTORS
330
2AB4
102
}
330
2AB4
100
AcDbXrecord
280
     1
270
     1
271
     1
  0
XRECORD
  5
2AB5
102
{ACAD_REACTORS
330
2AB4
102
}
330
2AB4
100
AcDbXrecord
280
     1
270
     1
271
     1
  0
XRECORD
  5
2AB9
102
{ACAD_REACTORS
330
2AB4
102
}
330
2AB4
100
AcDbXrecord
280
     1
270
     1
271
     1
  0
XRECORD
  5
2AB8
102
{ACAD_REACTORS
330
2AB4
102
}
330
2AB4
100
AcDbXrecord
280
     1
270
     1
271
     1
  0
XRECORD
  5
2ABA
102
{ACAD_REACTORS
330
2AB4
102
}
330
2AB4
100
AcDbXrecord
280
     1
270
     1
271
     1
  0
XRECORD
  5
2AB7
102
{ACAD_REACTORS
330
2AB4
102
}
330
2AB4
100
AcDbXrecord
280
     1
270
     1
271
     1
  0
XRECORD
  5
2CFD
102
{ACAD_REACTORS
330
2AC4
102
}
330
2AC4
100
AcDbXrecord
280
     1
102
MATERIAL
148
0.0
149
0.0
149
0.0
 93
        0
 94
      127
282
     0
 72
     0
 77
     0
171
     0
175
     0
179
     0
273
     0
  0
XRECORD
  5
2AC6
102
{ACAD_REACTORS
330
2AC4
102
}
330
2AC4
100
AcDbXrecord
280
     1
270
     1
271
     1
  0
XRECORD
  5
2AC5
102
{ACAD_REACTORS
330
2AC4
102
}
330
2AC4
100
AcDbXrecord
280
     1
270
     1
271
     1
  0
XRECORD
  5
2AC9
102
{ACAD_REACTORS
330
2AC4
102
}
330
2AC4
100
AcDbXrecord
280
     1
270
     1
271
     1
  0
XRECORD
  5
2AC8
102
{ACAD_REACTORS
330
2AC4
102
}
330
2AC4
100
AcDbXrecord
280
     1
270
     1
271
     1
  0
XRECORD
  5
2ACA
102
{ACAD_REACTORS
330
2AC4
102
}
330
2AC4
100
AcDbXrecord
280
     1
270
     1
271
     1
  0
XRECORD
  5
2AC7
102
{ACAD_REACTORS
330
2AC4
102
}
330
2AC4
100
AcDbXrecord
280
     1
270
     1
271
     1
  0
CELLSTYLEMAP
  5
2CF3
102
{ACAD_REACTORS
330
2CF2
102
}
330
2CF2
100
AcDbCellStyleMap
 90
        3
300
CELLSTYLE
  1
TABLEFORMAT_BEGIN
 90
        5
170
     1
 91
        0
 92
    32768
 62
   257
 93
        1
300
CONTENTFORMAT
  1
CONTENTFORMAT_BEGIN
 90
        0
 91
        0
 92
      512
 93
        0
300

 40
0.0
140
1.0
 94
        5
 62
     0
340
2AFF
144
0.25
309
CONTENTFORMAT_END
171
     0
 94
        0
309
TABLEFORMAT_END
  1
CELLSTYLE_BEGIN
 90
        1
 91
        1
300
_TITLE
309
CELLSTYLE_END
300
CELLSTYLE
  1
TABLEFORMAT_BEGIN
 90
        5
170
     1
 91
        0
 92
        0
 62
   257
 93
        1
300
CONTENTFORMAT
  1
CONTENTFORMAT_BEGIN
 90
        0
 91
        0
 92
      512
 93
        0
300

 40
0.0
140
1.0
 94
        5
 62
     0
340
2AFF
144
0.18
309
CONTENTFORMAT_END
171
     0
 94
        0
309
TABLEFORMAT_END
  1
CELLSTYLE_BEGIN
 90
        2
 91
        1
300
_HEADER
309
CELLSTYLE_END
300
CELLSTYLE
  1
TABLEFORMAT_BEGIN
 90
        5
170
     1
 91
        0
 92
        0
 62
   257
 93
        1
300
CONTENTFORMAT
  1
CONTENTFORMAT_BEGIN
 90
        0
 91
        0
 92
      512
 93
        0
300

 40
0.0
140
1.0
 94
        2
 62
     0
340
2AFF
144
0.18
309
CONTENTFORMAT_END
171
     0
 94
        0
309
TABLEFORMAT_END
  1
CELLSTYLE_BEGIN
 90
        3
 91
        2
300
_DATA
309
CELLSTYLE_END
  0
XRECORD
  5
2CFE
102
{ACAD_REACTORS
330
2CF2
102
}
330
2CF2
100
AcDbXrecord
280
     1
102
ACAD_ROUNDTRIP_PRE2007_TABLESTYLE
 90
      512
 91
        0
  1

 92
      512
 93
        0
  2

 94
      512
 95
        0
  3

  0
ENDSEC
  0
EOF
