  0
SECTION
  2
HEADER
  9
$ACADVER
  1
AC1021
  9
$ACADMAINTVER
 70
    50
  9
$DWGCODEPAGE
  3
ANSI_932
  9
$LASTSAVEDBY
  1
A140052
  9
$CUSTOMPROPERTYTAG
  1
AmdtFileType
  9
$CUSTOMPROPERTY
  1
84
  9
$INSBASE
 10
0.0
 20
0.0
 30
0.0
  9
$EXTMIN
 10
-1551.03159317502
 20
-515.6814486406583
 30
0.0
  9
$EXTMAX
 10
560.1559693732464
 20
962.5727135463101
 30
50.0
  9
$LIMMIN
 10
-2970.0
 20
-2100.0
  9
$LIMMAX
 10
2970.0
 20
2100.0
  9
$ORTHOMODE
 70
     1
  9
$REGENMODE
 70
     0
  9
$FILLMODE
 70
     1
  9
$QTEXTMODE
 70
     0
  9
$MIRRTEXT
 70
     0
  9
$LTSCALE
 40
20.0
  9
$ATTMODE
 70
     1
  9
$TEXTSIZE
 40
64.0
  9
$TRACEWID
 40
0.05
  9
$TEXTSTYLE
  7
STANDARD
  9
$CLAYER
  8
0
  9
$CELTYPE
  6
ByLayer
  9
$CECOLOR
 62
   256
  9
$CELTSCALE
 40
1.0
  9
$DISPSILH
 70
     0
  9
$DIMSCALE
 40
1.0
  9
$DIMASZ
 40
0.12
  9
$DIMEXO
 40
0.05
  9
$DIMDLI
 40
0.5
  9
$DIMRND
 40
0.0
  9
$DIMDLE
 40
0.0
  9
$DIMEXE
 40
0.1
  9
$DIMTP
 40
0.1
  9
$DIMTM
 40
0.1
  9
$DIMTXT
 40
0.12
  9
$DIMCEN
 40
0.0
  9
$DIMTSZ
 40
0.0
  9
$DIMTOL
 70
     0
  9
$DIMLIM
 70
     0
  9
$DIMTIH
 70
     1
  9
$DIMTOH
 70
     1
  9
$DIMSE1
 70
     0
  9
$DIMSE2
 70
     0
  9
$DIMTAD
 70
     0
  9
$DIMZIN
 70
     7
  9
$DIMBLK
  1

  9
$DIMASO
 70
     1
  9
$DIMSHO
 70
     0
  9
$DIMPOST
  1

  9
$DIMAPOST
  1
mm
  9
$DIMALT
 70
     0
  9
$DIMALTD
 70
     2
  9
$DIMALTF
 40
25.4
  9
$DIMLFAC
 40
1.0
  9
$DIMTOFL
 70
     0
  9
$DIMTVP
 40
0.0
  9
$DIMTIX
 70
     0
  9
$DIMSOXD
 70
     0
  9
$DIMSAH
 70
     0
  9
$DIMBLK1
  1

  9
$DIMBLK2
  1

  9
$DIMSTYLE
  2
AM_ANSI
  9
$DIMCLRD
 70
   256
  9
$DIMCLRE
 70
   256
  9
$DIMCLRT
 70
     2
  9
$DIMTFAC
 40
0.71
  9
$DIMGAP
 40
0.06
  9
$DIMJUST
 70
     0
  9
$DIMSD1
 70
     0
  9
$DIMSD2
 70
     0
  9
$DIMTOLJ
 70
     1
  9
$DIMTZIN
 70
     7
  9
$DIMALTZ
 70
     0
  9
$DIMALTTZ
 70
     0
  9
$DIMUPT
 70
     0
  9
$DIMDEC
 70
     4
  9
$DIMTDEC
 70
     4
  9
$DIMALTU
 70
     2
  9
$DIMALTTD
 70
     4
  9
$DIMTXSTY
  7
STANDARD
  9
$DIMAUNIT
 70
     0
  9
$DIMADEC
 70
     0
  9
$DIMALTRND
 40
0.0
  9
$DIMAZIN
 70
     2
  9
$DIMDSEP
 70
    46
  9
$DIMATFIT
 70
     3
  9
$DIMFRAC
 70
     0
  9
$DIMLDRBLK
  1

  9
$DIMLUNIT
 70
     2
  9
$DIMLWD
 70
    -1
  9
$DIMLWE
 70
    -1
  9
$DIMTMOVE
 70
     0
  9
$DIMFXL
 40
1.0
  9
$DIMFXLON
 70
     0
  9
$DIMJOGANG
 40
0.7853981633974483
  9
$DIMTFILL
 70
     0
  9
$DIMTFILLCLR
 70
     0
  9
$DIMARCSYM
 70
     1
  9
$DIMLTYPE
  6
ByBlock
  9
$DIMLTEX1
  6
ByBlock
  9
$DIMLTEX2
  6
ByBlock
  9
$LUNITS
 70
     2
  9
$LUPREC
 70
     4
  9
$SKETCHINC
 40
0.1
  9
$FILLETRAD
 40
4.0
  9
$AUNITS
 70
     1
  9
$AUPREC
 70
     3
  9
$MENU
  1
ACAD
  9
$ELEVATION
 40
0.0
  9
$PELEVATION
 40
0.0
  9
$THICKNESS
 40
50.0
  9
$LIMCHECK
 70
     0
  9
$CHAMFERA
 40
0.0
  9
$CHAMFERB
 40
0.0
  9
$CHAMFERC
 40
0.0
  9
$CHAMFERD
 40
0.0
  9
$SKPOLY
 70
     0
  9
$TDCREATE
 40
2452321.396199653
  9
$TDUCREATE
 40
2452321.021199653
  9
$TDUPDATE
 40
2457466.597023658
  9
$TDUUPDATE
 40
2457466.222023658
  9
$TDINDWG
 40
1.0416193171
  9
$TDUSRTIMER
 40
1.0416131944
  9
$USRTIMER
 70
     1
  9
$ANGBASE
 50
0.0
  9
$ANGDIR
 70
     0
  9
$PDMODE
 70
     3
  9
$PDSIZE
 40
-2.0
  9
$PLINEWID
 40
0.0
  9
$SPLFRAME
 70
     0
  9
$SPLINETYPE
 70
     6
  9
$SPLINESEGS
 70
     8
  9
$HANDSEED
  5
30EF
  9
$SURFTAB1
 70
     6
  9
$SURFTAB2
 70
     6
  9
$SURFTYPE
 70
     6
  9
$SURFU
 70
     6
  9
$SURFV
 70
     6
  9
$UCSBASE
  2

  9
$UCSNAME
  2

  9
$UCSORG
 10
0.0
 20
0.0
 30
0.0
  9
$UCSXDIR
 10
1.0
 20
0.0
 30
0.0
  9
$UCSYDIR
 10
0.0
 20
1.0
 30
0.0
  9
$UCSORTHOREF
  2

  9
$UCSORTHOVIEW
 70
     0
  9
$UCSORGTOP
 10
0.0
 20
0.0
 30
0.0
  9
$UCSORGBOTTOM
 10
0.0
 20
0.0
 30
0.0
  9
$UCSORGLEFT
 10
0.0
 20
0.0
 30
0.0
  9
$UCSORGRIGHT
 10
0.0
 20
0.0
 30
0.0
  9
$UCSORGFRONT
 10
0.0
 20
0.0
 30
0.0
  9
$UCSORGBACK
 10
0.0
 20
0.0
 30
0.0
  9
$PUCSBASE
  2

  9
$PUCSNAME
  2

  9
$PUCSORG
 10
0.0
 20
0.0
 30
0.0
  9
$PUCSXDIR
 10
1.0
 20
0.0
 30
0.0
  9
$PUCSYDIR
 10
0.0
 20
1.0
 30
0.0
  9
$PUCSORTHOREF
  2

  9
$PUCSORTHOVIEW
 70
     0
  9
$PUCSORGTOP
 10
0.0
 20
0.0
 30
0.0
  9
$PUCSORGBOTTOM
 10
0.0
 20
0.0
 30
0.0
  9
$PUCSORGLEFT
 10
0.0
 20
0.0
 30
0.0
  9
$PUCSORGRIGHT
 10
0.0
 20
0.0
 30
0.0
  9
$PUCSORGFRONT
 10
0.0
 20
0.0
 30
0.0
  9
$PUCSORGBACK
 10
0.0
 20
0.0
 30
0.0
  9
$USERI1
 70
     0
  9
$USERI2
 70
     0
  9
$USERI3
 70
     0
  9
$USERI4
 70
     0
  9
$USERI5
 70
     0
  9
$USERR1
 40
20.0
  9
$USERR2
 40
0.0
  9
$USERR3
 40
0.0
  9
$USERR4
 40
0.0
  9
$USERR5
 40
0.0
  9
$WORLDVIEW
 70
     1
  9
$SHADEDGE
 70
     3
  9
$SHADEDIF
 70
    70
  9
$TILEMODE
 70
     1
  9
$MAXACTVP
 70
    64
  9
$PINSBASE
 10
0.0
 20
0.0
 30
0.0
  9
$PLIMCHECK
 70
     0
  9
$PEXTMIN
 10
1.000000000000000E+20
 20
1.000000000000000E+20
 30
1.000000000000000E+20
  9
$PEXTMAX
 10
-1.000000000000000E+20
 20
-1.000000000000000E+20
 30
-1.000000000000000E+20
  9
$PLIMMIN
 10
0.0
 20
0.0
  9
$PLIMMAX
 10
12.0
 20
9.0
  9
$UNITMODE
 70
     0
  9
$VISRETAIN
 70
     1
  9
$PLINEGEN
 70
     0
  9
$PSLTSCALE
 70
     1
  9
$TREEDEPTH
 70
  3020
  9
$CMLSTYLE
  2
Standard
  9
$CMLJUST
 70
     0
  9
$CMLSCALE
 40
1.0
  9
$PROXYGRAPHICS
 70
     1
  9
$MEASUREMENT
 70
     0
  9
$CELWEIGHT
370
    -1
  9
$ENDCAPS
280
     0
  9
$JOINSTYLE
280
     0
  9
$LWDISPLAY
290
     0
  9
$INSUNITS
 70
     0
  9
$HYPERLINKBASE
  1

  9
$STYLESHEET
  1

  9
$XEDIT
290
     1
  9
$CEPSNTYPE
380
     0
  9
$PSTYLEMODE
290
     1
  9
$FINGERPRINTGUID
  2
{2068DCD7-7186-4E4E-B845-DFEC563FE19C}
  9
$VERSIONGUID
  2
{B1F48E91-B96D-40D8-A272-A347F4A7D52E}
  9
$EXTNAMES
290
     1
  9
$PSVPSCALE
 40
0.0
  9
$OLESTARTUP
290
     0
  9
$SORTENTS
280
   127
  9
$INDEXCTL
280
     1
  9
$HIDETEXT
280
     0
  9
$XCLIPFRAME
290
     0
  9
$HALOGAP
280
     0
  9
$OBSCOLOR
 70
   257
  9
$OBSLTYPE
280
     0
  9
$INTERSECTIONDISPLAY
280
     0
  9
$INTERSECTIONCOLOR
 70
   257
  9
$DIMASSOC
280
     1
  9
$PROJECTNAME
  1

  9
$CAMERADISPLAY
290
     0
  9
$LENSLENGTH
 40
50.0
  9
$CAMERAHEIGHT
 40
0.0
  9
$STEPSPERSEC
 40
2.0
  9
$STEPSIZE
 40
6.0
  9
$3DDWFPREC
 40
2.0
  9
$PSOLWIDTH
 40
0.25
  9
$PSOLHEIGHT
 40
4.0
  9
$LOFTANG1
 40
1.570796326794896
  9
$LOFTANG2
 40
1.570796326794896
  9
$LOFTMAG1
 40
0.0
  9
$LOFTMAG2
 40
0.0
  9
$LOFTPARAM
 70
     7
  9
$LOFTNORMALS
280
     1
  9
$LATITUDE
 40
37.795
  9
$LONGITUDE
 40
-122.394
  9
$NORTHDIRECTION
 40
0.0
  9
$TIMEZONE
 70
 -8000
  9
$LIGHTGLYPHDISPLAY
280
     1
  9
$TILEMODELIGHTSYNCH
280
     1
  9
$CMATERIAL
347
2A60
  9
$SOLIDHIST
280
     1
  9
$SHOWHIST
280
     1
  9
$DWFFRAME
280
     2
  9
$DGNFRAME
280
     0
  9
$REALWORLDSCALE
290
     1
  9
$INTERFERECOLOR
 62
     1
  9
$INTERFEREOBJVS
345
2A82
  9
$INTERFEREVPVS
346
2A7F
  9
$CSHADOW
280
     0
  9
$SHADOWPLANELOCATION
 40
0.0
  0
ENDSEC
  0
SECTION
  2
CLASSES
  0
CLASS
  1
ACDBDICTIONARYWDFLT
  2
AcDbDictionaryWithDefault
  3
ObjectDBX Classes
 90
        0
 91
        1
280
     0
281
     0
  0
CLASS
  1
MATERIAL
  2
AcDbMaterial
  3
ObjectDBX Classes
 90
     1153
 91
        3
280
     0
281
     0
  0
CLASS
  1
VISUALSTYLE
  2
AcDbVisualStyle
  3
ObjectDBX Classes
 90
     4095
 91
       16
280
     0
281
     0
  0
CLASS
  1
SCALE
  2
AcDbScale
  3
ObjectDBX Classes
 90
     1153
 91
       33
280
     0
281
     0
  0
CLASS
  1
TABLESTYLE
  2
AcDbTableStyle
  3
ObjectDBX Classes
 90
     4095
 91
        1
280
     0
281
     0
  0
CLASS
  1
MLEADERSTYLE
  2
AcDbMLeaderStyle
  3
ACDB_MLEADERSTYLE_CLASS
 90
     4095
 91
        1
280
     0
281
     0
  0
CLASS
  1
AMGSETTINGSOBJ
  2
AmgSettingsObj
  3
"AcadM|Product Description: AutoCAD Mechanical|Company: Autodesk, Inc."
 90
     1024
 91
        2
280
     0
281
     0
  0
CLASS
  1
ACME_DOCUMENT
  2
AcMeDbDoc
  3
AcMeServices
 90
     1024
 91
        1
280
     0
281
     0
  0
CLASS
  1
ACMESCOPE
  2
AcMeScope
  3
AcMeServices
 90
     1024
 91
        1
280
     0
281
     0
  0
CLASS
  1
ACMECOMMANDHISTORY
  2
AcMeCommandHistory
  3
AcMeServices
 90
     1024
 91
        1
280
     0
281
     0
  0
CLASS
  1
ACIMSYSVARMAN
  2
AcImSysVarManager
  3
AcMeServices
 90
     1024
 91
        6
280
     0
281
     0
  0
CLASS
  1
ACIMREALSYSVAR
  2
AcImRealSysVar
  3
AcMeServices
 90
     1024
 91
       16
280
     0
281
     0
  0
CLASS
  1
ACIMINTSYSVAR
  2
AcImIntSysVar
  3
AcMeServices
 90
     1024
 91
       45
280
     0
281
     0
  0
CLASS
  1
ACMEDRAWINGMAN
  2
AcMeDrawingMan
  3
AcMeServices
 90
     1024
 91
        1
280
     0
281
     0
  0
CLASS
  1
ACMEVIEW
  2
AcMeView
  3
AcMeServices
 90
     1024
 91
        1
280
     0
281
     0
  0
CLASS
  1
ACDBENTITYCACHE
  2
AcMeEntityCache
  3
AcMeServices
 90
     1024
 91
        1
280
     0
281
     0
  0
CLASS
  1
GSMANAGER
  2
AcMeGSManager
  3
AcMeServices
 90
     1024
 91
        1
280
     0
281
     0
  0
CLASS
  1
AMDTINTERNALREACTOR
  2
AmdtInternalReactor
  3
AcMeServices
 90
     1024
 91
        2
280
     0
281
     0
  0
CLASS
  1
ACMESTATEMGR
  2
AcMeStateMgr
  3
AcMeServices
 90
     1024
 91
        1
280
     0
281
     0
  0
CLASS
  1
ACGREFMASTER
  2
AcGrefMaster
  3
AcAttribServices
 90
     1024
 91
        1
280
     0
281
     0
  0
CLASS
  1
AM_DRAWING_MGR
  2
AcDmDwgMgr
  3
AcMechDwgViewMgmt
 90
     1024
 91
        1
280
     0
281
     0
  0
CLASS
  1
AM_DWG_DOCUMENT
  2
AcDmDwgDocument
  3
AcMechDwgViewMgmt
 90
     1024
 91
        1
280
     0
281
     0
  0
CLASS
  1
AM_DWG_SHEET
  2
AcDmSheet
  3
AcMechDwgViewMgmt
 90
     1024
 91
        1
280
     0
281
     0
  0
CLASS
  1
AM_VIEWDIMPARMAP
  2
AcDmViewDimParMap
  3
AcMechDwgViewMgmt
 90
     1024
 91
        1
280
     0
281
     0
  0
CLASS
  1
AM_DWGMGR_NAME
  2
AcDmDwgMgrName
  3
AcMechDwgViewMgmt
 90
     1024
 91
        1
280
     0
281
     0
  0
CLASS
  1
ACME_DATABASE
  2
AcMeDbDatabase
  3
AcMeServices
 90
     1024
 91
        1
280
     0
281
     0
  0
CLASS
  1
ACRFINSADJUSTERMGR
  2
AcRfInsAdjusterMgr
  3
AcMeServices
 90
     1024
 91
        1
280
     0
281
     0
  0
CLASS
  1
ACGREFACADMASTER
  2
AcGrefacadMaster
  3
AcGrefServices
 90
     1024
 91
        1
280
     0
281
     0
  0
CLASS
  1
AMDTMENUSTATEMGR
  2
AmdtMenuStateMgr
  3
McadcomServices
 90
     1024
 91
        1
280
     0
281
     0
  0
CLASS
  1
AMDTMCOMMENUSTATE
  2
AmdtMcomMenuState
  3
McadcomServices
 90
     1024
 91
        1
280
     0
281
     0
  0
CLASS
  1
AMIMASTER
  2
AmiMaster
  3
AmiServices
 90
     1024
 91
        1
280
     0
281
     0
  0
CLASS
  1
ASAPP
  2
AcAsAppObject
  3
AutoSurfServices
 90
     1024
 91
        1
280
     0
281
     0
  0
CLASS
  1
IM_STATIC_MAN
  2
AcImStaticVarManager
  3
AcMeServices
 90
     1024
 91
        1
280
     0
281
     0
  0
CLASS
  1
ACIMSTRSYSVAR
  2
AcImStrSysVar
  3
AcMeServices
 90
     1024
 91
       11
280
     0
281
     0
  0
CLASS
  1
ACIMDBLSTATICVAR
  2
AcImDblStaticVar
  3
AcMeServices
 90
     1024
 91
       20
280
     0
281
     0
  0
CLASS
  1
ACIMSTRSTATICVAR
  2
AcImStrStaticVar
  3
AcMeServices
 90
     1024
 91
       12
280
     0
281
     0
  0
CLASS
  1
ACIMINTSTATICVAR
  2
AcImIntStaticVar
  3
AcMeServices
 90
     1024
 91
       17
280
     0
281
     0
  0
CLASS
  1
ACASGREFMASTER
  2
AcAsGrefMaster
  3
AutoSurfResolverServices
 90
     1024
 91
        1
280
     0
281
     0
  0
CLASS
  1
ACADGREFMODULE
  2
AcAdGrefModule
  3
AdGrefServices
 90
     1024
 91
        1
280
     0
281
     0
  0
CLASS
  1
AMDTMAPISURFMOUDULE
  2
AmdtMApiSurfModule
  3
MApiSurfServices
 90
     1024
 91
        1
280
     0
281
     0
  0
CLASS
  1
MAPIAMMOUDLE
  2
MApiAmModule
  3
MApiAmServices
 90
     1024
 91
        1
280
     0
281
     0
  0
CLASS
  1
AMDTADMENUSTATE
  2
AmdtAdMenuState
  3
DesignerServices
 90
     1024
 91
        1
280
     0
281
     0
  0
CLASS
  1
ADAPPL
  2
AcAdAppl
  3
DesignerServices
 90
     1024
 91
        1
280
     0
281
     0
  0
CLASS
  1
DEPMGR
  2
AcAdDepMgr
  3
DesignerServices
 90
     1024
 91
        1
280
     0
281
     0
  0
CLASS
  1
PARAMMGR
  2
AcAdParamMgr
  3
DesignerServices
 90
     1024
 91
        1
280
     0
281
     0
  0
CLASS
  1
PARAMSCOPE
  2
AcAdParamScope
  3
DesignerServices
 90
     1024
 91
        1
280
     0
281
     0
  0
CLASS
  1
NAMEDAPPL
  2
AcAdNamedAppl
  3
DesignerServices
 90
     1024
 91
        1
280
     0
281
     0
  0
CLASS
  1
AMDTDMMENUSTATE
  2
AmdtDmMenuState
  3
AcMechDwgViewMgmt
 90
     1024
 91
        1
280
     0
281
     0
  0
CLASS
  1
MAPIADMODULE
  2
MApiAdModule
  3
MApiAdServices
 90
     1024
 91
        1
280
     0
281
     0
  0
CLASS
  1
AMDTAMMENUSTATE
  2
AmdtAmMenuState
  3
DesignerAssemblies
 90
     1024
 91
        1
280
     0
281
     0
  0
CLASS
  1
ACAMPROJECT
  2
AcAmProject
  3
DesignerAssemblies
 90
     1024
 91
        1
280
     0
281
     0
  0
CLASS
  1
ACAMGRCOMPDEF
  2
AcAmGrCompDef
  3
DesignerAssemblies
 90
     1024
 91
        1
280
     0
281
     0
  0
CLASS
  1
ACCMCONTEXT
  2
AcCmContext
  3
DesignerAssemblies
 90
     1024
 91
        1
280
     0
281
     0
  0
CLASS
  1
ACAMCOMPDEF
  2
AcAmCompDef
  3
DesignerAssemblies
 90
     1024
 91
        1
280
     0
281
     0
  0
CLASS
  1
ACAMCOMPDEFMGR
  2
AcAmCompDefMgr
  3
DesignerAssemblies
 90
     1024
 91
        1
280
     0
281
     0
  0
CLASS
  1
AMCONTEXTMGR
  2
AcAmContextMgr
  3
DesignerAssemblies
 90
     1024
 91
        1
280
     0
281
     0
  0
CLASS
  1
ACAMCONTEXTMODELER
  2
AcAmContextModeler
  3
DesignerAssemblies
 90
     1024
 91
        1
280
     0
281
     0
  0
CLASS
  1
ACMDATADICTIONARY
  2
AcmDataDictionary
  3
"AcmSymBB|Product Description: AutoCAD Mechanical|Company: Autodesk, Inc."
 90
     1024
 91
        1
280
     0
281
     0
  0
CLASS
  1
ACMDATAENTRYBLOCK
  2
AcmDataEntryBlock
  3
AcmSymBB|Product Description: AutoCAD Mechanical|Company: Autodesk, Inc.
 90
     1024
 91
        1
280
     0
281
     0
  0
CLASS
  1
ACRFATTGENMGR
  2
AcRfAttGeneralMgr
  3
AcAttribServices
 90
     1024
 91
        1
280
     0
281
     0
  0
CLASS
  1
ACRFOBJATTMGR
  2
AcRfObjAttGroupMgr
  3
AcAttribServices
 90
     1024
 91
        1
280
     0
281
     0
  0
CLASS
  1
ACRFMCADAPIATTHOLDER
  2
AcRfMCADAPIAttHolder
  3
AcAttribServices
 90
     1024
 91
        1
280
     0
281
     0
  0
CLASS
  1
AMDTSYSATTR
  2
AmdtSystemAttribute
  3
AcAttribServices
 90
     1024
 91
        1
280
     0
281
     0
  0
CLASS
  1
CATALOGSTATE
  2
AcAmCatalogState
  3
DesignerAssemblies
 90
     1024
 91
        1
280
     0
281
     0
  0
CLASS
  1
ACAMGRCOMPDEFSET
  2
AcAmGrCompDefSet
  3
DesignerAssemblies
 90
     1024
 91
        1
280
     0
281
     0
  0
CLASS
  1
AMDTBROWSERDBTAB
  2
AmdtBrowserDbTab
  3
McadcomServices
 90
     1024
 91
        1
280
     0
281
     0
  0
CLASS
  1
CBROWSERAPPOBJECT
  2
CBrowserAppObject
  3
McadcomServices
 90
     1024
 91
        3
280
     0
281
     0
  0
CLASS
  1
DM_PLACEHOLDER
  2
AcDmSelsetPlaceholder
  3
AcMechDwgViewMgmt
 90
     1024
 91
        1
280
     0
281
     0
  0
CLASS
  1
ACMSTANDARDANSI
  2
AcmStandardANSI
  3
"Amdt_StdImp|Product Description: AutoCAD Mechanical|Company: Autodesk, Inc."
 90
     1024
 91
        1
280
     0
281
     0
  0
CLASS
  1
ACMSURFSTANDARDANSI
  2
AcmSurfTextStdANSI
  3
"Amdt_StdImp|Product Description: AutoCAD Mechanical|Company: Autodesk, Inc."
 90
     1024
 91
        1
280
     0
281
     0
  0
CLASS
  1
ACMFCFSTANDARDANSI
  2
AcmFCFStdANSI
  3
"Amdt_StdImp|Product Description: AutoCAD Mechanical|Company: Autodesk, Inc."
 90
     1024
 91
        1
280
     0
281
     0
  0
CLASS
  1
ACMWELDSTANDARDANSI
  2
AcmWeldingStdANSI
  3
"Amdt_StdImp|Product Description: AutoCAD Mechanical|Company: Autodesk, Inc."
 90
     1024
 91
        1
280
     0
281
     0
  0
CLASS
  1
ACMIDSTANDARDANSI
  2
AcmIdStdANSI
  3
"Amdt_StdImp|Product Description: AutoCAD Mechanical|Company: Autodesk, Inc."
 90
     1024
 91
        1
280
     0
281
     0
  0
CLASS
  1
ACMDATUMSTANDARDANSI
  2
AcmDatumStdANSI
  3
"Amdt_StdImp|Product Description: AutoCAD Mechanical|Company: Autodesk, Inc."
 90
     1024
 91
        1
280
     0
281
     0
  0
CLASS
  1
ACMBOMSTANDARDANSI
  2
AcmBOMStdANSI
  3
"Amdt_StdImp|Product Description: AutoCAD Mechanical|Company: Autodesk, Inc."
 90
     1024
 91
        1
280
     0
281
     0
  0
CLASS
  1
ACMDETAILSTANDARDANSI
  2
AmdtDetailSymStdANSI
  3
"Amdt_StdImp|Product Description: AutoCAD Mechanical|Company: Autodesk, Inc."
 90
     1024
 91
        1
280
     0
281
     0
  0
CLASS
  1
ACMSECTIONSTANDARDANSI
  2
AmdtSectionSymStdANSI
  3
"Amdt_StdImp|Product Description: AutoCAD Mechanical|Company: Autodesk, Inc."
 90
     1024
 91
        1
280
     0
281
     0
  0
CLASS
  1
ACMCENTERLINESTANDARDANSI
  2
AmdtCenterLineStdANSI
  3
"Amdt_StdImp|Product Description: AutoCAD Mechanical|Company: Autodesk, Inc."
 90
     1024
 91
        1
280
     0
281
     0
  0
CLASS
  1
ACMTHREADLINESTANDARDANSI
  2
AmdtThreadLineStdANSI
  3
"Amdt_StdImp|Product Description: AutoCAD Mechanical|Company: Autodesk, Inc."
 90
     1024
 91
        1
280
     0
281
     0
  0
CLASS
  1
ACMNOTESTANDARDANSI
  2
AmdtNoteStdANSI
  3
"Amdt_StdImp|Product Description: AutoCAD Mechanical|Company: Autodesk, Inc."
 90
     1024
 91
        1
280
     0
281
     0
  0
CLASS
  1
ACMTAPERSTANDARDANSI
  2
AcmTaperStdANSI
  3
"Amdt_StdImp|Product Description: AutoCAD Mechanical|Company: Autodesk, Inc."
 90
     1024
 91
        1
280
     0
281
     0
  0
CLASS
  1
ACMANOOTATIONVIEWSTANDARDANSI
  2
AmdtAnViewStdANSI
  3
"Amdt_StdImp|Product Description: AutoCAD Mechanical|Company: Autodesk, Inc."
 90
     1024
 91
        1
280
     0
281
     0
  0
CLASS
  1
ACAMGLAYSTD
  2
AcAmgLayStd
  3
"AmgLay|Product Description: AutoCAD Mechanical|Company: Autodesk, Inc."
 90
     1024
 91
        1
280
     0
281
     0
  0
CLASS
  1
ACAMGDIMSTD
  2
AcAmgDimStd
  3
"AmgDim|Product Description: AutoCAD Mechanical|Company: Autodesk, Inc."
 90
     1024
 91
        1
280
     0
281
     0
  0
CLASS
  1
ACAMGHOLECHARTSTDANSI
  2
AcAmgHoleChartStdANSI
  3
AmgDim|Product Description: AutoCAD Mechanical|Company: Autodesk, Inc.
 90
     1024
 91
        1
280
     0
281
     0
  0
CLASS
  1
AMGOBJPROPCFG
  2
AmgObjPropCfg
  3
"AmgLay|Product Description: AutoCAD Mechanical|Company: Autodesk, Inc."
 90
     1025
 91
        1
280
     0
281
     0
  0
CLASS
  1
ACAMGTITLESTD
  2
AcAmgTitleStd
  3
"AmgTitle|Product Description: AutoCAD Mechanical|Company: Autodesk, Inc."
 90
     4095
 91
        1
280
     0
281
     0
  0
CLASS
  1
AMDTNOTETEMPLATEDB
  2
AmdtNoteTemplateDB
  3
AcmSymBB|Product Description: AutoCAD Mechanical|Company: Autodesk, Inc.
 90
     1024
 91
        6
280
     0
281
     0
  0
CLASS
  1
LAYER_INDEX
  2
AcDbLayerIndex
  3
ObjectDBX Classes
 90
        0
 91
        1
280
     0
281
     0
  0
CLASS
  1
IDBUFFER
  2
AcDbIdBuffer
  3
ObjectDBX Classes
 90
        0
 91
       12
280
     0
281
     0
  0
CLASS
  1
DICTIONARYVAR
  2
AcDbDictionaryVar
  3
ObjectDBX Classes
 90
        0
 91
       10
280
     0
281
     0
  0
CLASS
  1
CELLSTYLEMAP
  2
AcDbCellStyleMap
  3
ObjectDBX Classes
 90
     1152
 91
        2
280
     0
281
     0
  0
CLASS
  1
ACAMGFILTERDAT
  2
AcAmgFilterDat
  3
"AcadM|Product Description: AutoCAD Mechanical|Company: Autodesk, Inc."
 90
     1024
 91
        6
280
     0
281
     0
  0
CLASS
  1
SORTENTSTABLE
  2
AcDbSortentsTable
  3
ObjectDBX Classes
 90
        0
 91
        0
280
     0
281
     0
  0
ENDSEC
  0
SECTION
  2
TABLES
  0
TABLE
  2
VPORT
  5
2A57
330
0
100
AcDbSymbolTable
 70
     1
  0
VPORT
  5
2AC7
330
2A57
100
AcDbSymbolTableRecord
100
AcDbViewportTableRecord
  2
*ACTIVE
 70
     0
 10
0.0
 20
0.0
 11
1.0
 21
1.0
 12
-1050.814834887436
 22
581.2950819858488
 13
0.0
 23
0.0
 14
1.0
 24
1.0
 15
0.0
 25
0.0
 16
0.0
 26
0.0
 36
1.0
 17
1689.915223690205
 27
223.342905546704
 37
0.0
 40
1041.642993981964
 41
1.75
 42
50.0
 43
0.0
 44
0.0
 50
0.0
 51
0.0
 71
     0
 72
   100
 73
     1
 74
     0
 75
     0
 76
     0
 77
     0
 78
     0
281
     0
 65
     0
110
0.0
120
0.0
130
0.0
111
1.0
121
0.0
131
0.0
112
0.0
122
1.0
132
0.0
 79
     0
146
0.0
348
2A7E
 60
     3
 61
     5
292
     1
282
     1
141
0.0
142
0.0
 63
   250
421
  3355443
  0
ENDTAB
  0
TABLE
  2
LTYPE
  5
2A54
330
0
100
AcDbSymbolTable
 70
    20
  0
LTYPE
  5
2AB1
330
2A54
100
AcDbSymbolTableRecord
100
AcDbLinetypeTableRecord
  2
ByBlock
 70
     0
  3

 72
    65
 73
     0
 40
0.0
  0
LTYPE
  5
2AB2
330
2A54
100
AcDbSymbolTableRecord
100
AcDbLinetypeTableRecord
  2
ByLayer
 70
     0
  3

 72
    65
 73
     0
 40
0.0
  0
LTYPE
  5
2AB3
330
2A54
100
AcDbSymbolTableRecord
100
AcDbLinetypeTableRecord
  2
CONTINUOUS
 70
     0
  3
実線
 72
    65
 73
     0
 40
0.0
  0
LTYPE
  5
2AC8
330
2A54
100
AcDbSymbolTableRecord
100
AcDbLinetypeTableRecord
  2
DASHDOT
 70
     0
  3
____ _ ____ _ ____ _ ____ _ ____ _ ____ _ ____
 72
    65
 73
     4
 40
5.5
 49
4.0
 74
     0
 49
-0.6
 74
     0
 49
0.3
 74
     0
 49
-0.6
 74
     0
  0
LTYPE
  5
2AC9
330
2A54
100
AcDbSymbolTableRecord
100
AcDbLinetypeTableRecord
  2
HIDDEN
 70
     0
  3
Hidden __ __ __ __ __ __ __ __ __ __ __ __ __ _
 72
    65
 73
     2
 40
0.375
 49
0.25
 74
     0
 49
-0.125
 74
     0
  0
LTYPE
  5
2ACA
330
2A54
100
AcDbSymbolTableRecord
100
AcDbLinetypeTableRecord
  2
PHANTOM2
 70
     0
  3
Phantom (.5x) ___ _ _ ___ _ _ ___ _ _ ___ _ _
 72
    65
 73
     6
 40
1.25
 49
0.625
 74
     0
 49
-0.125
 74
     0
 49
0.125
 74
     0
 49
-0.125
 74
     0
 49
0.125
 74
     0
 49
-0.125
 74
     0
  0
LTYPE
  5
2ACB
330
2A54
100
AcDbSymbolTableRecord
100
AcDbLinetypeTableRecord
  2
CENTER
 70
     0
  3
Center ____ _ ____ _ ____ _ ____ _ ____ _ ____
 72
    65
 73
     4
 40
2.0
 49
1.25
 74
     0
 49
-0.25
 74
     0
 49
0.25
 74
     0
 49
-0.25
 74
     0
  0
LTYPE
  5
2ACC
330
2A54
100
AcDbSymbolTableRecord
100
AcDbLinetypeTableRecord
  2
ASULTYPE
 70
     0
  3
実線
 72
    65
 73
     2
 40
3.0
 49
2.5
 74
     0
 49
0.5
 74
     0
  0
LTYPE
  5
2ACD
330
2A54
100
AcDbSymbolTableRecord
100
AcDbLinetypeTableRecord
  2
ASVLTYPE
 70
     0
  3
__ __ __ __ __ __ __ __ __ __ __ __ __ __ __ __ __ __ __ __ __
 72
    65
 73
     2
 40
0.75
 49
0.5
 74
     0
 49
-0.25
 74
     0
  0
LTYPE
  5
2ACE
330
2A54
100
AcDbSymbolTableRecord
100
AcDbLinetypeTableRecord
  2
AM_ISO02W050
 70
     0
  3
__ __ __ __ __ __ __ __ __ __ __ __ __ __ __
 72
    65
 73
     2
 40
7.5
 49
6.0
 74
     0
 49
-1.5
 74
     0
  0
LTYPE
  5
2ACF
330
2A54
100
AcDbSymbolTableRecord
100
AcDbLinetypeTableRecord
  2
AM_ISO08W050
 70
     0
  3
____ . ____ . ____ . ____ . ____ . ____ . ____
 72
    65
 73
     4
 40
18.0
 49
12.0
 74
     0
 49
-1.5
 74
     0
 49
3.0
 74
     0
 49
-1.5
 74
     0
  0
LTYPE
  5
2AD0
330
2A54
100
AcDbSymbolTableRecord
100
AcDbLinetypeTableRecord
  2
AM_ISO09W050
 70
     0
  3
_____ . . _____ . . _____ . . ____ .. ____
 72
    65
 73
     6
 40
22.5
 49
12.0
 74
     0
 49
-1.5
 74
     0
 49
3.0
 74
     0
 49
-1.5
 74
     0
 49
3.0
 74
     0
 49
-1.5
 74
     0
  0
LTYPE
  5
2AD1
330
2A54
100
AcDbSymbolTableRecord
100
AcDbLinetypeTableRecord
  2
AMCONSTR
 70
     0
  3
_______________________
 72
    65
 73
     2
 40
9999.0
 49
9999.0
 74
     0
 49
0.0
 74
     0
  0
LTYPE
  5
2AD2
330
2A54
100
AcDbSymbolTableRecord
100
AcDbLinetypeTableRecord
  2
AM_ISO08W050X2
 70
     0
  3
__ . __ . __ . __ . __ . __
 72
    65
 73
     4
 40
9.0
 49
6.0
 74
     0
 49
-0.75
 74
     0
 49
1.5
 74
     0
 49
-0.75
 74
     0
  0
LTYPE
  5
2AD3
330
2A54
100
AcDbSymbolTableRecord
100
AcDbLinetypeTableRecord
  2
AM_ISO02W050X2
 70
     0
  3
 _ _ _ _ _ _ _ _ _ _ _ _
 72
    65
 73
     2
 40
3.75
 49
3.0
 74
     0
 49
-0.75
 74
     0
  0
LTYPE
  5
2AD4
330
2A54
100
AcDbSymbolTableRecord
100
AcDbLinetypeTableRecord
  2
AMZIGZAG
 70
     0
  3
/\/-/\/-/\/-/\/-/\/-/\/
 72
    65
 73
     2
 40
11.0001
 49
0.0001
 74
     0
 49
-11.0
 74
     0
  0
LTYPE
  5
2AD5
330
2A54
100
AcDbSymbolTableRecord
100
AcDbLinetypeTableRecord
  2
CENTER2
 70
     0
  3
Center (.5x) ___ _ ___ _ ___ _ ___ _ ___ _ ___
 72
    65
 73
     4
 40
1.125
 49
0.75
 74
     0
 49
-0.125
 74
     0
 49
0.125
 74
     0
 49
-0.125
 74
     0
  0
LTYPE
  5
2AD6
330
2A54
100
AcDbSymbolTableRecord
100
AcDbLinetypeTableRecord
  2
HIDDEN2
 70
     0
  3
Hidden (.5x) _ _ _ _ _ _ _ _ _ _ _ _ _ _ _ _ _
 72
    65
 73
     2
 40
0.1875
 49
0.125
 74
     0
 49
-0.0625
 74
     0
  0
LTYPE
  5
2AD7
330
2A54
100
AcDbSymbolTableRecord
100
AcDbLinetypeTableRecord
  2
AMZIGZAG2
 70
     0
  3
/\/-/\/-/\/-/\/-/\/-/\/
 72
    65
 73
     2
 40
0.4401
 49
0.0001
 74
     0
 49
-0.4400000000000003
 74
     0
  0
LTYPE
  5
2AD8
330
2A54
100
AcDbSymbolTableRecord
100
AcDbLinetypeTableRecord
  2
ACANSTGB
 70
     0
  3
__ . . __ . .
 72
    65
 73
     6
 40
0.35433070866
 49
0.15748031496
 74
     0
 49
-0.03937007874
 74
     0
 49
0.03937007874
 74
     0
 49
-0.03937007874
 74
     0
 49
0.03937007874
 74
     0
 49
-0.03937007874
 74
     0
  0
LTYPE
  5
2AD9
330
2A54
100
AcDbSymbolTableRecord
100
AcDbLinetypeTableRecord
  2
ACANSTGL
 70
     0
  3
_ _ _ _ _
 72
    65
 73
     2
 40
0.11811023622
 49
0.07874015748
 74
     0
 49
-0.03937007874
 74
     0
  0
ENDTAB
  0
TABLE
  2
LAYER
  5
2A51
102
{ACAD_XDICTIONARY
360
2DA0
102
}
330
0
100
AcDbSymbolTable
 70
    12
  0
LAYER
  5
2AAB
102
{ACAD_XDICTIONARY
360
2C78
102
}
330
2A51
100
AcDbSymbolTableRecord
100
AcDbLayerTableRecord
  2
0
 70
     0
 62
     7
  6
CONTINUOUS
370
    -3
390
2A5E
347
2A70
  0
LAYER
  5
2ADA
102
{ACAD_XDICTIONARY
360
2C7A
102
}
330
2A51
100
AcDbSymbolTableRecord
100
AcDbLayerTableRecord
  2
OUTLINE
 70
     0
 62
     3
  6
CONTINUOUS
370
    -3
390
2A5E
347
2A70
  0
LAYER
  5
2ADB
102
{ACAD_XDICTIONARY
360
2C7C
102
}
330
2A51
100
AcDbSymbolTableRecord
100
AcDbLayerTableRecord
  2
SIZE
 70
     0
 62
    30
  6
CONTINUOUS
370
    -3
390
2A5E
347
2A70
  0
LAYER
  5
2ADC
102
{ACAD_XDICTIONARY
360
2C7E
102
}
330
2A51
100
AcDbSymbolTableRecord
100
AcDbLayerTableRecord
  2
BASIS
 70
     0
 62
     6
  6
DASHDOT
370
    -3
390
2A5E
347
2A70
  0
LAYER
  5
2ADD
102
{ACAD_XDICTIONARY
360
2C80
102
}
330
2A51
100
AcDbSymbolTableRecord
100
AcDbLayerTableRecord
  2
DETAIL
 70
     0
 62
     5
  6
CONTINUOUS
370
    -3
390
2A5E
347
2A70
  0
LAYER
  5
2ADE
102
{ACAD_XDICTIONARY
360
2C82
102
}
330
2A51
100
AcDbSymbolTableRecord
100
AcDbLayerTableRecord
  2
ARRANGE
 70
     0
 62
     1
  6
CONTINUOUS
370
    -3
390
2A5E
347
2A70
  0
LAYER
  5
2ADF
330
2A51
100
AcDbSymbolTableRecord
100
AcDbLayerTableRecord
  2
DEFPOINTS
 70
     0
 62
     7
  6
CONTINUOUS
290
     0
370
    -3
390
2A5E
347
2A70
  0
LAYER
  5
2AE0
102
{ACAD_XDICTIONARY
360
2C84
102
}
330
2A51
100
AcDbSymbolTableRecord
100
AcDbLayerTableRecord
  2
ETC
 70
     0
 62
    61
  6
CONTINUOUS
370
    -3
390
2A5E
347
2A70
  0
LAYER
  5
2AE1
102
{ACAD_XDICTIONARY
360
2C86
102
}
330
2A51
100
AcDbSymbolTableRecord
100
AcDbLayerTableRecord
  2
FIX
 70
     0
 62
    11
  6
CONTINUOUS
370
    -3
390
2A5E
347
2A70
  0
LAYER
  5
2AE2
102
{ACAD_XDICTIONARY
360
2C88
102
}
330
2A51
100
AcDbSymbolTableRecord
100
AcDbLayerTableRecord
  2
NOTE
 70
     0
 62
     4
  6
CONTINUOUS
370
    -3
390
2A5E
347
2A70
  0
LAYER
  5
2AE3
102
{ACAD_XDICTIONARY
360
2C8A
102
}
330
2A51
100
AcDbSymbolTableRecord
100
AcDbLayerTableRecord
  2
SERVICESPACE
 70
     0
 62
     2
  6
DASHDOT
370
    -3
390
2A5E
347
2A70
  0
LAYER
  5
2AE4
102
{ACAD_XDICTIONARY
360
2C8C
102
}
330
2A51
100
AcDbSymbolTableRecord
100
AcDbLayerTableRecord
  2
SYMBOLLINE
 70
     0
 62
    15
  6
CONTINUOUS
370
    -3
390
2A5E
347
2A70
  0
ENDTAB
  0
TABLE
  2
STYLE
  5
2A52
330
0
100
AcDbSymbolTable
 70
     5
  0
STYLE
  5
2AAC
330
2A52
100
AcDbSymbolTableRecord
100
AcDbTextStyleTableRecord
  2
STANDARD
 70
     0
 40
64.0
 41
0.9
 50
0.0
 71
     0
 42
64.0
  3
SIMPLEX.shx
  4
BIGFONT.shx
  0
STYLE
  5
2AB0
330
2A52
100
AcDbSymbolTableRecord
100
AcDbTextStyleTableRecord
  2
ANNOTATIVE
 70
     0
 40
0.0
 41
1.0
 50
0.0
 71
     0
 42
0.2
  3
txt
  4

1001
ACADANNOTATIVE
1000
AnnotativeData
1002
{
1070
     1
1070
     1
1002
}
  0
STYLE
  5
2AE5
330
2A52
100
AcDbSymbolTableRecord
100
AcDbTextStyleTableRecord
  2

 70
     1
 40
0.0
 41
1.0
 50
0.0
 71
     0
 42
64.0
  3
genltshp.shx
  4

  0
STYLE
  5
2AE6
330
2A52
100
AcDbSymbolTableRecord
100
AcDbTextStyleTableRecord
  2
ACANSTS
 70
     0
 40
1.0
 41
1.0
 50
0.0
 71
     0
 42
64.0
  3
romans.shx
  4
extfont.shx
  0
STYLE
  5
2AE7
330
2A52
100
AcDbSymbolTableRecord
100
AcDbTextStyleTableRecord
  2
ACANSGDT
 70
     0
 40
0.0
 41
1.0
 50
0.0
 71
     0
 42
64.0
  3
amgdt.shx
  4

  0
ENDTAB
  0
TABLE
  2
VIEW
  5
2A55
330
0
100
AcDbSymbolTable
 70
     1
  0
VIEW
  5
2AE8
330
2A55
100
AcDbSymbolTableRecord
100
AcDbViewTableRecord
  2
ALL
 70
     0
 40
4282.619807999997
 10
0.0
 20
41.30990399999999
 41
5940.0
 11
0.0
 21
0.0
 31
1.0
 12
0.0
 22
0.0
 32
0.0
 42
50.0
 43
0.0
 44
0.0
 50
0.0
 71
     0
281
     0
 72
     1
110
0.0
120
0.0
130
0.0
111
1.0
121
0.0
131
0.0
112
0.0
122
1.0
132
0.0
 79
     0
146
0.0
 73
     0
348
2A7E
  0
ENDTAB
  0
TABLE
  2
UCS
  5
2A56
330
0
100
AcDbSymbolTable
 70
     0
  0
ENDTAB
  0
TABLE
  2
APPID
  5
2A58
330
0
100
AcDbSymbolTable
 70
    30
  0
APPID
  5
2AAD
330
2A58
100
AcDbSymbolTableRecord
100
AcDbRegAppTableRecord
  2
ACAD
 70
     0
  0
APPID
  5
2AB4
330
2A58
100
AcDbSymbolTableRecord
100
AcDbRegAppTableRecord
  2
ACADANNOTATIVE
 70
     0
  0
APPID
  5
2ABE
330
2A58
100
AcDbSymbolTableRecord
100
AcDbRegAppTableRecord
  2
ACAD_MLEADERVER
 70
     0
  0
APPID
  5
2AE9
330
2A58
100
AcDbSymbolTableRecord
100
AcDbRegAppTableRecord
  2
GENIUS_GENDIM_13
 70
     0
  0
APPID
  5
2AEA
330
2A58
100
AcDbSymbolTableRecord
100
AcDbRegAppTableRecord
  2
GENIUS_GENDTOL_13
 70
     0
  0
APPID
  5
2AEB
330
2A58
100
AcDbSymbolTableRecord
100
AcDbRegAppTableRecord
  2
GENIUS_GE3DTOL_13
 70
     0
  0
APPID
  5
2AEC
330
2A58
100
AcDbSymbolTableRecord
100
AcDbRegAppTableRecord
  2
MCAD_NO_VIS
 70
     0
  0
APPID
  5
2AED
330
2A58
100
AcDbSymbolTableRecord
100
AcDbRegAppTableRecord
  2
ACAD_TEMP_GRAPHIC
 70
     0
  0
APPID
  5
2AEE
330
2A58
100
AcDbSymbolTableRecord
100
AcDbRegAppTableRecord
  2
AD_DRAW
 70
     0
  0
APPID
  5
2AEF
330
2A58
100
AcDbSymbolTableRecord
100
AcDbRegAppTableRecord
  2
ACATTRIBSERVICES
 70
     0
  0
APPID
  5
2AF0
330
2A58
100
AcDbSymbolTableRecord
100
AcDbRegAppTableRecord
  2
ASURF_PCURVE_APPNAME
 70
     0
  0
APPID
  5
2AF1
330
2A58
100
AcDbSymbolTableRecord
100
AcDbRegAppTableRecord
  2
AMG_3D2D_5_0
 70
     0
  0
APPID
  5
2AF2
330
2A58
100
AcDbSymbolTableRecord
100
AcDbRegAppTableRecord
  2
DESIGNERASSEMBLIES
 70
     0
  0
APPID
  5
2AF3
330
2A58
100
AcDbSymbolTableRecord
100
AcDbRegAppTableRecord
  2
ACADM_DIM_EDIT
 70
     0
  0
APPID
  5
2AF4
330
2A58
100
AcDbSymbolTableRecord
100
AcDbRegAppTableRecord
  2
AMDT_DM_ADJ
 70
     0
  0
APPID
  5
2AF5
330
2A58
100
AcDbSymbolTableRecord
100
AcDbRegAppTableRecord
  2
ACAD_DSTYLE_DIMARC_LENGTH_
 70
     0
  0
APPID
  5
2AF6
330
2A58
100
AcDbSymbolTableRecord
100
AcDbRegAppTableRecord
  2
ACAD_DSTYLE_DIMJOGGED_JOGA
 70
     0
  0
APPID
  5
2AF7
330
2A58
100
AcDbSymbolTableRecord
100
AcDbRegAppTableRecord
  2
ACAD_PSEXT
 70
     0
  0
APPID
  5
2AF8
330
2A58
100
AcDbSymbolTableRecord
100
AcDbRegAppTableRecord
  2
ACAD_EXEMPT_FROM_CAD_STANDARDS
 70
     0
  0
APPID
  5
2AF9
330
2A58
100
AcDbSymbolTableRecord
100
AcDbRegAppTableRecord
  2
ACAD_DSTYLE_DIMJAG
 70
     0
  0
APPID
  5
2AFA
330
2A58
100
AcDbSymbolTableRecord
100
AcDbRegAppTableRecord
  2
ACAD_DSTYLE_DIMTALN
 70
     0
  0
APPID
  5
2AFB
330
2A58
100
AcDbSymbolTableRecord
100
AcDbRegAppTableRecord
  2
AMG_3D2D_5_00
 70
     0
  0
APPID
  5
2AFC
330
2A58
100
AcDbSymbolTableRecord
100
AcDbRegAppTableRecord
  2
AMG_3D2D_5_01
 70
     0
  0
APPID
  5
2AFD
330
2A58
100
AcDbSymbolTableRecord
100
AcDbRegAppTableRecord
  2
AMG_3D2D_5_02
 70
     0
  0
APPID
  5
2C1F
330
2A58
100
AcDbSymbolTableRecord
100
AcDbRegAppTableRecord
  2
AMG_3D2D_5.0
 70
     0
  0
APPID
  5
2CB5
330
2A58
100
AcDbSymbolTableRecord
100
AcDbRegAppTableRecord
  2
ACAD_DSTYLE_DIMARC_LENGTH_SYMBOL
 70
     0
  0
APPID
  5
2CB6
330
2A58
100
AcDbSymbolTableRecord
100
AcDbRegAppTableRecord
  2
ACAD_DSTYLE_DIM_LINETYPE
 70
     0
  0
APPID
  5
2CB7
330
2A58
100
AcDbSymbolTableRecord
100
AcDbRegAppTableRecord
  2
ACAD_DSTYLE_DIM_EXT1_LINETYPE
 70
     0
  0
APPID
  5
2CB8
330
2A58
100
AcDbSymbolTableRecord
100
AcDbRegAppTableRecord
  2
ACAD_DSTYLE_DIM_EXT2_LINETYPE
 70
     0
  0
APPID
  5
2D9F
330
2A58
100
AcDbSymbolTableRecord
100
AcDbRegAppTableRecord
  2
ACAD_DSTYLE_DIMJOGGED_JOGANGLE_SYMBOL
 70
     0
  0
ENDTAB
  0
TABLE
  2
DIMSTYLE
  5
2A59
330
0
100
AcDbSymbolTable
 70
    10
100
AcDbDimStyleTable
 71
     1
340
2AFE
  0
DIMSTYLE
105
2AAE
330
2A59
100
AcDbSymbolTableRecord
100
AcDbDimStyleTableRecord
  2
STANDARD
 70
     0
 41
12.0
 42
20.0
 44
20.0
 77
     1
 78
     8
140
64.0
141
0.0
147
10.0
275
     1
279
     2
284
     7
285
     7
286
     7
340
2AAC
  0
DIMSTYLE
105
2AAF
330
2A59
100
AcDbSymbolTableRecord
100
AcDbDimStyleTableRecord
  2
ANNOTATIVE
 70
     0
275
     1
279
     2
284
     7
285
     7
286
     7
340
2AAC
1001
ACADANNOTATIVE
1000
AnnotativeData
1002
{
1070
     1
1070
     1
1002
}
  0
DIMSTYLE
105
2AFE
330
2A59
100
AcDbSymbolTableRecord
100
AcDbDimStyleTableRecord
  2
AM_ANSI
 70
     0
  4
mm
 41
0.12
 42
0.05
 43
0.5
 44
0.1
 47
0.1
 48
0.1
 78
     7
 79
     2
 90
     1
140
0.12
141
0.0
146
0.71
147
0.06
176
   256
177
   256
178
     2
274
     4
284
     7
340
2AAC
345
2AB1
346
2AB1
347
2AB1
371
    -1
372
    -1
  0
DIMSTYLE
105
2AFF
330
2A59
100
AcDbSymbolTableRecord
100
AcDbDimStyleTableRecord
  2
AM_ANSI$3
 70
     0
  4
mm
 41
0.12
 42
0.05
 43
0.5
 44
0.1
 47
0.1
 48
0.1
 78
     7
 79
     2
 90
     1
140
0.12
141
0.0
146
0.71
147
0.06
176
   256
177
   256
178
     2
274
     4
284
     7
288
     1
289
     0
340
2AAC
345
2AB1
346
2AB1
347
2AB1
371
    -1
372
    -1
  0
DIMSTYLE
105
2B00
330
2A59
100
AcDbSymbolTableRecord
100
AcDbDimStyleTableRecord
  2
AM_ANSI$4
 70
     0
  4
mm
 41
0.12
 42
0.05
 43
0.5
 44
0.1
 47
0.1
 48
0.1
 78
     7
 79
     2
 90
     1
140
0.12
141
0.0
146
0.71
147
0.06
176
   256
177
   256
178
     2
274
     4
284
     7
340
2AAC
345
2AB1
346
2AB1
347
2AB1
371
    -1
372
    -1
  0
DIMSTYLE
105
2B01
330
2A59
100
AcDbSymbolTableRecord
100
AcDbDimStyleTableRecord
  2
AM_ANSI$7
 70
     0
  4
mm
 41
0.12
 42
0.05
 43
0.5
 44
0.1
 47
0.1
 48
0.1
 78
     7
 79
     2
 90
     1
140
0.12
141
0.0
146
0.71
147
0.06
176
   256
177
   256
178
     2
274
     4
284
     7
340
2AAC
345
2AB1
346
2AB1
347
2AB1
371
    -1
372
    -1
  0
DIMSTYLE
105
2B02
330
2A59
100
AcDbSymbolTableRecord
100
AcDbDimStyleTableRecord
  2
AM_ANSI$SF
 70
     0
  4
mm
 41
0.12
 42
0.05
 43
0.5
 44
0.1
 47
0.1
 48
0.1
 75
     1
 76
     1
 78
     7
 79
     2
 90
     1
140
0.12
141
0.0
146
0.71
147
0.06
176
   256
177
   256
178
     2
274
     4
284
     7
340
2AAC
345
2AB1
346
2AB1
347
2AB1
371
    -1
372
    -1
  0
DIMSTYLE
105
2B03
330
2A59
100
AcDbSymbolTableRecord
100
AcDbDimStyleTableRecord
  2
AM_ANSI$SH
 70
     0
  4
mm
 41
0.12
 42
0.05
 43
0.5
 44
0.1
 47
0.1
 48
0.1
 75
     1
 76
     1
 78
     7
 79
     2
 90
     1
140
0.12
141
0.0
146
0.71
147
0.06
173
     1
176
   256
177
   256
178
     2
274
     4
284
     7
340
2AAC
343
2B23
345
2AB1
346
2AB1
347
2AB1
371
    -1
372
    -1
  0
DIMSTYLE
105
2B04
330
2A59
100
AcDbSymbolTableRecord
100
AcDbDimStyleTableRecord
  2
STANDARD1
 70
     0
 40
6.0
 41
2.5
 42
0.625
 43
6.0
 44
1.25
 47
1.0
 48
0.5
 77
     1
 78
     8
140
2.5
141
0.0
146
0.6
147
1.0
173
     1
275
     1
279
     2
284
     7
285
     7
286
     7
340
2AAC
  0
DIMSTYLE
105
2B05
330
2A59
100
AcDbSymbolTableRecord
100
AcDbDimStyleTableRecord
  2
STANDARD$0
 70
     0
 41
12.0
 42
20.0
 44
20.0
 73
     0
 74
     0
 77
     1
 78
     8
140
64.0
141
0.0
147
10.0
275
     1
279
     2
284
     7
285
     7
286
     7
340
2AAC
  0
ENDTAB
  0
TABLE
  2
BLOCK_RECORD
  5
2A50
330
0
100
AcDbSymbolTable
 70
    74
  0
BLOCK_RECORD
  5
2AC3
102
{ACAD_XDICTIONARY
360
2C8E
102
}
330
2A50
100
AcDbSymbolTableRecord
100
AcDbBlockTableRecord
  2
*Model_Space
340
2AC6
 70
     0
280
     1
281
     0
  0
BLOCK_RECORD
  5
2ABF
330
2A50
100
AcDbSymbolTableRecord
100
AcDbBlockTableRecord
  2
*Paper_Space
340
2AC2
 70
     0
280
     1
281
     0
  0
BLOCK_RECORD
  5
2B0D
330
2A50
100
AcDbSymbolTableRecord
100
AcDbBlockTableRecord
  2
$MODEL_SPACE
340
0
 70
     0
280
     1
281
     0
  0
BLOCK_RECORD
  5
2B0F
330
2A50
100
AcDbSymbolTableRecord
100
AcDbBlockTableRecord
  2
$PAPER_SPACE
340
0
 70
     0
280
     1
281
     0
  0
BLOCK_RECORD
  5
2B11
330
2A50
100
AcDbSymbolTableRecord
100
AcDbBlockTableRecord
  2
_ORIGIN
340
0
 70
     0
280
     1
281
     0
  0
BLOCK_RECORD
  5
2B13
330
2A50
100
AcDbSymbolTableRecord
100
AcDbBlockTableRecord
  2
_DOTBLANK
340
0
102
{BLKREFS
331
1299
331
129A
331
11AA
331
11AB
331
E80
331
E81
331
1123
331
1124
331
11C2
331
11C3
331
11EC
331
11ED
331
11F9
331
11FA
331
1287
331
1288
331
1417
331
1418
331
1423
331
1424
331
142F
331
1430
331
143B
331
143C
331
166E
331
166F
331
1677
331
1678
331
1680
331
1681
331
1689
331
168A
331
1696
331
1697
331
16A3
331
16A4
331
16AF
331
16B0
331
16BB
331
16BC
331
16C7
331
16C8
331
16D3
331
16D4
331
1D86
331
1D87
331
1D8F
331
1D90
331
1D98
331
1D99
331
1DA1
331
1DA2
331
1DAB
331
1DAC
331
1DB5
331
1DB6
331
3006
331
3007
331
2EDF
331
2EE0
331
2EE5
331
2EE6
331
2EED
331
2EEE
331
2EF3
331
2EF4
102
}
 70
     0
280
     1
281
     0
  0
BLOCK_RECORD
  5
2B15
330
2A50
100
AcDbSymbolTableRecord
100
AcDbBlockTableRecord
  2
_OPEN30
340
0
102
{BLKREFS
331
2088
331
25A0
331
2880
331
2F07
102
}
 70
     0
280
     1
281
     0
  0
BLOCK_RECORD
  5
2B17
330
2A50
100
AcDbSymbolTableRecord
100
AcDbBlockTableRecord
  2
*D5
340
0
 70
     0
280
     1
281
     0
  0
BLOCK_RECORD
  5
2B19
330
2A50
100
AcDbSymbolTableRecord
100
AcDbBlockTableRecord
  2
*U6
340
0
102
{BLKREFS
331
129B
102
}
 70
     0
280
     1
281
     0
  0
BLOCK_RECORD
  5
2B1B
330
2A50
100
AcDbSymbolTableRecord
100
AcDbBlockTableRecord
  2
*D7
340
0
 70
     0
280
     1
281
     0
  0
BLOCK_RECORD
  5
2B1D
330
2A50
100
AcDbSymbolTableRecord
100
AcDbBlockTableRecord
  2
*U8
340
0
102
{BLKREFS
331
11AC
102
}
 70
     0
280
     1
281
     0
  0
BLOCK_RECORD
  5
2B1F
330
2A50
100
AcDbSymbolTableRecord
100
AcDbBlockTableRecord
  2
*D9
340
0
 70
     0
280
     1
281
     0
  0
BLOCK_RECORD
  5
2B21
330
2A50
100
AcDbSymbolTableRecord
100
AcDbBlockTableRecord
  2
*U10
340
0
102
{BLKREFS
331
E82
102
}
 70
     0
280
     1
281
     0
  0
BLOCK_RECORD
  5
2B23
330
2A50
100
AcDbSymbolTableRecord
100
AcDbBlockTableRecord
  2
GENAXEH
340
0
 70
     0
280
     1
281
     0
  0
BLOCK_RECORD
  5
2B25
330
2A50
100
AcDbSymbolTableRecord
100
AcDbBlockTableRecord
  2
*D12
340
0
 70
     0
280
     1
281
     0
  0
BLOCK_RECORD
  5
2B27
330
2A50
100
AcDbSymbolTableRecord
100
AcDbBlockTableRecord
  2
*U13
340
0
102
{BLKREFS
331
1125
102
}
 70
     0
280
     1
281
     0
  0
BLOCK_RECORD
  5
2B29
330
2A50
100
AcDbSymbolTableRecord
100
AcDbBlockTableRecord
  2
*D14
340
0
 70
     0
280
     1
281
     0
  0
BLOCK_RECORD
  5
2B2B
330
2A50
100
AcDbSymbolTableRecord
100
AcDbBlockTableRecord
  2
*U15
340
0
102
{BLKREFS
331
11C4
102
}
 70
     0
280
     1
281
     0
  0
BLOCK_RECORD
  5
2B2D
330
2A50
100
AcDbSymbolTableRecord
100
AcDbBlockTableRecord
  2
*D16
340
0
 70
     0
280
     1
281
     0
  0
BLOCK_RECORD
  5
2B2F
330
2A50
100
AcDbSymbolTableRecord
100
AcDbBlockTableRecord
  2
*U17
340
0
102
{BLKREFS
331
11EE
102
}
 70
     0
280
     1
281
     0
  0
BLOCK_RECORD
  5
2B31
330
2A50
100
AcDbSymbolTableRecord
100
AcDbBlockTableRecord
  2
*D18
340
0
 70
     0
280
     1
281
     0
  0
BLOCK_RECORD
  5
2B33
330
2A50
100
AcDbSymbolTableRecord
100
AcDbBlockTableRecord
  2
*U19
340
0
102
{BLKREFS
331
11FB
102
}
 70
     0
280
     1
281
     0
  0
BLOCK_RECORD
  5
2B35
330
2A50
100
AcDbSymbolTableRecord
100
AcDbBlockTableRecord
  2
*D20
340
0
 70
     0
280
     1
281
     0
  0
BLOCK_RECORD
  5
2B37
330
2A50
100
AcDbSymbolTableRecord
100
AcDbBlockTableRecord
  2
*U21
340
0
102
{BLKREFS
331
1289
102
}
 70
     0
280
     1
281
     0
  0
BLOCK_RECORD
  5
2B39
330
2A50
100
AcDbSymbolTableRecord
100
AcDbBlockTableRecord
  2
*D22
340
0
 70
     0
280
     1
281
     0
  0
BLOCK_RECORD
  5
2B3B
330
2A50
100
AcDbSymbolTableRecord
100
AcDbBlockTableRecord
  2
*U23
340
0
102
{BLKREFS
331
1419
102
}
 70
     0
280
     1
281
     0
  0
BLOCK_RECORD
  5
2B3D
330
2A50
100
AcDbSymbolTableRecord
100
AcDbBlockTableRecord
  2
*D24
340
0
 70
     0
280
     1
281
     0
  0
BLOCK_RECORD
  5
2B3F
330
2A50
100
AcDbSymbolTableRecord
100
AcDbBlockTableRecord
  2
*U25
340
0
102
{BLKREFS
331
1425
102
}
 70
     0
280
     1
281
     0
  0
BLOCK_RECORD
  5
2B41
330
2A50
100
AcDbSymbolTableRecord
100
AcDbBlockTableRecord
  2
*D26
340
0
 70
     0
280
     1
281
     0
  0
BLOCK_RECORD
  5
2B43
330
2A50
100
AcDbSymbolTableRecord
100
AcDbBlockTableRecord
  2
*U27
340
0
102
{BLKREFS
331
1431
102
}
 70
     0
280
     1
281
     0
  0
BLOCK_RECORD
  5
2B45
330
2A50
100
AcDbSymbolTableRecord
100
AcDbBlockTableRecord
  2
*D28
340
0
 70
     0
280
     1
281
     0
  0
BLOCK_RECORD
  5
2B47
330
2A50
100
AcDbSymbolTableRecord
100
AcDbBlockTableRecord
  2
*U29
340
0
102
{BLKREFS
331
143D
102
}
 70
     0
280
     1
281
     0
  0
BLOCK_RECORD
  5
2B49
330
2A50
100
AcDbSymbolTableRecord
100
AcDbBlockTableRecord
  2
*D30
340
0
 70
     0
280
     1
281
     0
  0
BLOCK_RECORD
  5
2B4B
330
2A50
100
AcDbSymbolTableRecord
100
AcDbBlockTableRecord
  2
*U31
340
0
102
{BLKREFS
331
1670
102
}
 70
     0
280
     1
281
     0
  0
BLOCK_RECORD
  5
2B4D
330
2A50
100
AcDbSymbolTableRecord
100
AcDbBlockTableRecord
  2
*D32
340
0
 70
     0
280
     1
281
     0
  0
BLOCK_RECORD
  5
2B4F
330
2A50
100
AcDbSymbolTableRecord
100
AcDbBlockTableRecord
  2
*U33
340
0
102
{BLKREFS
331
1679
102
}
 70
     0
280
     1
281
     0
  0
BLOCK_RECORD
  5
2B51
330
2A50
100
AcDbSymbolTableRecord
100
AcDbBlockTableRecord
  2
*D34
340
0
 70
     0
280
     1
281
     0
  0
BLOCK_RECORD
  5
2B53
330
2A50
100
AcDbSymbolTableRecord
100
AcDbBlockTableRecord
  2
*U35
340
0
102
{BLKREFS
331
1682
102
}
 70
     0
280
     1
281
     0
  0
BLOCK_RECORD
  5
2B55
330
2A50
100
AcDbSymbolTableRecord
100
AcDbBlockTableRecord
  2
*D36
340
0
 70
     0
280
     1
281
     0
  0
BLOCK_RECORD
  5
2B57
330
2A50
100
AcDbSymbolTableRecord
100
AcDbBlockTableRecord
  2
*U37
340
0
102
{BLKREFS
331
168B
102
}
 70
     0
280
     1
281
     0
  0
BLOCK_RECORD
  5
2B59
330
2A50
100
AcDbSymbolTableRecord
100
AcDbBlockTableRecord
  2
*U38
340
0
 70
     0
280
     1
281
     0
  0
BLOCK_RECORD
  5
2B5B
330
2A50
100
AcDbSymbolTableRecord
100
AcDbBlockTableRecord
  2
*D39
340
0
 70
     0
280
     1
281
     0
  0
BLOCK_RECORD
  5
2B5D
330
2A50
100
AcDbSymbolTableRecord
100
AcDbBlockTableRecord
  2
*U40
340
0
102
{BLKREFS
331
1698
102
}
 70
     0
280
     1
281
     0
  0
BLOCK_RECORD
  5
2B5F
330
2A50
100
AcDbSymbolTableRecord
100
AcDbBlockTableRecord
  2
*D41
340
0
 70
     0
280
     1
281
     0
  0
BLOCK_RECORD
  5
2B61
330
2A50
100
AcDbSymbolTableRecord
100
AcDbBlockTableRecord
  2
*U42
340
0
102
{BLKREFS
331
16A5
102
}
 70
     0
280
     1
281
     0
  0
BLOCK_RECORD
  5
2B63
330
2A50
100
AcDbSymbolTableRecord
100
AcDbBlockTableRecord
  2
*D43
340
0
 70
     0
280
     1
281
     0
  0
BLOCK_RECORD
  5
2B65
330
2A50
100
AcDbSymbolTableRecord
100
AcDbBlockTableRecord
  2
*U44
340
0
102
{BLKREFS
331
16B1
102
}
 70
     0
280
     1
281
     0
  0
BLOCK_RECORD
  5
2B67
330
2A50
100
AcDbSymbolTableRecord
100
AcDbBlockTableRecord
  2
*D45
340
0
 70
     0
280
     1
281
     0
  0
BLOCK_RECORD
  5
2B69
330
2A50
100
AcDbSymbolTableRecord
100
AcDbBlockTableRecord
  2
*U46
340
0
102
{BLKREFS
331
16BD
102
}
 70
     0
280
     1
281
     0
  0
BLOCK_RECORD
  5
2B6B
330
2A50
100
AcDbSymbolTableRecord
100
AcDbBlockTableRecord
  2
*D47
340
0
 70
     0
280
     1
281
     0
  0
BLOCK_RECORD
  5
2B6D
330
2A50
100
AcDbSymbolTableRecord
100
AcDbBlockTableRecord
  2
*U48
340
0
102
{BLKREFS
331
16C9
102
}
 70
     0
280
     1
281
     0
  0
BLOCK_RECORD
  5
2B6F
330
2A50
100
AcDbSymbolTableRecord
100
AcDbBlockTableRecord
  2
*D49
340
0
 70
     0
280
     1
281
     0
  0
BLOCK_RECORD
  5
2B71
330
2A50
100
AcDbSymbolTableRecord
100
AcDbBlockTableRecord
  2
*U50
340
0
102
{BLKREFS
331
16D5
102
}
 70
     0
280
     1
281
     0
  0
BLOCK_RECORD
  5
2B73
330
2A50
100
AcDbSymbolTableRecord
100
AcDbBlockTableRecord
  2
*D51
340
0
 70
     0
280
     1
281
     0
  0
BLOCK_RECORD
  5
2B75
330
2A50
100
AcDbSymbolTableRecord
100
AcDbBlockTableRecord
  2
*U52
340
0
102
{BLKREFS
331
1D88
102
}
 70
     0
280
     1
281
     0
  0
BLOCK_RECORD
  5
2B77
330
2A50
100
AcDbSymbolTableRecord
100
AcDbBlockTableRecord
  2
*D53
340
0
 70
     0
280
     1
281
     0
  0
BLOCK_RECORD
  5
2B79
330
2A50
100
AcDbSymbolTableRecord
100
AcDbBlockTableRecord
  2
*U54
340
0
102
{BLKREFS
331
1D91
102
}
 70
     0
280
     1
281
     0
  0
BLOCK_RECORD
  5
2B7B
330
2A50
100
AcDbSymbolTableRecord
100
AcDbBlockTableRecord
  2
*D55
340
0
 70
     0
280
     1
281
     0
  0
BLOCK_RECORD
  5
2B7D
330
2A50
100
AcDbSymbolTableRecord
100
AcDbBlockTableRecord
  2
*U56
340
0
102
{BLKREFS
331
1D9A
102
}
 70
     0
280
     1
281
     0
  0
BLOCK_RECORD
  5
2B7F
330
2A50
100
AcDbSymbolTableRecord
100
AcDbBlockTableRecord
  2
*D57
340
0
 70
     0
280
     1
281
     0
  0
BLOCK_RECORD
  5
2B81
330
2A50
100
AcDbSymbolTableRecord
100
AcDbBlockTableRecord
  2
*U58
340
0
102
{BLKREFS
331
1DA3
102
}
 70
     0
280
     1
281
     0
  0
BLOCK_RECORD
  5
2B83
330
2A50
100
AcDbSymbolTableRecord
100
AcDbBlockTableRecord
  2
*D59
340
0
 70
     0
280
     1
281
     0
  0
BLOCK_RECORD
  5
2B85
330
2A50
100
AcDbSymbolTableRecord
100
AcDbBlockTableRecord
  2
*U60
340
0
102
{BLKREFS
331
1DAD
102
}
 70
     0
280
     1
281
     0
  0
BLOCK_RECORD
  5
2B87
330
2A50
100
AcDbSymbolTableRecord
100
AcDbBlockTableRecord
  2
*D61
340
0
 70
     0
280
     1
281
     0
  0
BLOCK_RECORD
  5
2B89
330
2A50
100
AcDbSymbolTableRecord
100
AcDbBlockTableRecord
  2
*U62
340
0
102
{BLKREFS
331
1DB7
102
}
 70
     0
280
     1
281
     0
  0
BLOCK_RECORD
  5
2B8B
330
2A50
100
AcDbSymbolTableRecord
100
AcDbBlockTableRecord
  2
*U63
340
0
 70
     0
280
     1
281
     0
  0
BLOCK_RECORD
  5
2B8D
330
2A50
100
AcDbSymbolTableRecord
100
AcDbBlockTableRecord
  2
*U64
340
0
 70
     0
280
     1
281
     0
  0
BLOCK_RECORD
  5
2B8F
330
2A50
100
AcDbSymbolTableRecord
100
AcDbBlockTableRecord
  2
*U65
340
0
 70
     0
280
     1
281
     0
  0
BLOCK_RECORD
  5
2B91
330
2A50
100
AcDbSymbolTableRecord
100
AcDbBlockTableRecord
  2
*U66
340
0
 70
     0
280
     1
281
     0
  0
BLOCK_RECORD
  5
2B93
330
2A50
100
AcDbSymbolTableRecord
100
AcDbBlockTableRecord
  2
*U67
340
0
 70
     0
280
     1
281
     0
  0
BLOCK_RECORD
  5
2B95
330
2A50
100
AcDbSymbolTableRecord
100
AcDbBlockTableRecord
  2
*U68
340
0
 70
     0
280
     1
281
     0
  0
BLOCK_RECORD
  5
2B97
330
2A50
100
AcDbSymbolTableRecord
100
AcDbBlockTableRecord
  2
*U69
340
0
 70
     0
280
     1
281
     0
  0
BLOCK_RECORD
  5
2B99
330
2A50
100
AcDbSymbolTableRecord
100
AcDbBlockTableRecord
  2
*X70
340
0
 70
     0
280
     1
281
     0
  0
BLOCK_RECORD
  5
2B9B
330
2A50
100
AcDbSymbolTableRecord
100
AcDbBlockTableRecord
  2
*X71
340
0
 70
     0
280
     1
281
     0
  0
BLOCK_RECORD
  5
2D68
330
2A50
100
AcDbSymbolTableRecord
100
AcDbBlockTableRecord
  2
*U72
340
0
 70
     0
280
     1
281
     0
  0
BLOCK_RECORD
  5
30BE
330
2A50
100
AcDbSymbolTableRecord
100
AcDbBlockTableRecord
  2
*U73
340
0
 70
     0
280
     1
281
     0
  0
ENDTAB
  0
ENDSEC
  0
SECTION
  2
BLOCKS
  0
BLOCK
  5
2AC4
330
2AC3
100
AcDbEntity
  8
0
100
AcDbBlockBegin
  2
*Model_Space
 70
     0
 10
0.0
 20
0.0
 30
0.0
  3
*Model_Space
  1

  0
ENDBLK
  5
2AC5
330
2AC3
100
AcDbEntity
  8
0
100
AcDbBlockEnd
  0
BLOCK
  5
2AC0
330
2ABF
100
AcDbEntity
 67
     1
  8
0
100
AcDbBlockBegin
  2
*Paper_Space
 70
     0
 10
0.0
 20
0.0
 30
0.0
  3
*Paper_Space
  1

  0
ENDBLK
  5
2AC1
330
2ABF
100
AcDbEntity
 67
     1
  8
0
100
AcDbBlockEnd
  0
BLOCK
  5
2B0E
330
2B0D
100
AcDbEntity
  8
0
100
AcDbBlockBegin
  2
$MODEL_SPACE
 70
     0
 10
0.0
 20
0.0
 30
0.0
  3
$MODEL_SPACE
  1

  0
ENDBLK
  5
26D3
330
2B0D
100
AcDbEntity
  8
0
100
AcDbBlockEnd
  0
BLOCK
  5
2B10
330
2B0F
100
AcDbEntity
  8
0
100
AcDbBlockBegin
  2
$PAPER_SPACE
 70
     0
 10
0.0
 20
0.0
 30
0.0
  3
$PAPER_SPACE
  1

  0
ENDBLK
  5
26CF
330
2B0F
100
AcDbEntity
  8
0
100
AcDbBlockEnd
  0
BLOCK
  5
2B12
330
2B11
100
AcDbEntity
  8
0
100
AcDbBlockBegin
  2
_ORIGIN
 70
     0
 10
0.0
 20
0.0
 30
0.0
  3
_ORIGIN
  1

  0
CIRCLE
  5
880
330
2B11
100
AcDbEntity
  8
0
  6
Continuous
 62
     7
100
AcDbCircle
 10
0.0
 20
0.0
 30
0.0
 40
0.5
  0
LINE
  5
881
330
2B11
100
AcDbEntity
  8
0
  6
Continuous
 62
     7
100
AcDbLine
 10
0.0
 20
0.0
 30
0.0
 11
-1.0
 21
0.0
 31
0.0
  0
ENDBLK
  5
882
330
2B11
100
AcDbEntity
  8
0
100
AcDbBlockEnd
  0
BLOCK
  5
2B14
330
2B13
100
AcDbEntity
  8
0
 62
     1
100
AcDbBlockBegin
  2
_DOTBLANK
 70
     0
 10
0.0
 20
0.0
 30
0.0
  3
_DOTBLANK
  1

  0
CIRCLE
  5
AB3
330
2B13
100
AcDbEntity
  8
0
  6
ByBlock
 62
     0
100
AcDbCircle
 10
0.0
 20
0.0
 30
0.0
 40
0.5
  0
LINE
  5
AB4
330
2B13
100
AcDbEntity
  8
0
  6
ByBlock
 62
     0
100
AcDbLine
 10
-0.5
 20
0.0
 30
0.0
 11
-1.0
 21
0.0
 31
0.0
  0
ENDBLK
  5
AB6
330
2B13
100
AcDbEntity
  8
0
 62
     1
100
AcDbBlockEnd
  0
BLOCK
  5
2B16
330
2B15
100
AcDbEntity
  8
0
 62
     1
100
AcDbBlockBegin
  2
_OPEN30
 70
     0
 10
0.0
 20
0.0
 30
0.0
  3
_OPEN30
  1

  0
LINE
  5
AB8
330
2B15
100
AcDbEntity
  8
0
  6
ByBlock
 62
     0
100
AcDbLine
 10
-1.0
 20
0.26794919
 30
0.0
 11
0.0
 21
0.0
 31
0.0
  0
LINE
  5
AB9
330
2B15
100
AcDbEntity
  8
0
  6
ByBlock
 62
     0
100
AcDbLine
 10
0.0
 20
0.0
 30
0.0
 11
-1.0
 21
-0.26794919
 31
0.0
  0
LINE
  5
ABA
330
2B15
100
AcDbEntity
  8
0
  6
ByBlock
 62
     0
100
AcDbLine
 10
0.0
 20
0.0
 30
0.0
 11
-1.0
 21
0.0
 31
0.0
  0
ENDBLK
  5
ABC
330
2B15
100
AcDbEntity
  8
0
 62
     1
100
AcDbBlockEnd
  0
BLOCK
  5
2B18
330
2B17
100
AcDbEntity
  8
0
100
AcDbBlockBegin
  2
*D5
 70
     1
 10
0.0
 20
0.0
 30
0.0
  3
*D5
  1

  0
LINE
  5
1296
330
2B17
100
AcDbEntity
  8
SIZE
 62
     0
100
AcDbLine
 10
-134.5
 20
-320.0
 30
0.0
 11
-134.5
 21
-468.0173952306001
 31
0.0
  0
LINE
  5
1297
330
2B17
100
AcDbEntity
  8
SIZE
 62
     0
100
AcDbLine
 10
134.5
 20
-320.0
 30
0.0
 11
134.5
 21
-468.0173952306001
 31
0.0
  0
LINE
  5
1298
330
2B17
100
AcDbEntity
  8
SIZE
 62
     0
100
AcDbLine
 10
-122.5
 20
-448.0173952306
 30
0.0
 11
122.5
 21
-448.0173952306
 31
0.0
  0
INSERT
  5
1299
330
2B17
100
AcDbEntity
  8
SIZE
 62
     0
100
AcDbBlockReference
  2
_DOTBLANK
 10
-134.5
 20
-448.0173952306
 30
0.0
 41
12.0
 42
12.0
 43
12.0
 50
180.0
  0
INSERT
  5
129A
330
2B17
100
AcDbEntity
  8
SIZE
 62
     0
100
AcDbBlockReference
  2
_DOTBLANK
 10
134.5
 20
-448.0173952306
 30
0.0
 41
12.0
 42
12.0
 43
12.0
  0
INSERT
  5
129B
330
2B17
100
AcDbEntity
  8
0
100
AcDbBlockReference
  2
*U6
 10
0.0
 20
0.0
 30
0.0
  0
POINT
  5
129C
330
2B17
100
AcDbEntity
  8
DEFPOINTS
 62
     0
100
AcDbPoint
 10
-134.5
 20
-300.0
 30
0.0
  0
POINT
  5
129D
330
2B17
100
AcDbEntity
  8
DEFPOINTS
 62
     0
100
AcDbPoint
 10
134.5
 20
-300.0
 30
0.0
  0
POINT
  5
129E
330
2B17
100
AcDbEntity
  8
DEFPOINTS
 62
     0
100
AcDbPoint
 10
134.5
 20
-448.0173952306
 30
0.0
  0
ENDBLK
  5
D72
330
2B17
100
AcDbEntity
  8
0
100
AcDbBlockEnd
  0
BLOCK
  5
2B1A
330
2B19
100
AcDbEntity
  8
0
100
AcDbBlockBegin
  2
*U6
 70
     1
 10
0.0
 20
0.0
 30
0.0
  3
*U6
  1

  0
TEXT
  5
1EF5
330
2B19
100
AcDbEntity
  8
SIZE
 62
     0
100
AcDbText
 10
-72.68571428571426
 20
-438.0173952305999
 30
0.0
 40
64.0
  1
269
 41
0.9
100
AcDbText
  0
ENDBLK
  5
1EF7
330
2B19
100
AcDbEntity
  8
0
100
AcDbBlockEnd
  0
BLOCK
  5
2B1C
330
2B1B
100
AcDbEntity
  8
0
100
AcDbBlockBegin
  2
*D7
 70
     1
 10
0.0
 20
0.0
 30
0.0
  3
*D7
  1

  0
LINE
  5
11A7
330
2B1B
100
AcDbEntity
  8
SIZE
  6
Continuous
 62
     0
100
AcDbLine
 10
143.5
 20
-300.0
 30
0.0
 11
304.6432844803791
 21
-300.0
 31
0.0
  0
LINE
  5
11A8
330
2B1B
100
AcDbEntity
  8
SIZE
  6
Continuous
 62
     0
100
AcDbLine
 10
177.5
 20
-0.0000000000000057
 30
0.0
 11
304.6432844803792
 21
-0.0000000000000417
 31
0.0
  0
LINE
  5
11A9
330
2B1B
100
AcDbEntity
  8
SIZE
  6
Continuous
 62
     0
100
AcDbLine
 10
284.6432844803791
 20
-288.0000000000001
 30
0.0
 11
284.6432844803792
 21
-12.00000000000003
 31
0.0
  0
INSERT
  5
11AA
330
2B1B
100
AcDbEntity
  8
SIZE
  6
Continuous
 62
     0
100
AcDbBlockReference
  2
_DOTBLANK
 10
284.6432844803791
 20
-300.0
 30
0.0
 41
12.0
 42
12.0
 43
12.0
 50
270.0
  0
INSERT
  5
11AB
330
2B1B
100
AcDbEntity
  8
SIZE
  6
Continuous
 62
     0
100
AcDbBlockReference
  2
_DOTBLANK
 10
284.6432844803792
 20
-0.000000000000036
 30
0.0
 41
12.0
 42
12.0
 43
12.0
 50
90.0
  0
INSERT
  5
11AC
330
2B1B
100
AcDbEntity
  8
0
100
AcDbBlockReference
  2
*U8
 10
0.0
 20
0.0
 30
0.0
  0
POINT
  5
11AD
330
2B1B
100
AcDbEntity
  8
DEFPOINTS
  6
Continuous
 62
     0
100
AcDbPoint
 10
123.5
 20
-300.0
 30
0.0
  0
POINT
  5
11AE
330
2B1B
100
AcDbEntity
  8
DEFPOINTS
  6
Continuous
 62
     0
100
AcDbPoint
 10
157.5
 20
0.0
 30
0.0
  0
POINT
  5
11AF
330
2B1B
100
AcDbEntity
  8
DEFPOINTS
  6
Continuous
 62
     0
100
AcDbPoint
 10
284.6432844803792
 20
-0.000000000000036
 30
0.0
  0
ENDBLK
  5
E11
330
2B1B
100
AcDbEntity
  8
0
100
AcDbBlockEnd
  0
BLOCK
  5
2B1E
330
2B1D
100
AcDbEntity
  8
0
100
AcDbBlockBegin
  2
*U8
 70
     1
 10
0.0
 20
0.0
 30
0.0
  3
*U8
  1

  0
TEXT
  5
1EE1
330
2B1D
100
AcDbEntity
  8
SIZE
 62
     0
100
AcDbText
 10
274.6432844803792
 20
-224.0571428571429
 30
0.0
 40
64.0
  1
300
 50
90.0
 41
0.9
100
AcDbText
  0
ENDBLK
  5
1EE3
330
2B1D
100
AcDbEntity
  8
0
100
AcDbBlockEnd
  0
BLOCK
  5
2B20
330
2B1F
100
AcDbEntity
  8
0
100
AcDbBlockBegin
  2
*D9
 70
     1
 10
0.0
 20
0.0
 30
0.0
  3
*D9
  1

  0
LINE
  5
E7D
330
2B1F
100
AcDbEntity
  8
SIZE
 62
     0
100
AcDbLine
 10
-139.9999999999998
 20
32.46448280219375
 30
0.0
 11
-139.9999999999998
 21
136.4516878685508
 31
0.0
  0
LINE
  5
E7E
330
2B1F
100
AcDbEntity
  8
SIZE
 62
     0
100
AcDbLine
 10
140.0
 20
32.46448280219375
 30
0.0
 11
140.0
 21
136.4516878685508
 31
0.0
  0
LINE
  5
E7F
330
2B1F
100
AcDbEntity
  8
SIZE
 62
     0
100
AcDbLine
 10
-128.0
 20
116.4516878685508
 30
0.0
 11
128.0
 21
116.4516878685508
 31
0.0
  0
INSERT
  5
E80
330
2B1F
100
AcDbEntity
  8
SIZE
 62
     0
100
AcDbBlockReference
  2
_DOTBLANK
 10
-139.9999999999998
 20
116.4516878685508
 30
0.0
 41
12.0
 42
12.0
 43
12.0
 50
180.0
  0
INSERT
  5
E81
330
2B1F
100
AcDbEntity
  8
SIZE
 62
     0
100
AcDbBlockReference
  2
_DOTBLANK
 10
140.0
 20
116.4516878685508
 30
0.0
 41
12.0
 42
12.0
 43
12.0
  0
INSERT
  5
E82
330
2B1F
100
AcDbEntity
  8
0
100
AcDbBlockReference
  2
*U10
 10
0.0
 20
0.0
 30
0.0
  0
POINT
  5
E83
330
2B1F
100
AcDbEntity
  8
DEFPOINTS
 62
     0
100
AcDbPoint
 10
-139.9999999999998
 20
12.46448280219374
 30
0.0
  0
POINT
  5
E84
330
2B1F
100
AcDbEntity
  8
DEFPOINTS
 62
     0
100
AcDbPoint
 10
140.0
 20
12.46448280219374
 30
0.0
  0
POINT
  5
E85
330
2B1F
100
AcDbEntity
  8
DEFPOINTS
 62
     0
100
AcDbPoint
 10
140.0
 20
116.4516878685508
 30
0.0
  0
ENDBLK
  5
E7C
330
2B1F
100
AcDbEntity
  8
0
100
AcDbBlockEnd
  0
BLOCK
  5
2B22
330
2B21
100
AcDbEntity
  8
0
100
AcDbBlockBegin
  2
*U10
 70
     1
 10
0.0
 20
0.0
 30
0.0
  3
*U10
  1

  0
TEXT
  5
1ED8
330
2B21
100
AcDbEntity
  8
SIZE
 62
     0
100
AcDbText
 10
-74.05714285714281
 20
126.4516878685508
 30
0.0
 40
64.0
  1
280
 41
0.9
100
AcDbText
  0
ENDBLK
  5
1EDA
330
2B21
100
AcDbEntity
  8
0
100
AcDbBlockEnd
  0
BLOCK
  5
2B24
330
2B23
100
AcDbEntity
  8
0
100
AcDbBlockBegin
  2
GENAXEH
 70
     0
 10
0.0
 20
0.0
 30
0.0
  3
GENAXEH
  1

  0
LINE
  5
FDB
330
2B23
100
AcDbEntity
  8
0
100
AcDbLine
 10
-1.0
 20
0.0
 30
0.0
 11
1.0
 21
0.0
 31
0.0
  0
ENDBLK
  5
FDD
330
2B23
100
AcDbEntity
  8
0
100
AcDbBlockEnd
  0
BLOCK
  5
2B26
330
2B25
100
AcDbEntity
  8
0
100
AcDbBlockBegin
  2
*D12
 70
     1
 10
0.0
 20
0.0
 30
0.0
  3
*D12
  1

  0
LINE
  5
1120
330
2B25
100
AcDbEntity
  8
SIZE
 62
     0
100
AcDbLine
 10
-157.5
 20
20.0
 30
0.0
 11
-157.5
 21
245.5794621189598
 31
0.0
  0
LINE
  5
1121
330
2B25
100
AcDbEntity
  8
SIZE
 62
     0
100
AcDbLine
 10
157.5
 20
20.0
 30
0.0
 11
157.5
 21
245.5794621189598
 31
0.0
  0
LINE
  5
1122
330
2B25
100
AcDbEntity
  8
SIZE
 62
     0
100
AcDbLine
 10
-145.5
 20
225.5794621189598
 30
0.0
 11
145.5
 21
225.5794621189598
 31
0.0
  0
INSERT
  5
1123
330
2B25
100
AcDbEntity
  8
SIZE
 62
     0
100
AcDbBlockReference
  2
_DOTBLANK
 10
-157.5
 20
225.5794621189598
 30
0.0
 41
12.0
 42
12.0
 43
12.0
 50
180.0
  0
INSERT
  5
1124
330
2B25
100
AcDbEntity
  8
SIZE
 62
     0
100
AcDbBlockReference
  2
_DOTBLANK
 10
157.5
 20
225.5794621189598
 30
0.0
 41
12.0
 42
12.0
 43
12.0
  0
INSERT
  5
1125
330
2B25
100
AcDbEntity
  8
0
100
AcDbBlockReference
  2
*U13
 10
0.0
 20
0.0
 30
0.0
  0
POINT
  5
1126
330
2B25
100
AcDbEntity
  8
DEFPOINTS
 62
     0
100
AcDbPoint
 10
-157.5
 20
0.0
 30
0.0
  0
POINT
  5
1127
330
2B25
100
AcDbEntity
  8
DEFPOINTS
 62
     0
100
AcDbPoint
 10
157.5
 20
0.0
 30
0.0
  0
POINT
  5
1128
330
2B25
100
AcDbEntity
  8
DEFPOINTS
 62
     0
100
AcDbPoint
 10
157.5
 20
225.5794621189598
 30
0.0
  0
ENDBLK
  5
111F
330
2B25
100
AcDbEntity
  8
0
100
AcDbBlockEnd
  0
BLOCK
  5
2B28
330
2B27
100
AcDbEntity
  8
0
100
AcDbBlockBegin
  2
*U13
 70
     1
 10
0.0
 20
0.0
 30
0.0
  3
*U13
  1

  0
TEXT
  5
1EDD
330
2B27
100
AcDbEntity
  8
SIZE
 62
     0
100
AcDbText
 10
-68.57142857142857
 20
235.5794621189599
 30
0.0
 40
64.0
  1
315
 41
0.9
100
AcDbText
  0
ENDBLK
  5
1EDF
330
2B27
100
AcDbEntity
  8
0
100
AcDbBlockEnd
  0
BLOCK
  5
2B2A
330
2B29
100
AcDbEntity
  8
0
100
AcDbBlockBegin
  2
*D14
 70
     1
 10
0.0
 20
0.0
 30
0.0
  3
*D14
  1

  0
LINE
  5
11BD
330
2B29
100
AcDbEntity
  8
NOTE
 62
     0
100
AcDbLine
 10
-123.4999999999999
 20
-320.0
 30
0.0
 11
-123.4999999999999
 21
-354.9529861856111
 31
0.0
  0
LINE
  5
11BE
330
2B29
100
AcDbEntity
  8
NOTE
 62
     0
100
AcDbLine
 10
-133.4999999999998
 20
-331.2126909923287
 30
0.0
 11
-133.4999999999998
 21
-354.9529861856111
 31
0.0
  0
LINE
  5
11BF
330
2B29
100
AcDbEntity
  8
NOTE
 62
     0
100
AcDbLine
 10
-111.4999999999999
 20
-334.9529861856112
 30
0.0
 11
-99.4999999999999
 21
-334.9529861856112
 31
0.0
  0
LINE
  5
11C0
330
2B29
100
AcDbEntity
  8
NOTE
 62
     0
100
AcDbLine
 10
-145.4999999999998
 20
-334.9529861856112
 30
0.0
 11
-157.4999999999998
 21
-334.9529861856112
 31
0.0
  0
LINE
  5
11C1
330
2B29
100
AcDbEntity
  8
NOTE
 62
     0
100
AcDbLine
 10
-123.4999999999999
 20
-334.9529861856112
 30
0.0
 11
-133.4999999999998
 21
-334.9529861856112
 31
0.0
  0
INSERT
  5
11C2
330
2B29
100
AcDbEntity
  8
NOTE
 62
     0
100
AcDbBlockReference
  2
_DOTBLANK
 10
-123.4999999999999
 20
-334.9529861856112
 30
0.0
 41
12.0
 42
12.0
 43
12.0
 50
180.0
  0
INSERT
  5
11C3
330
2B29
100
AcDbEntity
  8
NOTE
 62
     0
100
AcDbBlockReference
  2
_DOTBLANK
 10
-133.4999999999998
 20
-334.9529861856112
 30
0.0
 41
12.0
 42
12.0
 43
12.0
  0
INSERT
  5
11C4
330
2B29
100
AcDbEntity
  8
0
100
AcDbBlockReference
  2
*U15
 10
0.0
 20
0.0
 30
0.0
  0
POINT
  5
11C5
330
2B29
100
AcDbEntity
  8
DEFPOINTS
 62
     0
100
AcDbPoint
 10
-123.4999999999999
 20
-300.0
 30
0.0
  0
POINT
  5
11C6
330
2B29
100
AcDbEntity
  8
DEFPOINTS
 62
     0
100
AcDbPoint
 10
-133.4999999999998
 20
-311.2126909923287
 30
0.0
  0
POINT
  5
11C7
330
2B29
100
AcDbEntity
  8
DEFPOINTS
 62
     0
100
AcDbPoint
 10
-133.4999999999998
 20
-334.9529861856112
 30
0.0
  0
ENDBLK
  5
11BC
330
2B29
100
AcDbEntity
  8
0
100
AcDbBlockEnd
  0
BLOCK
  5
2B2C
330
2B2B
100
AcDbEntity
  8
0
100
AcDbBlockBegin
  2
*U15
 70
     1
 10
0.0
 20
0.0
 30
0.0
  3
*U15
  1

  0
TEXT
  5
1EE5
330
2B2B
100
AcDbEntity
  8
NOTE
 62
     0
100
AcDbText
 10
-169.642857142857
 20
-324.9529861856112
 30
0.0
 40
64.0
  1
10
 41
0.9
100
AcDbText
  0
ENDBLK
  5
1EE7
330
2B2B
100
AcDbEntity
  8
0
100
AcDbBlockEnd
  0
BLOCK
  5
2B2E
330
2B2D
100
AcDbEntity
  8
0
100
AcDbBlockBegin
  2
*D16
 70
     1
 10
0.0
 20
0.0
 30
0.0
  3
*D16
  1

  0
LINE
  5
11E7
330
2B2D
100
AcDbEntity
  8
NOTE
 62
     0
100
AcDbLine
 10
-135.5
 20
-333.2126909923287
 30
0.0
 11
-135.5
 21
-386.2569421441843
 31
0.0
  0
LINE
  5
11E8
330
2B2D
100
AcDbEntity
  8
NOTE
 62
     0
100
AcDbLine
 10
-123.4999999999999
 20
-320.0
 30
0.0
 11
-123.4999999999999
 21
-386.2569421441843
 31
0.0
  0
LINE
  5
11E9
330
2B2D
100
AcDbEntity
  8
NOTE
 62
     0
100
AcDbLine
 10
-147.5
 20
-366.2569421441844
 30
0.0
 11
-159.5
 21
-366.2569421441844
 31
0.0
  0
LINE
  5
11EA
330
2B2D
100
AcDbEntity
  8
NOTE
 62
     0
100
AcDbLine
 10
-111.4999999999999
 20
-366.2569421441844
 30
0.0
 11
-99.4999999999999
 21
-366.2569421441844
 31
0.0
  0
LINE
  5
11EB
330
2B2D
100
AcDbEntity
  8
NOTE
 62
     0
100
AcDbLine
 10
-135.5
 20
-366.2569421441844
 30
0.0
 11
-123.4999999999999
 21
-366.2569421441844
 31
0.0
  0
INSERT
  5
11EC
330
2B2D
100
AcDbEntity
  8
NOTE
 62
     0
100
AcDbBlockReference
  2
_DOTBLANK
 10
-135.5
 20
-366.2569421441844
 30
0.0
 41
12.0
 42
12.0
 43
12.0
  0
INSERT
  5
11ED
330
2B2D
100
AcDbEntity
  8
NOTE
 62
     0
100
AcDbBlockReference
  2
_DOTBLANK
 10
-123.4999999999999
 20
-366.2569421441844
 30
0.0
 41
12.0
 42
12.0
 43
12.0
 50
180.0
  0
INSERT
  5
11EE
330
2B2D
100
AcDbEntity
  8
0
100
AcDbBlockReference
  2
*U17
 10
0.0
 20
0.0
 30
0.0
  0
POINT
  5
11EF
330
2B2D
100
AcDbEntity
  8
DEFPOINTS
 62
     0
100
AcDbPoint
 10
-135.5
 20
-313.2126909923287
 30
0.0
  0
POINT
  5
11F0
330
2B2D
100
AcDbEntity
  8
DEFPOINTS
 62
     0
100
AcDbPoint
 10
-123.4999999999999
 20
-300.0
 30
0.0
  0
POINT
  5
11F1
330
2B2D
100
AcDbEntity
  8
DEFPOINTS
 62
     0
100
AcDbPoint
 10
-123.4999999999999
 20
-366.2569421441844
 30
0.0
  0
ENDBLK
  5
11E6
330
2B2D
100
AcDbEntity
  8
0
100
AcDbBlockEnd
  0
BLOCK
  5
2B30
330
2B2F
100
AcDbEntity
  8
0
100
AcDbBlockBegin
  2
*U17
 70
     1
 10
0.0
 20
0.0
 30
0.0
  3
*U17
  1

  0
TEXT
  5
1EE9
330
2B2F
100
AcDbEntity
  8
NOTE
 62
     0
100
AcDbText
 10
-170.642857142857
 20
-356.2569421441843
 30
0.0
 40
64.0
  1
12
 41
0.9
100
AcDbText
  0
ENDBLK
  5
1EEB
330
2B2F
100
AcDbEntity
  8
0
100
AcDbBlockEnd
  0
BLOCK
  5
2B32
330
2B31
100
AcDbEntity
  8
0
100
AcDbBlockBegin
  2
*D18
 70
     1
 10
0.0
 20
0.0
 30
0.0
  3
*D18
  1

  0
LINE
  5
11F6
330
2B31
100
AcDbEntity
  8
NOTE
 62
     0
100
AcDbLine
 10
-123.4999999999999
 20
-320.0
 30
0.0
 11
-123.4999999999999
 21
-583.8286022818904
 31
0.0
  0
LINE
  5
11F7
330
2B31
100
AcDbEntity
  8
NOTE
 62
     0
100
AcDbLine
 10
123.5
 20
-320.0
 30
0.0
 11
123.5
 21
-583.8286022818904
 31
0.0
  0
LINE
  5
11F8
330
2B31
100
AcDbEntity
  8
NOTE
 62
     0
100
AcDbLine
 10
-111.4999999999999
 20
-563.8286022818904
 30
0.0
 11
111.5
 21
-563.8286022818904
 31
0.0
  0
INSERT
  5
11F9
330
2B31
100
AcDbEntity
  8
NOTE
 62
     0
100
AcDbBlockReference
  2
_DOTBLANK
 10
-123.4999999999999
 20
-563.8286022818904
 30
0.0
 41
12.0
 42
12.0
 43
12.0
 50
180.0
  0
INSERT
  5
11FA
330
2B31
100
AcDbEntity
  8
NOTE
 62
     0
100
AcDbBlockReference
  2
_DOTBLANK
 10
123.5
 20
-563.8286022818904
 30
0.0
 41
12.0
 42
12.0
 43
12.0
  0
INSERT
  5
11FB
330
2B31
100
AcDbEntity
  8
0
100
AcDbBlockReference
  2
*U19
 10
0.0
 20
0.0
 30
0.0
  0
POINT
  5
11FC
330
2B31
100
AcDbEntity
  8
DEFPOINTS
 62
     0
100
AcDbPoint
 10
-123.4999999999999
 20
-300.0
 30
0.0
  0
POINT
  5
11FD
330
2B31
100
AcDbEntity
  8
DEFPOINTS
 62
     0
100
AcDbPoint
 10
123.5
 20
-300.0
 30
0.0
  0
POINT
  5
11FE
330
2B31
100
AcDbEntity
  8
DEFPOINTS
 62
     0
100
AcDbPoint
 10
123.5
 20
-563.8286022818904
 30
0.0
  0
ENDBLK
  5
11F5
330
2B31
100
AcDbEntity
  8
0
100
AcDbBlockEnd
  0
BLOCK
  5
2B34
330
2B33
100
AcDbEntity
  8
0
100
AcDbBlockBegin
  2
*U19
 70
     1
 10
0.0
 20
0.0
 30
0.0
  3
*U19
  1

  0
TEXT
  5
1EED
330
2B33
100
AcDbEntity
  8
NOTE
 62
     0
100
AcDbText
 10
-74.05714285714281
 20
-553.8286022818904
 30
0.0
 40
64.0
  1
247
 41
0.9
100
AcDbText
  0
ENDBLK
  5
1EEF
330
2B33
100
AcDbEntity
  8
0
100
AcDbBlockEnd
  0
BLOCK
  5
2B36
330
2B35
100
AcDbEntity
  8
0
100
AcDbBlockBegin
  2
*D20
 70
     1
 10
0.0
 20
0.0
 30
0.0
  3
*D20
  1

  0
LINE
  5
1284
330
2B35
100
AcDbEntity
  8
NOTE
 62
     0
100
AcDbLine
 10
-123.5
 20
12.0
 30
0.0
 11
-123.5
 21
71.83630134534229
 31
0.0
  0
LINE
  5
1285
330
2B35
100
AcDbEntity
  8
NOTE
 62
     0
100
AcDbLine
 10
123.5
 20
12.0
 30
0.0
 11
123.5
 21
71.83630134534229
 31
0.0
  0
LINE
  5
1286
330
2B35
100
AcDbEntity
  8
NOTE
 62
     0
100
AcDbLine
 10
-111.5
 20
51.83630134534229
 30
0.0
 11
111.5
 21
51.83630134534229
 31
0.0
  0
INSERT
  5
1287
330
2B35
100
AcDbEntity
  8
NOTE
 62
     0
100
AcDbBlockReference
  2
_DOTBLANK
 10
-123.5
 20
51.83630134534229
 30
0.0
 41
12.0
 42
12.0
 43
12.0
 50
180.0
  0
INSERT
  5
1288
330
2B35
100
AcDbEntity
  8
NOTE
 62
     0
100
AcDbBlockReference
  2
_DOTBLANK
 10
123.5
 20
51.83630134534229
 30
0.0
 41
12.0
 42
12.0
 43
12.0
  0
INSERT
  5
1289
330
2B35
100
AcDbEntity
  8
0
100
AcDbBlockReference
  2
*U21
 10
0.0
 20
0.0
 30
0.0
  0
POINT
  5
128A
330
2B35
100
AcDbEntity
  8
DEFPOINTS
 62
     0
100
AcDbPoint
 10
-123.5
 20
-8.0
 30
0.0
  0
POINT
  5
128B
330
2B35
100
AcDbEntity
  8
DEFPOINTS
 62
     0
100
AcDbPoint
 10
123.5
 20
-8.0
 30
0.0
  0
POINT
  5
128C
330
2B35
100
AcDbEntity
  8
DEFPOINTS
 62
     0
100
AcDbPoint
 10
123.5
 20
51.83630134534229
 30
0.0
  0
ENDBLK
  5
1283
330
2B35
100
AcDbEntity
  8
0
100
AcDbBlockEnd
  0
BLOCK
  5
2B38
330
2B37
100
AcDbEntity
  8
0
100
AcDbBlockBegin
  2
*U21
 70
     1
 10
0.0
 20
0.0
 30
0.0
  3
*U21
  1

  0
TEXT
  5
1EF1
330
2B37
100
AcDbEntity
  8
NOTE
 62
     0
100
AcDbText
 10
-74.05714285714283
 20
61.83630134534229
 30
0.0
 40
64.0
  1
247
 41
0.9
100
AcDbText
  0
ENDBLK
  5
1EF3
330
2B37
100
AcDbEntity
  8
0
100
AcDbBlockEnd
  0
BLOCK
  5
2B3A
330
2B39
100
AcDbEntity
  8
0
100
AcDbBlockBegin
  2
*D22
 70
     1
 10
0.0
 20
0.0
 30
0.0
  3
*D22
  1

  0
LINE
  5
1414
330
2B39
100
AcDbEntity
  8
SIZE
 62
     0
100
AcDbLine
 10
-22313.11521613997
 20
7365.702971374808
 30
0.0
 11
-22313.11521613997
 21
7217.685576144207
 31
0.0
  0
LINE
  5
1415
330
2B39
100
AcDbEntity
  8
SIZE
 62
     0
100
AcDbLine
 10
-22044.11521613997
 20
7365.702971374808
 30
0.0
 11
-22044.11521613997
 21
7217.685576144207
 31
0.0
  0
LINE
  5
1416
330
2B39
100
AcDbEntity
  8
SIZE
 62
     0
100
AcDbLine
 10
-22301.11521613997
 20
7237.685576144207
 30
0.0
 11
-22056.11521613997
 21
7237.685576144207
 31
0.0
  0
INSERT
  5
1417
330
2B39
100
AcDbEntity
  8
SIZE
 62
     0
100
AcDbBlockReference
  2
_DOTBLANK
 10
-22313.11521613997
 20
7237.685576144207
 30
0.0
 41
12.0
 42
12.0
 43
12.0
 50
180.0
  0
INSERT
  5
1418
330
2B39
100
AcDbEntity
  8
SIZE
 62
     0
100
AcDbBlockReference
  2
_DOTBLANK
 10
-22044.11521613997
 20
7237.685576144207
 30
0.0
 41
12.0
 42
12.0
 43
12.0
  0
INSERT
  5
1419
330
2B39
100
AcDbEntity
  8
0
100
AcDbBlockReference
  2
*U23
 10
0.0
 20
0.0
 30
0.0
  0
POINT
  5
141A
330
2B39
100
AcDbEntity
  8
DEFPOINTS
 62
     0
100
AcDbPoint
 10
-22313.11521613997
 20
7385.702971374808
 30
0.0
  0
POINT
  5
141B
330
2B39
100
AcDbEntity
  8
DEFPOINTS
 62
     0
100
AcDbPoint
 10
-22044.11521613997
 20
7385.702971374808
 30
0.0
  0
POINT
  5
141C
330
2B39
100
AcDbEntity
  8
DEFPOINTS
 62
     0
100
AcDbPoint
 10
-22044.11521613997
 20
7237.685576144207
 30
0.0
  0
ENDBLK
  5
141D
330
2B39
100
AcDbEntity
  8
0
100
AcDbBlockEnd
  0
BLOCK
  5
2B3C
330
2B3B
100
AcDbEntity
  8
0
100
AcDbBlockBegin
  2
*U23
 70
     1
 10
0.0
 20
0.0
 30
0.0
  3
*U23
  1

  0
TEXT
  5
1EF9
330
2B3B
100
AcDbEntity
  8
SIZE
 62
     0
100
AcDbText
 10
-22251.30093042568
 20
7247.685576144205
 30
0.0
 40
64.0
  1
269
 41
0.9
100
AcDbText
  0
ENDBLK
  5
1EFB
330
2B3B
100
AcDbEntity
  8
0
100
AcDbBlockEnd
  0
BLOCK
  5
2B3E
330
2B3D
100
AcDbEntity
  8
0
100
AcDbBlockBegin
  2
*D24
 70
     1
 10
0.0
 20
0.0
 30
0.0
  3
*D24
  1

  0
LINE
  5
1420
330
2B3D
100
AcDbEntity
  8
SIZE
  6
Continuous
 62
     0
100
AcDbLine
 10
-22035.11521613997
 20
7385.702971374808
 30
0.0
 11
-21873.97193165959
 21
7385.702971374808
 31
0.0
  0
LINE
  5
1421
330
2B3D
100
AcDbEntity
  8
SIZE
  6
Continuous
 62
     0
100
AcDbLine
 10
-22001.11521613997
 20
7685.702971374808
 30
0.0
 11
-21873.97193165959
 21
7685.702971374808
 31
0.0
  0
LINE
  5
1422
330
2B3D
100
AcDbEntity
  8
SIZE
  6
Continuous
 62
     0
100
AcDbLine
 10
-21893.97193165959
 20
7397.702971374808
 30
0.0
 11
-21893.97193165959
 21
7673.702971374808
 31
0.0
  0
INSERT
  5
1423
330
2B3D
100
AcDbEntity
  8
SIZE
  6
Continuous
 62
     0
100
AcDbBlockReference
  2
_DOTBLANK
 10
-21893.97193165959
 20
7385.702971374808
 30
0.0
 41
12.0
 42
12.0
 43
12.0
 50
270.0
  0
INSERT
  5
1424
330
2B3D
100
AcDbEntity
  8
SIZE
  6
Continuous
 62
     0
100
AcDbBlockReference
  2
_DOTBLANK
 10
-21893.97193165959
 20
7685.702971374808
 30
0.0
 41
12.0
 42
12.0
 43
12.0
 50
90.0
  0
INSERT
  5
1425
330
2B3D
100
AcDbEntity
  8
0
100
AcDbBlockReference
  2
*U25
 10
0.0
 20
0.0
 30
0.0
  0
POINT
  5
1426
330
2B3D
100
AcDbEntity
  8
DEFPOINTS
  6
Continuous
 62
     0
100
AcDbPoint
 10
-22055.11521613997
 20
7385.702971374808
 30
0.0
  0
POINT
  5
1427
330
2B3D
100
AcDbEntity
  8
DEFPOINTS
  6
Continuous
 62
     0
100
AcDbPoint
 10
-22021.11521613997
 20
7685.702971374808
 30
0.0
  0
POINT
  5
1428
330
2B3D
100
AcDbEntity
  8
DEFPOINTS
  6
Continuous
 62
     0
100
AcDbPoint
 10
-21893.97193165959
 20
7685.702971374808
 30
0.0
  0
ENDBLK
  5
1429
330
2B3D
100
AcDbEntity
  8
0
100
AcDbBlockEnd
  0
BLOCK
  5
2B40
330
2B3F
100
AcDbEntity
  8
0
100
AcDbBlockBegin
  2
*U25
 70
     1
 10
0.0
 20
0.0
 30
0.0
  3
*U25
  1

  0
TEXT
  5
1EFD
330
2B3F
100
AcDbEntity
  8
SIZE
 62
     0
100
AcDbText
 10
-21903.97193165959
 20
7461.645828517662
 30
0.0
 40
64.0
  1
300
 50
90.0
 41
0.9
100
AcDbText
  0
ENDBLK
  5
1EFF
330
2B3F
100
AcDbEntity
  8
0
100
AcDbBlockEnd
  0
BLOCK
  5
2B42
330
2B41
100
AcDbEntity
  8
0
100
AcDbBlockBegin
  2
*D26
 70
     1
 10
0.0
 20
0.0
 30
0.0
  3
*D26
  1

  0
LINE
  5
142C
330
2B41
100
AcDbEntity
  8
SIZE
 62
     0
100
AcDbLine
 10
-22318.61521613997
 20
7718.167454177002
 30
0.0
 11
-22318.61521613997
 21
7822.154659243358
 31
0.0
  0
LINE
  5
142D
330
2B41
100
AcDbEntity
  8
SIZE
 62
     0
100
AcDbLine
 10
-22038.61521613997
 20
7718.167454177002
 30
0.0
 11
-22038.61521613997
 21
7822.154659243358
 31
0.0
  0
LINE
  5
142E
330
2B41
100
AcDbEntity
  8
SIZE
 62
     0
100
AcDbLine
 10
-22306.61521613997
 20
7802.154659243358
 30
0.0
 11
-22050.61521613997
 21
7802.154659243358
 31
0.0
  0
INSERT
  5
142F
330
2B41
100
AcDbEntity
  8
SIZE
 62
     0
100
AcDbBlockReference
  2
_DOTBLANK
 10
-22318.61521613997
 20
7802.154659243358
 30
0.0
 41
12.0
 42
12.0
 43
12.0
 50
180.0
  0
INSERT
  5
1430
330
2B41
100
AcDbEntity
  8
SIZE
 62
     0
100
AcDbBlockReference
  2
_DOTBLANK
 10
-22038.61521613997
 20
7802.154659243358
 30
0.0
 41
12.0
 42
12.0
 43
12.0
  0
INSERT
  5
1431
330
2B41
100
AcDbEntity
  8
0
100
AcDbBlockReference
  2
*U27
 10
0.0
 20
0.0
 30
0.0
  0
POINT
  5
1432
330
2B41
100
AcDbEntity
  8
DEFPOINTS
 62
     0
100
AcDbPoint
 10
-22318.61521613997
 20
7698.167454177002
 30
0.0
  0
POINT
  5
1433
330
2B41
100
AcDbEntity
  8
DEFPOINTS
 62
     0
100
AcDbPoint
 10
-22038.61521613997
 20
7698.167454177002
 30
0.0
  0
POINT
  5
1434
330
2B41
100
AcDbEntity
  8
DEFPOINTS
 62
     0
100
AcDbPoint
 10
-22038.61521613997
 20
7802.154659243358
 30
0.0
  0
ENDBLK
  5
1435
330
2B41
100
AcDbEntity
  8
0
100
AcDbBlockEnd
  0
BLOCK
  5
2B44
330
2B43
100
AcDbEntity
  8
0
100
AcDbBlockBegin
  2
*U27
 70
     1
 10
0.0
 20
0.0
 30
0.0
  3
*U27
  1

  0
TEXT
  5
1F01
330
2B43
100
AcDbEntity
  8
SIZE
 62
     0
100
AcDbText
 10
-22252.6723589971
 20
7812.154659243358
 30
0.0
 40
64.0
  1
280
 41
0.9
100
AcDbText
  0
ENDBLK
  5
1F03
330
2B43
100
AcDbEntity
  8
0
100
AcDbBlockEnd
  0
BLOCK
  5
2B46
330
2B45
100
AcDbEntity
  8
0
100
AcDbBlockBegin
  2
*D28
 70
     1
 10
0.0
 20
0.0
 30
0.0
  3
*D28
  1

  0
LINE
  5
1438
330
2B45
100
AcDbEntity
  8
SIZE
 62
     0
100
AcDbLine
 10
-22336.11521613997
 20
7705.702971374808
 30
0.0
 11
-22336.11521613997
 21
7931.282433493766
 31
0.0
  0
LINE
  5
1439
330
2B45
100
AcDbEntity
  8
SIZE
 62
     0
100
AcDbLine
 10
-22021.11521613997
 20
7705.702971374808
 30
0.0
 11
-22021.11521613997
 21
7931.282433493766
 31
0.0
  0
LINE
  5
143A
330
2B45
100
AcDbEntity
  8
SIZE
 62
     0
100
AcDbLine
 10
-22324.11521613997
 20
7911.282433493766
 30
0.0
 11
-22033.11521613997
 21
7911.282433493766
 31
0.0
  0
INSERT
  5
143B
330
2B45
100
AcDbEntity
  8
SIZE
 62
     0
100
AcDbBlockReference
  2
_DOTBLANK
 10
-22336.11521613997
 20
7911.282433493766
 30
0.0
 41
12.0
 42
12.0
 43
12.0
 50
180.0
  0
INSERT
  5
143C
330
2B45
100
AcDbEntity
  8
SIZE
 62
     0
100
AcDbBlockReference
  2
_DOTBLANK
 10
-22021.11521613997
 20
7911.282433493766
 30
0.0
 41
12.0
 42
12.0
 43
12.0
  0
INSERT
  5
143D
330
2B45
100
AcDbEntity
  8
0
100
AcDbBlockReference
  2
*U29
 10
0.0
 20
0.0
 30
0.0
  0
POINT
  5
143E
330
2B45
100
AcDbEntity
  8
DEFPOINTS
 62
     0
100
AcDbPoint
 10
-22336.11521613997
 20
7685.702971374808
 30
0.0
  0
POINT
  5
143F
330
2B45
100
AcDbEntity
  8
DEFPOINTS
 62
     0
100
AcDbPoint
 10
-22021.11521613997
 20
7685.702971374808
 30
0.0
  0
POINT
  5
1440
330
2B45
100
AcDbEntity
  8
DEFPOINTS
 62
     0
100
AcDbPoint
 10
-22021.11521613997
 20
7911.282433493766
 30
0.0
  0
ENDBLK
  5
1441
330
2B45
100
AcDbEntity
  8
0
100
AcDbBlockEnd
  0
BLOCK
  5
2B48
330
2B47
100
AcDbEntity
  8
0
100
AcDbBlockBegin
  2
*U29
 70
     1
 10
0.0
 20
0.0
 30
0.0
  3
*U29
  1

  0
TEXT
  5
1F05
330
2B47
100
AcDbEntity
  8
SIZE
 62
     0
100
AcDbText
 10
-22247.18664471139
 20
7921.282433493766
 30
0.0
 40
64.0
  1
315
 41
0.9
100
AcDbText
  0
ENDBLK
  5
1F07
330
2B47
100
AcDbEntity
  8
0
100
AcDbBlockEnd
  0
BLOCK
  5
2B4A
330
2B49
100
AcDbEntity
  8
0
100
AcDbBlockBegin
  2
*D30
 70
     1
 10
0.0
 20
0.0
 30
0.0
  3
*D30
  1

  0
LINE
  5
166B
330
2B49
100
AcDbEntity
  8
SIZE
 62
     0
100
AcDbLine
 10
-134.5
 20
-320.0
 30
0.0
 11
-134.5
 21
-468.0173952306001
 31
0.0
  0
LINE
  5
166C
330
2B49
100
AcDbEntity
  8
SIZE
 62
     0
100
AcDbLine
 10
134.5
 20
-320.0
 30
0.0
 11
134.5
 21
-468.0173952306001
 31
0.0
  0
LINE
  5
166D
330
2B49
100
AcDbEntity
  8
SIZE
 62
     0
100
AcDbLine
 10
-122.5
 20
-448.0173952306
 30
0.0
 11
122.5
 21
-448.0173952306
 31
0.0
  0
INSERT
  5
166E
330
2B49
100
AcDbEntity
  8
SIZE
 62
     0
100
AcDbBlockReference
  2
_DOTBLANK
 10
-134.5
 20
-448.0173952306
 30
0.0
 41
12.0
 42
12.0
 43
12.0
 50
180.0
  0
INSERT
  5
166F
330
2B49
100
AcDbEntity
  8
SIZE
 62
     0
100
AcDbBlockReference
  2
_DOTBLANK
 10
134.5
 20
-448.0173952306
 30
0.0
 41
12.0
 42
12.0
 43
12.0
  0
INSERT
  5
1670
330
2B49
100
AcDbEntity
  8
0
100
AcDbBlockReference
  2
*U31
 10
0.0
 20
0.0
 30
0.0
  0
POINT
  5
1671
330
2B49
100
AcDbEntity
  8
DEFPOINTS
 62
     0
100
AcDbPoint
 10
-134.5
 20
-300.0
 30
0.0
  0
POINT
  5
1672
330
2B49
100
AcDbEntity
  8
DEFPOINTS
 62
     0
100
AcDbPoint
 10
134.5
 20
-300.0
 30
0.0
  0
POINT
  5
1673
330
2B49
100
AcDbEntity
  8
DEFPOINTS
 62
     0
100
AcDbPoint
 10
134.5
 20
-448.0173952306
 30
0.0
  0
ENDBLK
  5
14A7
330
2B49
100
AcDbEntity
  8
0
100
AcDbBlockEnd
  0
BLOCK
  5
2B4C
330
2B4B
100
AcDbEntity
  8
0
100
AcDbBlockBegin
  2
*U31
 70
     1
 10
0.0
 20
0.0
 30
0.0
  3
*U31
  1

  0
TEXT
  5
1F09
330
2B4B
100
AcDbEntity
  8
SIZE
 62
     0
100
AcDbText
 10
-72.68571428571426
 20
-438.0173952306002
 30
0.0
 40
64.0
  1
269
 41
0.9
100
AcDbText
  0
ENDBLK
  5
1F0B
330
2B4B
100
AcDbEntity
  8
0
100
AcDbBlockEnd
  0
BLOCK
  5
2B4E
330
2B4D
100
AcDbEntity
  8
0
100
AcDbBlockBegin
  2
*D32
 70
     1
 10
0.0
 20
0.0
 30
0.0
  3
*D32
  1

  0
LINE
  5
1674
330
2B4D
100
AcDbEntity
  8
SIZE
  6
Continuous
 62
     0
100
AcDbLine
 10
143.5
 20
-300.0
 30
0.0
 11
304.6432844803784
 21
-300.0
 31
0.0
  0
LINE
  5
1675
330
2B4D
100
AcDbEntity
  8
SIZE
  6
Continuous
 62
     0
100
AcDbLine
 10
177.5
 20
-0.0000000000000057
 30
0.0
 11
304.6432844803785
 21
-0.0000000000000417
 31
0.0
  0
LINE
  5
1676
330
2B4D
100
AcDbEntity
  8
SIZE
  6
Continuous
 62
     0
100
AcDbLine
 10
284.6432844803784
 20
-288.0000000000001
 30
0.0
 11
284.6432844803785
 21
-12.00000000000003
 31
0.0
  0
INSERT
  5
1677
330
2B4D
100
AcDbEntity
  8
SIZE
  6
Continuous
 62
     0
100
AcDbBlockReference
  2
_DOTBLANK
 10
284.6432844803784
 20
-300.0
 30
0.0
 41
12.0
 42
12.0
 43
12.0
 50
270.0
  0
INSERT
  5
1678
330
2B4D
100
AcDbEntity
  8
SIZE
  6
Continuous
 62
     0
100
AcDbBlockReference
  2
_DOTBLANK
 10
284.6432844803785
 20
-0.000000000000036
 30
0.0
 41
12.0
 42
12.0
 43
12.0
 50
90.0
  0
INSERT
  5
1679
330
2B4D
100
AcDbEntity
  8
0
100
AcDbBlockReference
  2
*U33
 10
0.0
 20
0.0
 30
0.0
  0
POINT
  5
167A
330
2B4D
100
AcDbEntity
  8
DEFPOINTS
  6
Continuous
 62
     0
100
AcDbPoint
 10
123.5
 20
-300.0
 30
0.0
  0
POINT
  5
167B
330
2B4D
100
AcDbEntity
  8
DEFPOINTS
  6
Continuous
 62
     0
100
AcDbPoint
 10
157.5
 20
0.0
 30
0.0
  0
POINT
  5
167C
330
2B4D
100
AcDbEntity
  8
DEFPOINTS
  6
Continuous
 62
     0
100
AcDbPoint
 10
284.6432844803785
 20
-0.000000000000036
 30
0.0
  0
ENDBLK
  5
14B3
330
2B4D
100
AcDbEntity
  8
0
100
AcDbBlockEnd
  0
BLOCK
  5
2B50
330
2B4F
100
AcDbEntity
  8
0
100
AcDbBlockBegin
  2
*U33
 70
     1
 10
0.0
 20
0.0
 30
0.0
  3
*U33
  1

  0
TEXT
  5
1F0D
330
2B4F
100
AcDbEntity
  8
SIZE
 62
     0
100
AcDbText
 10
274.6432844803785
 20
-224.0571428571429
 30
0.0
 40
64.0
  1
300
 50
90.0
 41
0.9
100
AcDbText
  0
ENDBLK
  5
1F0F
330
2B4F
100
AcDbEntity
  8
0
100
AcDbBlockEnd
  0
BLOCK
  5
2B52
330
2B51
100
AcDbEntity
  8
0
100
AcDbBlockBegin
  2
*D34
 70
     1
 10
0.0
 20
0.0
 30
0.0
  3
*D34
  1

  0
LINE
  5
167D
330
2B51
100
AcDbEntity
  8
SIZE
 62
     0
100
AcDbLine
 10
-140.0
 20
32.46448280219375
 30
0.0
 11
-140.0
 21
136.4516878685507
 31
0.0
  0
LINE
  5
167E
330
2B51
100
AcDbEntity
  8
SIZE
 62
     0
100
AcDbLine
 10
140.0
 20
32.46448280219375
 30
0.0
 11
140.0
 21
136.4516878685507
 31
0.0
  0
LINE
  5
167F
330
2B51
100
AcDbEntity
  8
SIZE
 62
     0
100
AcDbLine
 10
-128.0
 20
116.4516878685508
 30
0.0
 11
128.0
 21
116.4516878685508
 31
0.0
  0
INSERT
  5
1680
330
2B51
100
AcDbEntity
  8
SIZE
 62
     0
100
AcDbBlockReference
  2
_DOTBLANK
 10
-140.0
 20
116.4516878685508
 30
0.0
 41
12.0
 42
12.0
 43
12.0
 50
180.0
  0
INSERT
  5
1681
330
2B51
100
AcDbEntity
  8
SIZE
 62
     0
100
AcDbBlockReference
  2
_DOTBLANK
 10
140.0
 20
116.4516878685508
 30
0.0
 41
12.0
 42
12.0
 43
12.0
  0
INSERT
  5
1682
330
2B51
100
AcDbEntity
  8
0
100
AcDbBlockReference
  2
*U35
 10
0.0
 20
0.0
 30
0.0
  0
POINT
  5
1683
330
2B51
100
AcDbEntity
  8
DEFPOINTS
 62
     0
100
AcDbPoint
 10
-140.0
 20
12.46448280219374
 30
0.0
  0
POINT
  5
1684
330
2B51
100
AcDbEntity
  8
DEFPOINTS
 62
     0
100
AcDbPoint
 10
140.0
 20
12.46448280219374
 30
0.0
  0
POINT
  5
1685
330
2B51
100
AcDbEntity
  8
DEFPOINTS
 62
     0
100
AcDbPoint
 10
140.0
 20
116.4516878685508
 30
0.0
  0
ENDBLK
  5
14BF
330
2B51
100
AcDbEntity
  8
0
100
AcDbBlockEnd
  0
BLOCK
  5
2B54
330
2B53
100
AcDbEntity
  8
0
100
AcDbBlockBegin
  2
*U35
 70
     1
 10
0.0
 20
0.0
 30
0.0
  3
*U35
  1

  0
TEXT
  5
1F11
330
2B53
100
AcDbEntity
  8
SIZE
 62
     0
100
AcDbText
 10
-74.05714285714283
 20
126.4516878685507
 30
0.0
 40
64.0
  1
280
 41
0.9
100
AcDbText
  0
ENDBLK
  5
1F13
330
2B53
100
AcDbEntity
  8
0
100
AcDbBlockEnd
  0
BLOCK
  5
2B56
330
2B55
100
AcDbEntity
  8
0
100
AcDbBlockBegin
  2
*D36
 70
     1
 10
0.0
 20
0.0
 30
0.0
  3
*D36
  1

  0
LINE
  5
1686
330
2B55
100
AcDbEntity
  8
SIZE
 62
     0
100
AcDbLine
 10
-157.5
 20
20.0
 30
0.0
 11
-157.5
 21
245.5794621189598
 31
0.0
  0
LINE
  5
1687
330
2B55
100
AcDbEntity
  8
SIZE
 62
     0
100
AcDbLine
 10
157.5
 20
20.0
 30
0.0
 11
157.5
 21
245.5794621189598
 31
0.0
  0
LINE
  5
1688
330
2B55
100
AcDbEntity
  8
SIZE
 62
     0
100
AcDbLine
 10
-145.5
 20
225.5794621189598
 30
0.0
 11
145.5
 21
225.5794621189598
 31
0.0
  0
INSERT
  5
1689
330
2B55
100
AcDbEntity
  8
SIZE
 62
     0
100
AcDbBlockReference
  2
_DOTBLANK
 10
-157.5
 20
225.5794621189598
 30
0.0
 41
12.0
 42
12.0
 43
12.0
 50
180.0
  0
INSERT
  5
168A
330
2B55
100
AcDbEntity
  8
SIZE
 62
     0
100
AcDbBlockReference
  2
_DOTBLANK
 10
157.5
 20
225.5794621189598
 30
0.0
 41
12.0
 42
12.0
 43
12.0
  0
INSERT
  5
168B
330
2B55
100
AcDbEntity
  8
0
100
AcDbBlockReference
  2
*U37
 10
0.0
 20
0.0
 30
0.0
  0
POINT
  5
168C
330
2B55
100
AcDbEntity
  8
DEFPOINTS
 62
     0
100
AcDbPoint
 10
-157.5
 20
0.0
 30
0.0
  0
POINT
  5
168D
330
2B55
100
AcDbEntity
  8
DEFPOINTS
 62
     0
100
AcDbPoint
 10
157.5
 20
0.0
 30
0.0
  0
POINT
  5
168E
330
2B55
100
AcDbEntity
  8
DEFPOINTS
 62
     0
100
AcDbPoint
 10
157.5
 20
225.5794621189598
 30
0.0
  0
ENDBLK
  5
14CB
330
2B55
100
AcDbEntity
  8
0
100
AcDbBlockEnd
  0
BLOCK
  5
2B58
330
2B57
100
AcDbEntity
  8
0
100
AcDbBlockBegin
  2
*U37
 70
     1
 10
0.0
 20
0.0
 30
0.0
  3
*U37
  1

  0
TEXT
  5
1F15
330
2B57
100
AcDbEntity
  8
SIZE
 62
     0
100
AcDbText
 10
-68.57142857142857
 20
235.5794621189598
 30
0.0
 40
64.0
  1
315
 41
0.9
100
AcDbText
  0
ENDBLK
  5
1F17
330
2B57
100
AcDbEntity
  8
0
100
AcDbBlockEnd
  0
BLOCK
  5
2B5A
330
2B59
100
AcDbEntity
  8
0
100
AcDbBlockBegin
  2
*U38
 70
     1
 10
0.0
 20
0.0
 30
0.0
  3
*U38
  1

  0
ENDBLK
  5
15CF
330
2B59
100
AcDbEntity
  8
0
100
AcDbBlockEnd
  0
BLOCK
  5
2B5C
330
2B5B
100
AcDbEntity
  8
0
100
AcDbBlockBegin
  2
*D39
 70
     1
 10
0.0
 20
0.0
 30
0.0
  3
*D39
  1

  0
LINE
  5
1692
330
2B5B
100
AcDbEntity
  8
SIZE
 62
     0
100
AcDbLine
 10
-25844.51823276502
 20
7685.702971374808
 30
0.0
 11
-25981.04465488371
 21
7685.702971374808
 31
0.0
  0
LINE
  5
1693
330
2B5B
100
AcDbEntity
  8
SIZE
 62
     0
100
AcDbLine
 10
-25844.51823276502
 20
7677.702971374808
 30
0.0
 11
-25981.04465488371
 21
7677.702971374808
 31
0.0
  0
LINE
  5
1694
330
2B5B
100
AcDbEntity
  8
SIZE
 62
     0
100
AcDbLine
 10
-25961.04465488371
 20
7697.702971374808
 30
0.0
 11
-25961.04465488371
 21
7709.702971374809
 31
0.0
  0
LINE
  5
1695
330
2B5B
100
AcDbEntity
  8
SIZE
 62
     0
100
AcDbLine
 10
-25961.04465488371
 20
7665.70297137481
 30
0.0
 11
-25961.04465488371
 21
7595.302971374808
 31
0.0
  0
INSERT
  5
1696
330
2B5B
100
AcDbEntity
  8
SIZE
 62
     0
100
AcDbBlockReference
  2
_DOTBLANK
 10
-25961.04465488371
 20
7685.702971374808
 30
0.0
 41
12.0
 42
12.0
 43
12.0
 50
270.0
  0
INSERT
  5
1697
330
2B5B
100
AcDbEntity
  8
SIZE
 62
     0
100
AcDbBlockReference
  2
_DOTBLANK
 10
-25961.04465488371
 20
7677.702971374808
 30
0.0
 41
12.0
 42
12.0
 43
12.0
 50
90.0
  0
INSERT
  5
1698
330
2B5B
100
AcDbEntity
  8
0
100
AcDbBlockReference
  2
*U40
 10
0.0
 20
0.0
 30
0.0
  0
POINT
  5
1699
330
2B5B
100
AcDbEntity
  8
DEFPOINTS
 62
     0
100
AcDbPoint
 10
-25824.51823276501
 20
7685.702971374808
 30
0.0
  0
POINT
  5
169A
330
2B5B
100
AcDbEntity
  8
DEFPOINTS
 62
     0
100
AcDbPoint
 10
-25824.51823276501
 20
7677.702971374808
 30
0.0
  0
POINT
  5
169B
330
2B5B
100
AcDbEntity
  8
DEFPOINTS
 62
     0
100
AcDbPoint
 10
-25961.04465488371
 20
7677.702971374808
 30
0.0
  0
ENDBLK
  5
169C
330
2B5B
100
AcDbEntity
  8
0
100
AcDbBlockEnd
  0
BLOCK
  5
2B5E
330
2B5D
100
AcDbEntity
  8
0
100
AcDbBlockBegin
  2
*U40
 70
     1
 10
0.0
 20
0.0
 30
0.0
  3
*U40
  1

  0
TEXT
  5
1F19
330
2B5D
100
AcDbEntity
  8
SIZE
 62
     0
100
AcDbText
 10
-25971.04465488371
 20
7605.302971374804
 30
0.0
 40
64.0
  1
8
 50
90.0
 41
0.9
100
AcDbText
  0
ENDBLK
  5
1F1B
330
2B5D
100
AcDbEntity
  8
0
100
AcDbBlockEnd
  0
BLOCK
  5
2B60
330
2B5F
100
AcDbEntity
  8
0
100
AcDbBlockBegin
  2
*D41
 70
     1
 10
0.0
 20
0.0
 30
0.0
  3
*D41
  1

  0
LINE
  5
169F
330
2B5F
100
AcDbEntity
  8
SIZE
 62
     0
100
AcDbLine
 10
-25512.51823276502
 20
7385.702971374808
 30
0.0
 11
-25362.37494828464
 21
7385.702971374808
 31
0.0
  0
LINE
  5
16A0
330
2B5F
100
AcDbEntity
  8
SIZE
 62
     0
100
AcDbLine
 10
-25523.51823276501
 20
7373.702971374808
 30
0.0
 11
-25362.37494828464
 21
7373.702971374808
 31
0.0
  0
LINE
  5
16A1
330
2B5F
100
AcDbEntity
  8
SIZE
 62
     0
100
AcDbLine
 10
-25382.37494828464
 20
7397.702971374808
 30
0.0
 11
-25382.37494828464
 21
7409.70297137481
 31
0.0
  0
LINE
  5
16A2
330
2B5F
100
AcDbEntity
  8
SIZE
 62
     0
100
AcDbLine
 10
-25382.37494828464
 20
7361.702971374808
 30
0.0
 11
-25382.37494828464
 21
7244.674399946238
 31
0.0
  0
INSERT
  5
16A3
330
2B5F
100
AcDbEntity
  8
SIZE
 62
     0
100
AcDbBlockReference
  2
_DOTBLANK
 10
-25382.37494828464
 20
7385.702971374808
 30
0.0
 41
12.0
 42
12.0
 43
12.0
 50
270.0
  0
INSERT
  5
16A4
330
2B5F
100
AcDbEntity
  8
SIZE
 62
     0
100
AcDbBlockReference
  2
_DOTBLANK
 10
-25382.37494828464
 20
7373.702971374808
 30
0.0
 41
12.0
 42
12.0
 43
12.0
 50
90.0
  0
INSERT
  5
16A5
330
2B5F
100
AcDbEntity
  8
0
100
AcDbBlockReference
  2
*U42
 10
0.0
 20
0.0
 30
0.0
  0
POINT
  5
16A6
330
2B5F
100
AcDbEntity
  8
DEFPOINTS
 62
     0
100
AcDbPoint
 10
-25532.51823276502
 20
7385.702971374808
 30
0.0
  0
POINT
  5
16A7
330
2B5F
100
AcDbEntity
  8
DEFPOINTS
 62
     0
100
AcDbPoint
 10
-25543.51823276502
 20
7373.702971374808
 30
0.0
  0
POINT
  5
16A8
330
2B5F
100
AcDbEntity
  8
DEFPOINTS
 62
     0
100
AcDbPoint
 10
-25382.37494828464
 20
7373.702971374808
 30
0.0
  0
ENDBLK
  5
16A9
330
2B5F
100
AcDbEntity
  8
0
100
AcDbBlockEnd
  0
BLOCK
  5
2B62
330
2B61
100
AcDbEntity
  8
0
100
AcDbBlockBegin
  2
*U42
 70
     1
 10
0.0
 20
0.0
 30
0.0
  3
*U42
  1

  0
TEXT
  5
1F1D
330
2B61
100
AcDbEntity
  8
SIZE
 62
     0
100
AcDbText
 10
-25392.37494828464
 20
7256.045828517662
 30
0.0
 40
64.0
  1
12
 50
90.0
 41
0.9
100
AcDbText
  0
ENDBLK
  5
1F1F
330
2B61
100
AcDbEntity
  8
0
100
AcDbBlockEnd
  0
BLOCK
  5
2B64
330
2B63
100
AcDbEntity
  8
0
100
AcDbBlockBegin
  2
*D43
 70
     1
 10
0.0
 20
0.0
 30
0.0
  3
*D43
  1

  0
LINE
  5
16AC
330
2B63
100
AcDbEntity
  8
SIZE
 62
     0
100
AcDbLine
 10
-25801.51823276501
 20
7365.702971374808
 30
0.0
 11
-25801.51823276501
 21
7217.685576144207
 31
0.0
  0
LINE
  5
16AD
330
2B63
100
AcDbEntity
  8
SIZE
 62
     0
100
AcDbLine
 10
-25532.51823276502
 20
7365.702971374808
 30
0.0
 11
-25532.51823276502
 21
7217.685576144207
 31
0.0
  0
LINE
  5
16AE
330
2B63
100
AcDbEntity
  8
SIZE
 62
     0
100
AcDbLine
 10
-25789.51823276502
 20
7237.685576144207
 30
0.0
 11
-25544.51823276501
 21
7237.685576144207
 31
0.0
  0
INSERT
  5
16AF
330
2B63
100
AcDbEntity
  8
SIZE
 62
     0
100
AcDbBlockReference
  2
_DOTBLANK
 10
-25801.51823276501
 20
7237.685576144207
 30
0.0
 41
12.0
 42
12.0
 43
12.0
 50
180.0
  0
INSERT
  5
16B0
330
2B63
100
AcDbEntity
  8
SIZE
 62
     0
100
AcDbBlockReference
  2
_DOTBLANK
 10
-25532.51823276502
 20
7237.685576144207
 30
0.0
 41
12.0
 42
12.0
 43
12.0
  0
INSERT
  5
16B1
330
2B63
100
AcDbEntity
  8
0
100
AcDbBlockReference
  2
*U44
 10
0.0
 20
0.0
 30
0.0
  0
POINT
  5
16B2
330
2B63
100
AcDbEntity
  8
DEFPOINTS
 62
     0
100
AcDbPoint
 10
-25801.51823276501
 20
7385.702971374808
 30
0.0
  0
POINT
  5
16B3
330
2B63
100
AcDbEntity
  8
DEFPOINTS
 62
     0
100
AcDbPoint
 10
-25532.51823276502
 20
7385.702971374808
 30
0.0
  0
POINT
  5
16B4
330
2B63
100
AcDbEntity
  8
DEFPOINTS
 62
     0
100
AcDbPoint
 10
-25532.51823276502
 20
7237.685576144207
 30
0.0
  0
ENDBLK
  5
16B5
330
2B63
100
AcDbEntity
  8
0
100
AcDbBlockEnd
  0
BLOCK
  5
2B66
330
2B65
100
AcDbEntity
  8
0
100
AcDbBlockBegin
  2
*U44
 70
     1
 10
0.0
 20
0.0
 30
0.0
  3
*U44
  1

  0
TEXT
  5
1F21
330
2B65
100
AcDbEntity
  8
SIZE
 62
     0
100
AcDbText
 10
-25739.70394705074
 20
7247.685576144205
 30
0.0
 40
64.0
  1
269
 41
0.9
100
AcDbText
  0
ENDBLK
  5
1F23
330
2B65
100
AcDbEntity
  8
0
100
AcDbBlockEnd
  0
BLOCK
  5
2B68
330
2B67
100
AcDbEntity
  8
0
100
AcDbBlockBegin
  2
*D45
 70
     1
 10
0.0
 20
0.0
 30
0.0
  3
*D45
  1

  0
LINE
  5
16B8
330
2B67
100
AcDbEntity
  8
SIZE
 62
     0
100
AcDbLine
 10
-25512.51823276502
 20
7385.702971374808
 30
0.0
 11
-25362.37494828464
 21
7385.702971374808
 31
0.0
  0
LINE
  5
16B9
330
2B67
100
AcDbEntity
  8
SIZE
 62
     0
100
AcDbLine
 10
-25489.51823276501
 20
7685.702971374808
 30
0.0
 11
-25362.37494828464
 21
7685.702971374808
 31
0.0
  0
LINE
  5
16BA
330
2B67
100
AcDbEntity
  8
SIZE
 62
     0
100
AcDbLine
 10
-25382.37494828464
 20
7397.702971374808
 30
0.0
 11
-25382.37494828464
 21
7673.702971374808
 31
0.0
  0
INSERT
  5
16BB
330
2B67
100
AcDbEntity
  8
SIZE
 62
     0
100
AcDbBlockReference
  2
_DOTBLANK
 10
-25382.37494828464
 20
7385.702971374808
 30
0.0
 41
12.0
 42
12.0
 43
12.0
 50
270.0
  0
INSERT
  5
16BC
330
2B67
100
AcDbEntity
  8
SIZE
 62
     0
100
AcDbBlockReference
  2
_DOTBLANK
 10
-25382.37494828464
 20
7685.702971374808
 30
0.0
 41
12.0
 42
12.0
 43
12.0
 50
90.0
  0
INSERT
  5
16BD
330
2B67
100
AcDbEntity
  8
0
100
AcDbBlockReference
  2
*U46
 10
0.0
 20
0.0
 30
0.0
  0
POINT
  5
16BE
330
2B67
100
AcDbEntity
  8
DEFPOINTS
 62
     0
100
AcDbPoint
 10
-25532.51823276502
 20
7385.702971374808
 30
0.0
  0
POINT
  5
16BF
330
2B67
100
AcDbEntity
  8
DEFPOINTS
 62
     0
100
AcDbPoint
 10
-25509.51823276502
 20
7685.702971374808
 30
0.0
  0
POINT
  5
16C0
330
2B67
100
AcDbEntity
  8
DEFPOINTS
 62
     0
100
AcDbPoint
 10
-25382.37494828464
 20
7685.702971374808
 30
0.0
  0
ENDBLK
  5
16C1
330
2B67
100
AcDbEntity
  8
0
100
AcDbBlockEnd
  0
BLOCK
  5
2B6A
330
2B69
100
AcDbEntity
  8
0
100
AcDbBlockBegin
  2
*U46
 70
     1
 10
0.0
 20
0.0
 30
0.0
  3
*U46
  1

  0
TEXT
  5
1F25
330
2B69
100
AcDbEntity
  8
SIZE
 62
     0
100
AcDbText
 10
-25392.37494828464
 20
7461.645828517662
 30
0.0
 40
64.0
  1
300
 50
90.0
 41
0.9
100
AcDbText
  0
ENDBLK
  5
1F27
330
2B69
100
AcDbEntity
  8
0
100
AcDbBlockEnd
  0
BLOCK
  5
2B6C
330
2B6B
100
AcDbEntity
  8
0
100
AcDbBlockBegin
  2
*D47
 70
     1
 10
0.0
 20
0.0
 30
0.0
  3
*D47
  1

  0
LINE
  5
16C4
330
2B6B
100
AcDbEntity
  8
SIZE
 62
     0
100
AcDbLine
 10
-25807.01823276501
 20
7718.167454177002
 30
0.0
 11
-25807.01823276501
 21
7822.154659243358
 31
0.0
  0
LINE
  5
16C5
330
2B6B
100
AcDbEntity
  8
SIZE
 62
     0
100
AcDbLine
 10
-25527.01823276501
 20
7718.167454177002
 30
0.0
 11
-25527.01823276501
 21
7822.154659243358
 31
0.0
  0
LINE
  5
16C6
330
2B6B
100
AcDbEntity
  8
SIZE
 62
     0
100
AcDbLine
 10
-25795.01823276502
 20
7802.154659243358
 30
0.0
 11
-25539.01823276501
 21
7802.154659243358
 31
0.0
  0
INSERT
  5
16C7
330
2B6B
100
AcDbEntity
  8
SIZE
 62
     0
100
AcDbBlockReference
  2
_DOTBLANK
 10
-25807.01823276501
 20
7802.154659243358
 30
0.0
 41
12.0
 42
12.0
 43
12.0
 50
180.0
  0
INSERT
  5
16C8
330
2B6B
100
AcDbEntity
  8
SIZE
 62
     0
100
AcDbBlockReference
  2
_DOTBLANK
 10
-25527.01823276501
 20
7802.154659243358
 30
0.0
 41
12.0
 42
12.0
 43
12.0
  0
INSERT
  5
16C9
330
2B6B
100
AcDbEntity
  8
0
100
AcDbBlockReference
  2
*U48
 10
0.0
 20
0.0
 30
0.0
  0
POINT
  5
16CA
330
2B6B
100
AcDbEntity
  8
DEFPOINTS
 62
     0
100
AcDbPoint
 10
-25807.01823276501
 20
7698.167454177002
 30
0.0
  0
POINT
  5
16CB
330
2B6B
100
AcDbEntity
  8
DEFPOINTS
 62
     0
100
AcDbPoint
 10
-25527.01823276501
 20
7698.167454177002
 30
0.0
  0
POINT
  5
16CC
330
2B6B
100
AcDbEntity
  8
DEFPOINTS
 62
     0
100
AcDbPoint
 10
-25527.01823276501
 20
7802.154659243358
 30
0.0
  0
ENDBLK
  5
16CD
330
2B6B
100
AcDbEntity
  8
0
100
AcDbBlockEnd
  0
BLOCK
  5
2B6E
330
2B6D
100
AcDbEntity
  8
0
100
AcDbBlockBegin
  2
*U48
 70
     1
 10
0.0
 20
0.0
 30
0.0
  3
*U48
  1

  0
TEXT
  5
1F29
330
2B6D
100
AcDbEntity
  8
SIZE
 62
     0
100
AcDbText
 10
-25741.07537562216
 20
7812.154659243358
 30
0.0
 40
64.0
  1
280
 41
0.9
100
AcDbText
  0
ENDBLK
  5
1F2B
330
2B6D
100
AcDbEntity
  8
0
100
AcDbBlockEnd
  0
BLOCK
  5
2B70
330
2B6F
100
AcDbEntity
  8
0
100
AcDbBlockBegin
  2
*D49
 70
     1
 10
0.0
 20
0.0
 30
0.0
  3
*D49
  1

  0
LINE
  5
16D0
330
2B6F
100
AcDbEntity
  8
SIZE
 62
     0
100
AcDbLine
 10
-25824.51823276501
 20
7705.702971374808
 30
0.0
 11
-25824.51823276501
 21
7931.282433493766
 31
0.0
  0
LINE
  5
16D1
330
2B6F
100
AcDbEntity
  8
SIZE
 62
     0
100
AcDbLine
 10
-25509.51823276502
 20
7705.702971374808
 30
0.0
 11
-25509.51823276502
 21
7931.282433493766
 31
0.0
  0
LINE
  5
16D2
330
2B6F
100
AcDbEntity
  8
SIZE
 62
     0
100
AcDbLine
 10
-25812.51823276502
 20
7911.282433493766
 30
0.0
 11
-25521.51823276501
 21
7911.282433493766
 31
0.0
  0
INSERT
  5
16D3
330
2B6F
100
AcDbEntity
  8
SIZE
 62
     0
100
AcDbBlockReference
  2
_DOTBLANK
 10
-25824.51823276501
 20
7911.282433493766
 30
0.0
 41
12.0
 42
12.0
 43
12.0
 50
180.0
  0
INSERT
  5
16D4
330
2B6F
100
AcDbEntity
  8
SIZE
 62
     0
100
AcDbBlockReference
  2
_DOTBLANK
 10
-25509.51823276502
 20
7911.282433493766
 30
0.0
 41
12.0
 42
12.0
 43
12.0
  0
INSERT
  5
16D5
330
2B6F
100
AcDbEntity
  8
0
100
AcDbBlockReference
  2
*U50
 10
0.0
 20
0.0
 30
0.0
  0
POINT
  5
16D6
330
2B6F
100
AcDbEntity
  8
DEFPOINTS
 62
     0
100
AcDbPoint
 10
-25824.51823276501
 20
7685.702971374808
 30
0.0
  0
POINT
  5
16D7
330
2B6F
100
AcDbEntity
  8
DEFPOINTS
 62
     0
100
AcDbPoint
 10
-25509.51823276502
 20
7685.702971374808
 30
0.0
  0
POINT
  5
16D8
330
2B6F
100
AcDbEntity
  8
DEFPOINTS
 62
     0
100
AcDbPoint
 10
-25509.51823276502
 20
7911.282433493766
 30
0.0
  0
ENDBLK
  5
16D9
330
2B6F
100
AcDbEntity
  8
0
100
AcDbBlockEnd
  0
BLOCK
  5
2B72
330
2B71
100
AcDbEntity
  8
0
100
AcDbBlockBegin
  2
*U50
 70
     1
 10
0.0
 20
0.0
 30
0.0
  3
*U50
  1

  0
TEXT
  5
1F2D
330
2B71
100
AcDbEntity
  8
SIZE
 62
     0
100
AcDbText
 10
-25735.58966133645
 20
7921.282433493766
 30
0.0
 40
64.0
  1
315
 41
0.9
100
AcDbText
  0
ENDBLK
  5
1F2F
330
2B71
100
AcDbEntity
  8
0
100
AcDbBlockEnd
  0
BLOCK
  5
2B74
330
2B73
100
AcDbEntity
  8
0
100
AcDbBlockBegin
  2
*D51
 70
     1
 10
0.0
 20
0.0
 30
0.0
  3
*D51
  1

  0
LINE
  5
1D83
330
2B73
100
AcDbEntity
  8
SIZE
 62
     0
100
AcDbLine
 10
-134.5
 20
-320.0
 30
0.0
 11
-134.5
 21
-468.0173952306001
 31
0.0
  0
LINE
  5
1D84
330
2B73
100
AcDbEntity
  8
SIZE
 62
     0
100
AcDbLine
 10
134.5
 20
-320.0
 30
0.0
 11
134.5
 21
-468.0173952306001
 31
0.0
  0
LINE
  5
1D85
330
2B73
100
AcDbEntity
  8
SIZE
 62
     0
100
AcDbLine
 10
-122.5
 20
-448.0173952306
 30
0.0
 11
122.5
 21
-448.0173952306
 31
0.0
  0
INSERT
  5
1D86
330
2B73
100
AcDbEntity
  8
SIZE
 62
     0
100
AcDbBlockReference
  2
_DOTBLANK
 10
-134.5
 20
-448.0173952306
 30
0.0
 41
12.0
 42
12.0
 43
12.0
 50
180.0
  0
INSERT
  5
1D87
330
2B73
100
AcDbEntity
  8
SIZE
 62
     0
100
AcDbBlockReference
  2
_DOTBLANK
 10
134.5
 20
-448.0173952306
 30
0.0
 41
12.0
 42
12.0
 43
12.0
  0
INSERT
  5
1D88
330
2B73
100
AcDbEntity
  8
0
100
AcDbBlockReference
  2
*U52
 10
0.0
 20
0.0
 30
0.0
  0
POINT
  5
1D89
330
2B73
100
AcDbEntity
  8
DEFPOINTS
 62
     0
100
AcDbPoint
 10
-134.5
 20
-300.0
 30
0.0
  0
POINT
  5
1D8A
330
2B73
100
AcDbEntity
  8
DEFPOINTS
 62
     0
100
AcDbPoint
 10
134.5
 20
-300.0
 30
0.0
  0
POINT
  5
1D8B
330
2B73
100
AcDbEntity
  8
DEFPOINTS
 62
     0
100
AcDbPoint
 10
134.5
 20
-448.0173952306
 30
0.0
  0
ENDBLK
  5
173D
330
2B73
100
AcDbEntity
  8
0
100
AcDbBlockEnd
  0
BLOCK
  5
2B76
330
2B75
100
AcDbEntity
  8
0
100
AcDbBlockBegin
  2
*U52
 70
     1
 10
0.0
 20
0.0
 30
0.0
  3
*U52
  1

  0
TEXT
  5
1F31
330
2B75
100
AcDbEntity
  8
SIZE
 62
     0
100
AcDbText
 10
-72.68571428571426
 20
-438.0173952306003
 30
0.0
 40
64.0
  1
269
 41
0.9
100
AcDbText
  0
ENDBLK
  5
1F33
330
2B75
100
AcDbEntity
  8
0
100
AcDbBlockEnd
  0
BLOCK
  5
2B78
330
2B77
100
AcDbEntity
  8
0
100
AcDbBlockBegin
  2
*D53
 70
     1
 10
0.0
 20
0.0
 30
0.0
  3
*D53
  1

  0
LINE
  5
1D8C
330
2B77
100
AcDbEntity
  8
SIZE
 62
     0
100
AcDbLine
 10
154.5
 20
-300.0
 30
0.0
 11
304.6432844803784
 21
-300.0
 31
0.0
  0
LINE
  5
1D8D
330
2B77
100
AcDbEntity
  8
SIZE
 62
     0
100
AcDbLine
 10
177.5
 20
-0.0000000000000057
 30
0.0
 11
304.6432844803785
 21
-0.0000000000000417
 31
0.0
  0
LINE
  5
1D8E
330
2B77
100
AcDbEntity
  8
SIZE
 62
     0
100
AcDbLine
 10
284.6432844803784
 20
-288.0
 30
0.0
 11
284.6432844803785
 21
-12.00000000000003
 31
0.0
  0
INSERT
  5
1D8F
330
2B77
100
AcDbEntity
  8
SIZE
 62
     0
100
AcDbBlockReference
  2
_DOTBLANK
 10
284.6432844803784
 20
-300.0
 30
0.0
 41
12.0
 42
12.0
 43
12.0
 50
270.0
  0
INSERT
  5
1D90
330
2B77
100
AcDbEntity
  8
SIZE
 62
     0
100
AcDbBlockReference
  2
_DOTBLANK
 10
284.6432844803785
 20
-0.000000000000036
 30
0.0
 41
12.0
 42
12.0
 43
12.0
 50
90.0
  0
INSERT
  5
1D91
330
2B77
100
AcDbEntity
  8
0
100
AcDbBlockReference
  2
*U54
 10
0.0
 20
0.0
 30
0.0
  0
POINT
  5
1D92
330
2B77
100
AcDbEntity
  8
DEFPOINTS
 62
     0
100
AcDbPoint
 10
134.5
 20
-300.0
 30
0.0
  0
POINT
  5
1D93
330
2B77
100
AcDbEntity
  8
DEFPOINTS
 62
     0
100
AcDbPoint
 10
157.5
 20
0.0
 30
0.0
  0
POINT
  5
1D94
330
2B77
100
AcDbEntity
  8
DEFPOINTS
 62
     0
100
AcDbPoint
 10
284.6432844803785
 20
-0.000000000000036
 30
0.0
  0
ENDBLK
  5
1749
330
2B77
100
AcDbEntity
  8
0
100
AcDbBlockEnd
  0
BLOCK
  5
2B7A
330
2B79
100
AcDbEntity
  8
0
100
AcDbBlockBegin
  2
*U54
 70
     1
 10
0.0
 20
0.0
 30
0.0
  3
*U54
  1

  0
TEXT
  5
1F35
330
2B79
100
AcDbEntity
  8
SIZE
 62
     0
100
AcDbText
 10
274.6432844803785
 20
-224.0571428571429
 30
0.0
 40
64.0
  1
300
 50
90.0
 41
0.9
100
AcDbText
  0
ENDBLK
  5
1F37
330
2B79
100
AcDbEntity
  8
0
100
AcDbBlockEnd
  0
BLOCK
  5
2B7C
330
2B7B
100
AcDbEntity
  8
0
100
AcDbBlockBegin
  2
*D55
 70
     1
 10
0.0
 20
0.0
 30
0.0
  3
*D55
  1

  0
LINE
  5
1D95
330
2B7B
100
AcDbEntity
  8
SIZE
 62
     0
100
AcDbLine
 10
-140.0
 20
32.46448280219375
 30
0.0
 11
-140.0
 21
136.4516878685508
 31
0.0
  0
LINE
  5
1D96
330
2B7B
100
AcDbEntity
  8
SIZE
 62
     0
100
AcDbLine
 10
140.0
 20
32.46448280219375
 30
0.0
 11
140.0
 21
136.4516878685508
 31
0.0
  0
LINE
  5
1D97
330
2B7B
100
AcDbEntity
  8
SIZE
 62
     0
100
AcDbLine
 10
-128.0
 20
116.4516878685508
 30
0.0
 11
128.0
 21
116.4516878685508
 31
0.0
  0
INSERT
  5
1D98
330
2B7B
100
AcDbEntity
  8
SIZE
 62
     0
100
AcDbBlockReference
  2
_DOTBLANK
 10
-140.0
 20
116.4516878685508
 30
0.0
 41
12.0
 42
12.0
 43
12.0
 50
180.0
  0
INSERT
  5
1D99
330
2B7B
100
AcDbEntity
  8
SIZE
 62
     0
100
AcDbBlockReference
  2
_DOTBLANK
 10
140.0
 20
116.4516878685508
 30
0.0
 41
12.0
 42
12.0
 43
12.0
  0
INSERT
  5
1D9A
330
2B7B
100
AcDbEntity
  8
0
100
AcDbBlockReference
  2
*U56
 10
0.0
 20
0.0
 30
0.0
  0
POINT
  5
1D9B
330
2B7B
100
AcDbEntity
  8
DEFPOINTS
 62
     0
100
AcDbPoint
 10
-140.0
 20
12.46448280219374
 30
0.0
  0
POINT
  5
1D9C
330
2B7B
100
AcDbEntity
  8
DEFPOINTS
 62
     0
100
AcDbPoint
 10
140.0
 20
12.46448280219374
 30
0.0
  0
POINT
  5
1D9D
330
2B7B
100
AcDbEntity
  8
DEFPOINTS
 62
     0
100
AcDbPoint
 10
140.0
 20
116.4516878685508
 30
0.0
  0
ENDBLK
  5
1755
330
2B7B
100
AcDbEntity
  8
0
100
AcDbBlockEnd
  0
BLOCK
  5
2B7E
330
2B7D
100
AcDbEntity
  8
0
100
AcDbBlockBegin
  2
*U56
 70
     1
 10
0.0
 20
0.0
 30
0.0
  3
*U56
  1

  0
TEXT
  5
1F39
330
2B7D
100
AcDbEntity
  8
SIZE
 62
     0
100
AcDbText
 10
-74.05714285714283
 20
126.4516878685508
 30
0.0
 40
64.0
  1
280
 41
0.9
100
AcDbText
  0
ENDBLK
  5
1F3B
330
2B7D
100
AcDbEntity
  8
0
100
AcDbBlockEnd
  0
BLOCK
  5
2B80
330
2B7F
100
AcDbEntity
  8
0
100
AcDbBlockBegin
  2
*D57
 70
     1
 10
0.0
 20
0.0
 30
0.0
  3
*D57
  1

  0
LINE
  5
1D9E
330
2B7F
100
AcDbEntity
  8
SIZE
 62
     0
100
AcDbLine
 10
-157.5
 20
20.0
 30
0.0
 11
-157.5
 21
245.5794621189598
 31
0.0
  0
LINE
  5
1D9F
330
2B7F
100
AcDbEntity
  8
SIZE
 62
     0
100
AcDbLine
 10
157.5
 20
20.0
 30
0.0
 11
157.5
 21
245.5794621189598
 31
0.0
  0
LINE
  5
1DA0
330
2B7F
100
AcDbEntity
  8
SIZE
 62
     0
100
AcDbLine
 10
-145.5
 20
225.5794621189598
 30
0.0
 11
145.5
 21
225.5794621189598
 31
0.0
  0
INSERT
  5
1DA1
330
2B7F
100
AcDbEntity
  8
SIZE
 62
     0
100
AcDbBlockReference
  2
_DOTBLANK
 10
-157.5
 20
225.5794621189598
 30
0.0
 41
12.0
 42
12.0
 43
12.0
 50
180.0
  0
INSERT
  5
1DA2
330
2B7F
100
AcDbEntity
  8
SIZE
 62
     0
100
AcDbBlockReference
  2
_DOTBLANK
 10
157.5
 20
225.5794621189598
 30
0.0
 41
12.0
 42
12.0
 43
12.0
  0
INSERT
  5
1DA3
330
2B7F
100
AcDbEntity
  8
0
100
AcDbBlockReference
  2
*U58
 10
0.0
 20
0.0
 30
0.0
  0
POINT
  5
1DA4
330
2B7F
100
AcDbEntity
  8
DEFPOINTS
 62
     0
100
AcDbPoint
 10
-157.5
 20
0.0
 30
0.0
  0
POINT
  5
1DA5
330
2B7F
100
AcDbEntity
  8
DEFPOINTS
 62
     0
100
AcDbPoint
 10
157.5
 20
0.0
 30
0.0
  0
POINT
  5
1DA6
330
2B7F
100
AcDbEntity
  8
DEFPOINTS
 62
     0
100
AcDbPoint
 10
157.5
 20
225.5794621189598
 30
0.0
  0
ENDBLK
  5
1761
330
2B7F
100
AcDbEntity
  8
0
100
AcDbBlockEnd
  0
BLOCK
  5
2B82
330
2B81
100
AcDbEntity
  8
0
100
AcDbBlockBegin
  2
*U58
 70
     1
 10
0.0
 20
0.0
 30
0.0
  3
*U58
  1

  0
TEXT
  5
1F3D
330
2B81
100
AcDbEntity
  8
SIZE
 62
     0
100
AcDbText
 10
-68.57142857142857
 20
235.5794621189599
 30
0.0
 40
64.0
  1
315
 41
0.9
100
AcDbText
  0
ENDBLK
  5
1F3F
330
2B81
100
AcDbEntity
  8
0
100
AcDbBlockEnd
  0
BLOCK
  5
2B84
330
2B83
100
AcDbEntity
  8
0
100
AcDbBlockBegin
  2
*D59
 70
     1
 10
0.0
 20
0.0
 30
0.0
  3
*D59
  1

  0
LINE
  5
1DA7
330
2B83
100
AcDbEntity
  8
SIZE
 62
     0
100
AcDbLine
 10
-177.5
 20
0.0000000000000057
 30
0.0
 11
-314.0264221186908
 21
0.0000000000000443
 31
0.0
  0
LINE
  5
1DA8
330
2B83
100
AcDbEntity
  8
SIZE
 62
     0
100
AcDbLine
 10
-177.5
 20
-7.999999999999992
 30
0.0
 11
-314.0264221186908
 21
-7.999999999999957
 31
0.0
  0
LINE
  5
1DA9
330
2B83
100
AcDbEntity
  8
SIZE
 62
     0
100
AcDbLine
 10
-294.0264221186908
 20
12.00000000000003
 30
0.0
 11
-294.0264221186908
 21
24.00000000000004
 31
0.0
  0
LINE
  5
1DAA
330
2B83
100
AcDbEntity
  8
SIZE
 62
     0
100
AcDbLine
 10
-294.0264221186908
 20
-19.99999999999996
 30
0.0
 11
-294.0264221186908
 21
-90.39999999999997
 31
0.0
  0
INSERT
  5
1DAB
330
2B83
100
AcDbEntity
  8
SIZE
 62
     0
100
AcDbBlockReference
  2
_DOTBLANK
 10
-294.0264221186908
 20
0.0000000000000387
 30
0.0
 41
12.0
 42
12.0
 43
12.0
 50
270.0
  0
INSERT
  5
1DAC
330
2B83
100
AcDbEntity
  8
SIZE
 62
     0
100
AcDbBlockReference
  2
_DOTBLANK
 10
-294.0264221186908
 20
-7.999999999999959
 30
0.0
 41
12.0
 42
12.0
 43
12.0
 50
90.0
  0
INSERT
  5
1DAD
330
2B83
100
AcDbEntity
  8
0
100
AcDbBlockReference
  2
*U60
 10
0.0
 20
0.0
 30
0.0
  0
POINT
  5
1DAE
330
2B83
100
AcDbEntity
  8
DEFPOINTS
 62
     0
100
AcDbPoint
 10
-157.5
 20
0.0
 30
0.0
  0
POINT
  5
1DAF
330
2B83
100
AcDbEntity
  8
DEFPOINTS
 62
     0
100
AcDbPoint
 10
-157.5
 20
-8.000000000000001
 30
0.0
  0
POINT
  5
1DB0
330
2B83
100
AcDbEntity
  8
DEFPOINTS
 62
     0
100
AcDbPoint
 10
-294.0264221186908
 20
-7.999999999999959
 30
0.0
  0
ENDBLK
  5
176D
330
2B83
100
AcDbEntity
  8
0
100
AcDbBlockEnd
  0
BLOCK
  5
2B86
330
2B85
100
AcDbEntity
  8
0
100
AcDbBlockBegin
  2
*U60
 70
     1
 10
0.0
 20
0.0
 30
0.0
  3
*U60
  1

  0
TEXT
  5
1F41
330
2B85
100
AcDbEntity
  8
SIZE
 62
     0
100
AcDbText
 10
-304.0264221186908
 20
-80.4
 30
0.0
 40
64.0
  1
8
 50
90.0
 41
0.9
100
AcDbText
  0
ENDBLK
  5
1F43
330
2B85
100
AcDbEntity
  8
0
100
AcDbBlockEnd
  0
BLOCK
  5
2B88
330
2B87
100
AcDbEntity
  8
0
100
AcDbBlockBegin
  2
*D61
 70
     1
 10
0.0
 20
0.0
 30
0.0
  3
*D61
  1

  0
LINE
  5
1DB1
330
2B87
100
AcDbEntity
  8
SIZE
 62
     0
100
AcDbLine
 10
154.5
 20
-300.0
 30
0.0
 11
304.6432844803785
 21
-300.0
 31
0.0
  0
LINE
  5
1DB2
330
2B87
100
AcDbEntity
  8
SIZE
 62
     0
100
AcDbLine
 10
143.5
 20
-312.0
 30
0.0
 11
304.6432844803785
 21
-312.0
 31
0.0
  0
LINE
  5
1DB3
330
2B87
100
AcDbEntity
  8
SIZE
 62
     0
100
AcDbLine
 10
284.6432844803785
 20
-288.0
 30
0.0
 11
284.6432844803785
 21
-276.0
 31
0.0
  0
LINE
  5
1DB4
330
2B87
100
AcDbEntity
  8
SIZE
 62
     0
100
AcDbLine
 10
284.6432844803785
 20
-324.0000000000001
 30
0.0
 11
284.6432844803784
 21
-438.2857142857143
 31
0.0
  0
INSERT
  5
1DB5
330
2B87
100
AcDbEntity
  8
SIZE
 62
     0
100
AcDbBlockReference
  2
_DOTBLANK
 10
284.6432844803785
 20
-300.0
 30
0.0
 41
12.0
 42
12.0
 43
12.0
 50
270.0
  0
INSERT
  5
1DB6
330
2B87
100
AcDbEntity
  8
SIZE
 62
     0
100
AcDbBlockReference
  2
_DOTBLANK
 10
284.6432844803785
 20
-312.0
 30
0.0
 41
12.0
 42
12.0
 43
12.0
 50
90.0
  0
INSERT
  5
1DB7
330
2B87
100
AcDbEntity
  8
0
100
AcDbBlockReference
  2
*U62
 10
0.0
 20
0.0
 30
0.0
  0
POINT
  5
1DB8
330
2B87
100
AcDbEntity
  8
DEFPOINTS
 62
     0
100
AcDbPoint
 10
134.5
 20
-300.0
 30
0.0
  0
POINT
  5
1DB9
330
2B87
100
AcDbEntity
  8
DEFPOINTS
 62
     0
100
AcDbPoint
 10
123.5
 20
-312.0
 30
0.0
  0
POINT
  5
1DBA
330
2B87
100
AcDbEntity
  8
DEFPOINTS
 62
     0
100
AcDbPoint
 10
284.6432844803785
 20
-312.0
 30
0.0
  0
ENDBLK
  5
177B
330
2B87
100
AcDbEntity
  8
0
100
AcDbBlockEnd
  0
BLOCK
  5
2B8A
330
2B89
100
AcDbEntity
  8
0
100
AcDbBlockBegin
  2
*U62
 70
     1
 10
0.0
 20
0.0
 30
0.0
  3
*U62
  1

  0
TEXT
  5
1F45
330
2B89
100
AcDbEntity
  8
SIZE
 62
     0
100
AcDbText
 10
274.6432844803785
 20
-428.2857142857142
 30
0.0
 40
64.0
  1
12
 50
90.0
 41
0.9
100
AcDbText
  0
ENDBLK
  5
1F47
330
2B89
100
AcDbEntity
  8
0
100
AcDbBlockEnd
  0
BLOCK
  5
2B8C
330
2B8B
100
AcDbEntity
  8
0
100
AcDbBlockBegin
  2
*U63
 70
     1
 10
0.0
 20
0.0
 30
0.0
  3
*U63
  1

  0
ENDBLK
  5
1D57
330
2B8B
100
AcDbEntity
  8
0
100
AcDbBlockEnd
  0
BLOCK
  5
2B8E
330
2B8D
100
AcDbEntity
  8
0
100
AcDbBlockBegin
  2
*U64
 70
     1
 10
0.0
 20
0.0
 30
0.0
  3
*U64
  1

  0
INSERT
  5
2088
330
2B8D
100
AcDbEntity
  8
NOTE
100
AcDbBlockReference
  2
_OPEN30
 10
-140.0
 20
0.0
 30
0.0
 41
12.0
 42
12.0
 43
12.0
 50
312.6090116116894
  0
POLYLINE
  5
2089
330
2B8D
100
AcDbEntity
  8
NOTE
100
AcDb2dPolyline
 66
     1
 10
0.0
 20
0.0
 30
0.0
  0
VERTEX
  5
2124
330
2089
100
AcDbEntity
  8
NOTE
100
AcDbVertex
100
AcDb2dVertex
 10
-148.1239008361894
 20
8.831887408915473
 30
0.0
  0
VERTEX
  5
2125
330
2089
100
AcDbEntity
  8
NOTE
100
AcDbVertex
100
AcDb2dVertex
 10
-227.8693999922543
 20
95.52709505801338
 30
0.0
  0
VERTEX
  5
2126
330
2089
100
AcDbEntity
  8
NOTE
100
AcDbVertex
100
AcDb2dVertex
 10
-773.7093999922541
 20
95.52709505801338
 30
0.0
  0
SEQEND
  5
2127
330
2089
100
AcDbEntity
  8
NOTE
  0
ENDBLK
  5
208A
330
2B8D
100
AcDbEntity
  8
0
100
AcDbBlockEnd
  0
BLOCK
  5
2B90
330
2B8F
100
AcDbEntity
  8
0
100
AcDbBlockBegin
  2
*U65
 70
     1
 10
0.0
 20
0.0
 30
0.0
  3
*U65
  1

  0
TEXT
  5
208D
330
2B8F
100
AcDbEntity
  8
NOTE
100
AcDbText
 10
-773.7093999922541
 20
113.5270950580134
 30
0.0
 40
64.0
  1
4×φ10取付穴
 41
0.9
100
AcDbText
  0
ENDBLK
  5
208E
330
2B8F
100
AcDbEntity
  8
0
100
AcDbBlockEnd
  0
BLOCK
  5
2B92
330
2B91
100
AcDbEntity
  8
0
100
AcDbBlockBegin
  2
*U66
 70
     1
 10
0.0
 20
0.0
 30
0.0
  3
*U66
  1

  0
INSERT
  5
25A0
330
2B91
100
AcDbEntity
  8
NOTE
100
AcDbBlockReference
  2
_OPEN30
 10
-325.0
 20
0.0
 30
0.0
 41
12.0
 42
12.0
 43
12.0
 50
312.6090116116894
  0
POLYLINE
  5
25A1
330
2B91
100
AcDbEntity
  8
NOTE
100
AcDb2dPolyline
 66
     1
 10
0.0
 20
0.0
 30
0.0
  0
VERTEX
  5
25A2
330
25A1
100
AcDbEntity
  8
NOTE
100
AcDbVertex
100
AcDb2dVertex
 10
-333.1239008361895
 20
8.831887408915473
 30
0.0
  0
VERTEX
  5
25A3
330
25A1
100
AcDbEntity
  8
NOTE
100
AcDbVertex
100
AcDb2dVertex
 10
-412.8693999922543
 20
95.52709505801338
 30
0.0
  0
VERTEX
  5
25A4
330
25A1
100
AcDbEntity
  8
NOTE
100
AcDbVertex
100
AcDb2dVertex
 10
-958.7093999922544
 20
95.52709505801338
 30
0.0
  0
SEQEND
  5
25A5
330
25A1
100
AcDbEntity
  8
NOTE
  0
ENDBLK
  5
25A6
330
2B91
100
AcDbEntity
  8
0
100
AcDbBlockEnd
  0
BLOCK
  5
2B94
330
2B93
100
AcDbEntity
  8
0
100
AcDbBlockBegin
  2
*U67
 70
     1
 10
0.0
 20
0.0
 30
0.0
  3
*U67
  1

  0
TEXT
  5
25A9
330
2B93
100
AcDbEntity
  8
NOTE
100
AcDbText
 10
-958.7093999922544
 20
113.5270950580134
 30
0.0
 40
64.0
  1
4×φ15取付穴
 41
0.9
100
AcDbText
  0
ENDBLK
  5
25AA
330
2B93
100
AcDbEntity
  8
0
100
AcDbBlockEnd
  0
BLOCK
  5
2B96
330
2B95
100
AcDbEntity
  8
0
100
AcDbBlockBegin
  2
*U68
 70
     1
 10
0.0
 20
0.0
 30
0.0
  3
*U68
  1

  0
INSERT
  5
2880
330
2B95
100
AcDbEntity
  8
NOTE
100
AcDbBlockReference
  2
_OPEN30
 10
-325.0
 20
0.0
 30
0.0
 41
12.0
 42
12.0
 43
12.0
 50
312.6090116116894
  0
POLYLINE
  5
2881
330
2B95
100
AcDbEntity
  8
NOTE
100
AcDb2dPolyline
 66
     1
 10
0.0
 20
0.0
 30
0.0
  0
VERTEX
  5
2882
330
2881
100
AcDbEntity
  8
NOTE
100
AcDbVertex
100
AcDb2dVertex
 10
-333.1239008361895
 20
8.831887408915484
 30
0.0
  0
VERTEX
  5
2883
330
2881
100
AcDbEntity
  8
NOTE
100
AcDbVertex
100
AcDb2dVertex
 10
-412.8693999922541
 20
95.52709505801338
 30
0.0
  0
VERTEX
  5
2884
330
2881
100
AcDbEntity
  8
NOTE
100
AcDbVertex
100
AcDb2dVertex
 10
-958.7093999922542
 20
95.52709505801338
 30
0.0
  0
SEQEND
  5
2885
330
2881
100
AcDbEntity
  8
NOTE
  0
ENDBLK
  5
2886
330
2B95
100
AcDbEntity
  8
0
100
AcDbBlockEnd
  0
BLOCK
  5
2B98
330
2B97
100
AcDbEntity
  8
0
100
AcDbBlockBegin
  2
*U69
 70
     1
 10
0.0
 20
0.0
 30
0.0
  3
*U69
  1

  0
TEXT
  5
2889
330
2B97
100
AcDbEntity
  8
NOTE
100
AcDbText
 10
-958.7093999922542
 20
113.5270950580134
 30
0.0
 40
64.0
  1
4×φ15取付穴
 41
0.9
100
AcDbText
  0
ENDBLK
  5
288A
330
2B97
100
AcDbEntity
  8
0
100
AcDbBlockEnd
  0
BLOCK
  5
2B9A
330
2B99
100
AcDbEntity
  8
0
100
AcDbBlockBegin
  2
*X70
 70
     1
 10
0.0
 20
0.0
 30
0.0
  3
*X70
  1

  0
LINE
  5
288D
330
2B99
100
AcDbEntity
  8
0
 62
     0
100
AcDbLine
 10
-295.7000000000062
 20
-584.3126998560847
 30
0.0
 11
-291.7366676077254
 21
-586.1999999999969
 31
0.0
  0
LINE
  5
288E
330
2B99
100
AcDbEntity
  8
0
 62
     0
100
AcDbLine
 10
-295.7000000000062
 20
-574.31274811195
 30
0.0
 11
-270.7367578707362
 21
-586.1999999999969
 31
0.0
  0
LINE
  5
288F
330
2B99
100
AcDbEntity
  8
0
 62
     0
100
AcDbLine
 10
-295.700000000008
 20
-564.3127963678169
 30
0.0
 11
-249.7368481337435
 21
-586.1999999999989
 31
0.0
  0
LINE
  5
2890
330
2B99
100
AcDbEntity
  8
0
 62
     0
100
AcDbLine
 10
-295.7000000000044
 20
-554.3128446236833
 30
0.0
 11
-228.7369383967525
 21
-586.1999999999989
 31
0.0
  0
LINE
  5
2891
330
2B99
100
AcDbEntity
  8
0
 62
     0
100
AcDbLine
 10
-295.700000000008
 20
-544.3128928795476
 30
0.0
 11
-207.7370286597616
 21
-586.1999999999989
 31
0.0
  0
LINE
  5
2892
330
2B99
100
AcDbEntity
  8
0
 62
     0
100
AcDbLine
 10
-295.7000000000062
 20
-534.3129411354135
 30
0.0
 11
-186.7371189227706
 21
-586.1999999999977
 31
0.0
  0
LINE
  5
2893
330
2B99
100
AcDbEntity
  8
0
 62
     0
100
AcDbLine
 10
-295.7000000000062
 20
-524.312989391278
 30
0.0
 11
-165.7372091857796
 21
-586.1999999999977
 31
0.0
  0
LINE
  5
2894
330
2B99
100
AcDbEntity
  8
0
 62
     0
100
AcDbLine
 10
-295.7000000000098
 20
-514.3130376471424
 30
0.0
 11
-144.7372994487887
 21
-586.1999999999977
 31
0.0
  0
LINE
  5
2895
330
2B99
100
AcDbEntity
  8
0
 62
     0
100
AcDbLine
 10
-295.7000000000062
 20
-504.3130859030106
 30
0.0
 11
-123.7373897117977
 21
-586.1999999999998
 31
0.0
  0
LINE
  5
2896
330
2B99
100
AcDbEntity
  8
0
 62
     0
100
AcDbLine
 10
-295.700000000008
 20
-494.3131341588751
 30
0.0
 11
-102.7374799748049
 21
-586.1999999999998
 31
0.0
  0
LINE
  5
2897
330
2B99
100
AcDbEntity
  8
0
 62
     0
100
AcDbLine
 10
-295.7000000000062
 20
-484.3131824147413
 30
0.0
 11
-81.73757023781581
 21
-586.1999999999998
 31
0.0
  0
LINE
  5
2898
330
2B99
100
AcDbEntity
  8
0
 62
     0
100
AcDbLine
 10
-295.7000000000062
 20
-474.3132306706057
 30
0.0
 11
-60.73766050082122
 21
-586.1999999999998
 31
0.0
  0
LINE
  5
2899
330
2B99
100
AcDbEntity
  8
0
 62
     0
100
AcDbLine
 10
-295.7000000000062
 20
-464.3132789264718
 30
0.0
 11
-39.73775076383572
 21
-586.1999999999977
 31
0.0
  0
LINE
  5
289A
330
2B99
100
AcDbEntity
  8
0
 62
     0
100
AcDbLine
 10
-295.700000000008
 20
-454.3133271823379
 30
0.0
 11
-18.73784102684476
 21
-586.1999999999998
 31
0.0
  0
LINE
  5
289B
330
2B99
100
AcDbEntity
  8
0
 62
     0
100
AcDbLine
 10
-295.7000000000044
 20
-444.3133754382042
 30
0.0
 11
2.262068710148013
 21
-586.1999999999998
 31
0.0
  0
LINE
  5
289C
330
2B99
100
AcDbEntity
  8
0
 62
     0
100
AcDbLine
 10
-295.7000000000062
 20
-434.3134236940685
 30
0.0
 11
23.26197844713715
 21
-586.1999999999998
 31
0.0
  0
LINE
  5
289D
330
2B99
100
AcDbEntity
  8
0
 62
     0
100
AcDbLine
 10
-295.700000000008
 20
-424.3134719499328
 30
0.0
 11
44.26188818412994
 21
-586.1999999999989
 31
0.0
  0
LINE
  5
289E
330
2B99
100
AcDbEntity
  8
0
 62
     0
100
AcDbLine
 10
-295.7000000000062
 20
-414.3135202057989
 30
0.0
 11
65.26179792112086
 21
-586.1999999999989
 31
0.0
  0
LINE
  5
289F
330
2B99
100
AcDbEntity
  8
0
 62
     0
100
AcDbLine
 10
-295.700000000008
 20
-404.313568461665
 30
0.0
 11
86.26170765811185
 21
-586.2000000000007
 31
0.0
  0
LINE
  5
28A0
330
2B99
100
AcDbEntity
  8
0
 62
     0
100
AcDbLine
 10
-295.7000000000062
 20
-394.3136167175317
 30
0.0
 11
107.2616173951028
 21
-586.2000000000007
 31
0.0
  0
LINE
  5
28A1
330
2B99
100
AcDbEntity
  8
0
 62
     0
100
AcDbLine
 10
-295.7000000000062
 20
-384.3136649733962
 30
0.0
 11
128.2615271320919
 21
-586.1999999999989
 31
0.0
  0
LINE
  5
28A2
330
2B99
100
AcDbEntity
  8
0
 62
     0
100
AcDbLine
 10
-295.7000000000062
 20
-374.3137132292623
 30
0.0
 11
149.2614368690811
 21
-586.1999999999989
 31
0.0
  0
LINE
  5
28A3
330
2B99
100
AcDbEntity
  8
0
 62
     0
100
AcDbLine
 10
-295.700000000008
 20
-364.3137614851274
 30
0.0
 11
170.2613466060738
 21
-586.1999999999989
 31
0.0
  0
LINE
  5
28A4
330
2B99
100
AcDbEntity
  8
0
 62
     0
100
AcDbLine
 10
-295.7000000000044
 20
-354.3138097409928
 30
0.0
 11
191.2612563430648
 21
-586.1999999999989
 31
0.0
  0
LINE
  5
28A5
330
2B99
100
AcDbEntity
  8
0
 62
     0
100
AcDbLine
 10
-295.700000000008
 20
-344.31385799686
 30
0.0
 11
212.261166080054
 21
-586.2000000000007
 31
0.0
  0
LINE
  5
28A6
330
2B99
100
AcDbEntity
  8
0
 62
     0
100
AcDbLine
 10
-295.700000000008
 20
-334.3139062527243
 30
0.0
 11
233.2610758170431
 21
-586.1999999999989
 31
0.0
  0
LINE
  5
28A7
330
2B99
100
AcDbEntity
  8
0
 62
     0
100
AcDbLine
 10
-295.7000000000062
 20
-324.3139545085905
 30
0.0
 11
254.260985554034
 21
-586.1999999999989
 31
0.0
  0
LINE
  5
28A8
330
2B99
100
AcDbEntity
  8
0
 62
     0
100
AcDbLine
 10
-295.700000000008
 20
-314.314002764455
 30
0.0
 11
275.260895291025
 21
-586.1999999999989
 31
0.0
  0
LINE
  5
28A9
330
2B99
100
AcDbEntity
  8
0
 62
     0
100
AcDbLine
 10
-295.7000000000044
 20
-304.314051020321
 30
0.0
 11
295.6999999999971
 21
-585.9329501274832
 31
0.0
  0
LINE
  5
28AA
330
2B99
100
AcDbEntity
  8
0
 62
     0
100
AcDbLine
 10
-295.700000000008
 20
-294.3140992761872
 30
0.0
 11
295.6999999999935
 21
-575.9329983833492
 31
0.0
  0
LINE
  5
28AB
330
2B99
100
AcDbEntity
  8
0
 62
     0
100
AcDbLine
 10
-295.7000000000044
 20
-284.3141475320535
 30
0.0
 11
295.6999999999953
 21
-565.9330466392153
 31
0.0
  0
LINE
  5
28AC
330
2B99
100
AcDbEntity
  8
0
 62
     0
100
AcDbLine
 10
-295.7000000000062
 20
-274.3141957879179
 30
0.0
 11
295.6999999999953
 21
-555.9330948950798
 31
0.0
  0
LINE
  5
28AD
330
2B99
100
AcDbEntity
  8
0
 62
     0
100
AcDbLine
 10
-295.7000000000062
 20
-264.3142440437841
 30
0.0
 11
295.6999999999916
 21
-545.9331431509451
 31
0.0
  0
LINE
  5
28AE
330
2B99
100
AcDbEntity
  8
0
 62
     0
100
AcDbLine
 10
-295.7000000000062
 20
-254.3142922996485
 30
0.0
 11
295.6999999999953
 21
-535.9331914068105
 31
0.0
  0
LINE
  5
28AF
330
2B99
100
AcDbEntity
  8
0
 62
     0
100
AcDbLine
 10
-295.700000000008
 20
-244.3143405555129
 30
0.0
 11
295.6999999999935
 21
-525.9332396626757
 31
0.0
  0
LINE
  5
28B0
330
2B99
100
AcDbEntity
  8
0
 62
     0
100
AcDbLine
 10
-295.7000000000062
 20
-234.3143888113809
 30
0.0
 11
295.6999999999935
 21
-515.9332879185431
 31
0.0
  0
LINE
  5
28B1
330
2B99
100
AcDbEntity
  8
0
 62
     0
100
AcDbLine
 10
-295.700000000008
 20
-224.3144370672453
 30
0.0
 11
295.6999999999935
 21
-505.9333361744083
 31
0.0
  0
LINE
  5
28B2
330
2B99
100
AcDbEntity
  8
0
 62
     0
100
AcDbLine
 10
-295.7000000000044
 20
-214.3144853231115
 30
0.0
 11
295.6999999999953
 21
-495.9333844302745
 31
0.0
  0
LINE
  5
28B3
330
2B99
100
AcDbEntity
  8
0
 62
     0
100
AcDbLine
 10
-295.700000000008
 20
-204.3145335789759
 30
0.0
 11
295.6999999999935
 21
-485.9334326861388
 31
0.0
  0
LINE
  5
28B4
330
2B99
100
AcDbEntity
  8
0
 62
     0
100
AcDbLine
 10
-295.7000000000062
 20
-194.3145818348421
 30
0.0
 11
295.6999999999916
 21
-475.9334809420034
 31
0.0
  0
LINE
  5
28B5
330
2B99
100
AcDbEntity
  8
0
 62
     0
100
AcDbLine
 10
-295.7000000000062
 20
-184.3146300907083
 30
0.0
 11
295.6999999999935
 21
-465.933529197871
 31
0.0
  0
LINE
  5
28B6
330
2B99
100
AcDbEntity
  8
0
 62
     0
100
AcDbLine
 10
-295.7000000000062
 20
-174.3146783465745
 30
0.0
 11
295.6999999999916
 21
-455.9335774537356
 31
0.0
  0
LINE
  5
28B7
330
2B99
100
AcDbEntity
  8
0
 62
     0
100
AcDbLine
 10
-295.7000000000062
 20
-164.3147266024389
 30
0.0
 11
295.6999999999935
 21
-445.9336257096018
 31
0.0
  0
LINE
  5
28B8
330
2B99
100
AcDbEntity
  8
0
 62
     0
100
AcDbLine
 10
-295.700000000008
 20
-154.3147748583042
 30
0.0
 11
295.6999999999935
 21
-435.9336739654663
 31
0.0
  0
LINE
  5
28B9
330
2B99
100
AcDbEntity
  8
0
 62
     0
100
AcDbLine
 10
-295.700000000008
 20
-144.3148231141704
 30
0.0
 11
295.6999999999935
 21
-425.9337222213323
 31
0.0
  0
LINE
  5
28BA
330
2B99
100
AcDbEntity
  8
0
 62
     0
100
AcDbLine
 10
-295.7000000000062
 20
-134.3148713700366
 30
0.0
 11
295.6999999999916
 21
-415.9337704771969
 31
0.0
  0
LINE
  5
28BB
330
2B99
100
AcDbEntity
  8
0
 62
     0
100
AcDbLine
 10
-295.7000000000062
 20
-124.3149196259028
 30
0.0
 11
295.6999999999916
 21
-405.9338187330631
 31
0.0
  0
LINE
  5
28BC
330
2B99
100
AcDbEntity
  8
0
 62
     0
100
AcDbLine
 10
-295.7000000000062
 20
-114.3149678817672
 30
0.0
 11
295.6999999999898
 21
-395.9338669889275
 31
0.0
  0
LINE
  5
28BD
330
2B99
100
AcDbEntity
  8
0
 62
     0
100
AcDbLine
 10
-295.7000000000044
 20
-104.3150161376334
 30
0.0
 11
295.6999999999898
 21
-385.9339152447928
 31
0.0
  0
LINE
  5
28BE
330
2B99
100
AcDbEntity
  8
0
 62
     0
100
AcDbLine
 10
-295.700000000008
 20
-94.31506439349778
 30
0.0
 11
295.6999999999898
 21
-375.933963500658
 31
0.0
  0
LINE
  5
28BF
330
2B99
100
AcDbEntity
  8
0
 62
     0
100
AcDbLine
 10
-295.700000000008
 20
-84.31511264936215
 30
0.0
 11
295.6999999999898
 21
-365.9340117565234
 31
0.0
  0
LINE
  5
28C0
330
2B99
100
AcDbEntity
  8
0
 62
     0
100
AcDbLine
 10
-295.7000000000062
 20
-74.31516090523018
 30
0.0
 11
295.6999999999916
 21
-355.9340600123915
 31
0.0
  0
LINE
  5
28C1
330
2B99
100
AcDbEntity
  8
0
 62
     0
100
AcDbLine
 10
79.89999999999056
 20
-243.1722576978718
 30
0.0
 11
97.59826816764508
 21
-251.5999999999996
 31
0.0
  0
LINE
  5
28C2
330
2B99
100
AcDbEntity
  8
0
 62
     0
100
AcDbLine
 10
97.59826816764508
 20
-251.5999999999996
 30
0.0
 11
295.6999999999898
 21
-345.9341082682558
 31
0.0
  0
LINE
  5
28C3
330
2B99
100
AcDbEntity
  8
0
 62
     0
100
AcDbLine
 10
-295.700000000008
 20
-64.31520916109457
 30
0.0
 11
79.89999999999056
 21
-243.1722576978718
 31
0.0
  0
LINE
  5
28C4
330
2B99
100
AcDbEntity
  8
0
 62
     0
100
AcDbLine
 10
79.89999999999419
 20
-233.1723059537381
 30
0.0
 11
118.5981779046378
 21
-251.5999999999996
 31
0.0
  0
LINE
  5
28C5
330
2B99
100
AcDbEntity
  8
0
 62
     0
100
AcDbLine
 10
118.5981779046378
 20
-251.5999999999996
 30
0.0
 11
295.6999999999916
 21
-335.9341565241221
 31
0.0
  0
LINE
  5
28C6
330
2B99
100
AcDbEntity
  8
0
 62
     0
100
AcDbLine
 10
-288.3820367164935
 20
-57.79999999999927
 30
0.0
 11
79.89999999999419
 21
-233.1723059537381
 31
0.0
  0
LINE
  5
28C7
330
2B99
100
AcDbEntity
  8
0
 62
     0
100
AcDbLine
 10
79.89999999999236
 20
-223.1723542096024
 30
0.0
 11
139.5980876416288
 21
-251.5999999999985
 31
0.0
  0
LINE
  5
28C8
330
2B99
100
AcDbEntity
  8
0
 62
     0
100
AcDbLine
 10
139.5980876416288
 20
-251.5999999999985
 30
0.0
 11
295.6999999999898
 21
-325.9342047799864
 31
0.0
  0
LINE
  5
28C9
330
2B99
100
AcDbEntity
  8
0
 62
     0
100
AcDbLine
 10
-267.3821269795026
 20
-57.79999999999927
 30
0.0
 11
79.89999999999236
 21
-223.1723542096024
 31
0.0
  0
LINE
  5
28CA
330
2B99
100
AcDbEntity
  8
0
 62
     0
100
AcDbLine
 10
79.89999999999236
 20
-213.1724024654686
 30
0.0
 11
160.5979973786197
 21
-251.5999999999985
 31
0.0
  0
LINE
  5
28CB
330
2B99
100
AcDbEntity
  8
0
 62
     0
100
AcDbLine
 10
160.5979973786197
 20
-251.5999999999985
 30
0.0
 11
295.6999999999916
 21
-315.9342530358525
 31
0.0
  0
LINE
  5
28CC
330
2B99
100
AcDbEntity
  8
0
 62
     0
100
AcDbLine
 10
-246.3822172425135
 20
-57.79999999999927
 30
0.0
 11
79.89999999999236
 21
-213.1724024654686
 31
0.0
  0
LINE
  5
28CD
330
2B99
100
AcDbEntity
  8
0
 62
     0
100
AcDbLine
 10
79.89999999999236
 20
-203.1724507213348
 30
0.0
 11
181.5979071156107
 21
-251.6000000000004
 31
0.0
  0
LINE
  5
28CE
330
2B99
100
AcDbEntity
  8
0
 62
     0
100
AcDbLine
 10
181.5979071156107
 20
-251.6000000000004
 30
0.0
 11
295.6999999999898
 21
-305.9343012917188
 31
0.0
  0
LINE
  5
28CF
330
2B99
100
AcDbEntity
  8
0
 62
     0
100
AcDbLine
 10
-225.3823075055207
 20
-57.80000000000111
 30
0.0
 11
79.89999999999236
 21
-203.1724507213348
 31
0.0
  0
LINE
  5
28D0
330
2B99
100
AcDbEntity
  8
0
 62
     0
100
AcDbLine
 10
79.89999999999056
 20
-193.1724989771992
 30
0.0
 11
202.5978168526017
 21
-251.6000000000004
 31
0.0
  0
LINE
  5
28D1
330
2B99
100
AcDbEntity
  8
0
 62
     0
100
AcDbLine
 10
202.5978168526017
 20
-251.6000000000004
 30
0.0
 11
295.6999999999898
 21
-295.9343495475832
 31
0.0
  0
LINE
  5
28D2
330
2B99
100
AcDbEntity
  8
0
 62
     0
100
AcDbLine
 10
-204.3823977685297
 20
-57.80000000000111
 30
0.0
 11
79.89999999999056
 21
-193.1724989771992
 31
0.0
  0
LINE
  5
28D3
330
2B99
100
AcDbEntity
  8
0
 62
     0
100
AcDbLine
 10
79.89999999999236
 20
-183.1725472330654
 30
0.0
 11
223.5977265895926
 21
-251.6000000000004
 31
0.0
  0
LINE
  5
28D4
330
2B99
100
AcDbEntity
  8
0
 62
     0
100
AcDbLine
 10
223.5977265895926
 20
-251.6000000000004
 30
0.0
 11
295.6999999999898
 21
-285.9343978034494
 31
0.0
  0
LINE
  5
28D5
330
2B99
100
AcDbEntity
  8
0
 62
     0
100
AcDbLine
 10
-183.3824880315424
 20
-57.79999999999927
 30
0.0
 11
79.89999999999236
 21
-183.1725472330654
 31
0.0
  0
LINE
  5
28D6
330
2B99
100
AcDbEntity
  8
0
 62
     0
100
AcDbLine
 10
79.89999999999236
 20
-173.1725954889298
 30
0.0
 11
244.5976363265818
 21
-251.5999999999985
 31
0.0
  0
LINE
  5
28D7
330
2B99
100
AcDbEntity
  8
0
 62
     0
100
AcDbLine
 10
244.5976363265854
 20
-251.6000000000004
 30
0.0
 11
295.6999999999898
 21
-275.9344460593138
 31
0.0
  0
LINE
  5
28D8
330
2B99
100
AcDbEntity
  8
0
 62
     0
100
AcDbLine
 10
-162.3825782945496
 20
-57.79999999999927
 30
0.0
 11
79.89999999999236
 21
-173.1725954889298
 31
0.0
  0
LINE
  5
28D9
330
2B99
100
AcDbEntity
  8
0
 62
     0
100
AcDbLine
 10
79.89999999999236
 20
-163.172643744796
 30
0.0
 11
265.5975460635727
 21
-251.5999999999985
 31
0.0
  0
LINE
  5
28DA
330
2B99
100
AcDbEntity
  8
0
 62
     0
100
AcDbLine
 10
265.5975460635727
 20
-251.5999999999985
 30
0.0
 11
295.6999999999916
 21
-265.93449431518
 31
0.0
  0
LINE
  5
28DB
330
2B99
100
AcDbEntity
  8
0
 62
     0
100
AcDbLine
 10
-141.3826685575586
 20
-57.79999999999927
 30
0.0
 11
79.89999999999236
 21
-163.172643744796
 31
0.0
  0
LINE
  5
28DC
330
2B99
100
AcDbEntity
  8
0
 62
     0
100
AcDbLine
 10
79.89999999999056
 20
-153.1726920006622
 30
0.0
 11
286.5974558005582
 21
-251.5999999999985
 31
0.0
  0
LINE
  5
28DD
330
2B99
100
AcDbEntity
  8
0
 62
     0
100
AcDbLine
 10
286.5974558005619
 20
-251.6000000000004
 30
0.0
 11
295.699999999988
 21
-255.9345425710461
 31
0.0
  0
LINE
  5
28DE
330
2B99
100
AcDbEntity
  8
0
 62
     0
100
AcDbLine
 10
-120.3827588205695
 20
-57.80000000000111
 30
0.0
 11
79.89999999999056
 21
-153.1726920006622
 31
0.0
  0
LINE
  5
28DF
330
2B99
100
AcDbEntity
  8
0
 62
     0
100
AcDbLine
 10
79.89999999999419
 20
-143.1727402565284
 30
0.0
 11
295.6999999999953
 21
-245.9345908269142
 31
0.0
  0
LINE
  5
28E0
330
2B99
100
AcDbEntity
  8
0
 62
     0
100
AcDbLine
 10
-99.38284908357493
 20
-57.80000000000111
 30
0.0
 11
79.89999999999419
 21
-143.1727402565284
 31
0.0
  0
LINE
  5
28E1
330
2B99
100
AcDbEntity
  8
0
 62
     0
100
AcDbLine
 10
79.89999999999236
 20
-133.1727885123928
 30
0.0
 11
295.6999999999935
 21
-235.9346390827786
 31
0.0
  0
LINE
  5
28E2
330
2B99
100
AcDbEntity
  8
0
 62
     0
100
AcDbLine
 10
-78.3829393465858
 20
-57.80000000000018
 30
0.0
 11
79.89999999999236
 21
-133.1727885123928
 31
0.0
  0
LINE
  5
28E3
330
2B99
100
AcDbEntity
  8
0
 62
     0
100
AcDbLine
 10
79.89999999999419
 20
-123.172836768259
 30
0.0
 11
295.6999999999953
 21
-225.9346873386448
 31
0.0
  0
LINE
  5
28E4
330
2B99
100
AcDbEntity
  8
0
 62
     0
100
AcDbLine
 10
-57.38302960959481
 20
-57.80000000000018
 30
0.0
 11
79.89999999999056
 21
-123.172836768258
 31
0.0
  0
LINE
  5
28E5
330
2B99
100
AcDbEntity
  8
0
 62
     0
100
AcDbLine
 10
79.89999999999419
 20
-113.1728850241234
 30
0.0
 11
295.6999999999953
 21
-215.9347355945092
 31
0.0
  0
LINE
  5
28E6
330
2B99
100
AcDbEntity
  8
0
 62
     0
100
AcDbLine
 10
-36.38311987260204
 20
-57.80000000000018
 30
0.0
 11
79.89999999999419
 21
-113.1728850241234
 31
0.0
  0
LINE
  5
28E7
330
2B99
100
AcDbEntity
  8
0
 62
     0
100
AcDbLine
 10
79.89999999999056
 20
-103.1729332799887
 30
0.0
 11
295.6999999999953
 21
-205.9347838503754
 31
0.0
  0
LINE
  5
28E8
330
2B99
100
AcDbEntity
  8
0
 62
     0
100
AcDbLine
 10
-15.3832101356129
 20
-57.80000000000018
 30
0.0
 11
79.89999999999056
 21
-103.1729332799887
 31
0.0
  0
LINE
  5
28E9
330
2B99
100
AcDbEntity
  8
0
 62
     0
100
AcDbLine
 10
79.89999999999236
 20
-93.17298153585579
 30
0.0
 11
295.6999999999935
 21
-195.9348321062416
 31
0.0
  0
LINE
  5
28EA
330
2B99
100
AcDbEntity
  8
0
 62
     0
100
AcDbLine
 10
5.616699601379878
 20
-57.800000000002
 30
0.0
 11
79.89999999999236
 21
-93.17298153585579
 31
0.0
  0
LINE
  5
28EB
330
2B99
100
AcDbEntity
  8
0
 62
     0
100
AcDbLine
 10
79.89999999999236
 20
-83.1730297917211
 30
0.0
 11
295.6999999999971
 21
-185.9348803621078
 31
0.0
  0
LINE
  5
28EC
330
2B99
100
AcDbEntity
  8
0
 62
     0
100
AcDbLine
 10
26.6166093383672
 20
-57.80000000000018
 30
0.0
 11
79.89999999999236
 21
-83.1730297917211
 31
0.0
  0
LINE
  5
28ED
330
2B99
100
AcDbEntity
  8
0
 62
     0
100
AcDbLine
 10
79.89999999999236
 20
-73.1730780475873
 30
0.0
 11
295.6999999999935
 21
-175.9349286179722
 31
0.0
  0
LINE
  5
28EE
330
2B99
100
AcDbEntity
  8
0
 62
     0
100
AcDbLine
 10
47.61651907535815
 20
-57.80000000000018
 30
0.0
 11
79.89999999998872
 21
-73.17307804758545
 31
0.0
  0
LINE
  5
28EF
330
2B99
100
AcDbEntity
  8
0
 62
     0
100
AcDbLine
 10
79.89999999999236
 20
-63.17312630345168
 30
0.0
 11
295.6999999999935
 21
-165.9349768738366
 31
0.0
  0
LINE
  5
28F0
330
2B99
100
AcDbEntity
  8
0
 62
     0
100
AcDbLine
 10
68.61642881234911
 20
-57.80000000000018
 30
0.0
 11
79.89999999999236
 21
-63.17312630345168
 31
0.0
  0
LINE
  5
28F1
330
2B99
100
AcDbEntity
  8
0
 62
     0
100
AcDbLine
 10
89.6163385493419
 20
-57.80000000000018
 30
0.0
 11
295.6999999999953
 21
-155.9350251297028
 31
0.0
  0
LINE
  5
28F2
330
2B99
100
AcDbEntity
  8
0
 62
     0
100
AcDbLine
 10
110.6162482863274
 20
-57.80000000000018
 30
0.0
 11
295.6999999999916
 21
-145.935073385569
 31
0.0
  0
LINE
  5
28F3
330
2B99
100
AcDbEntity
  8
0
 62
     0
100
AcDbLine
 10
131.6161580233201
 20
-57.80000000000018
 30
0.0
 11
295.6999999999953
 21
-135.9351216414352
 31
0.0
  0
LINE
  5
28F4
330
2B99
100
AcDbEntity
  8
0
 62
     0
100
AcDbLine
 10
152.6160677603111
 20
-57.80000000000018
 30
0.0
 11
295.6999999999935
 21
-125.9351698972996
 31
0.0
  0
LINE
  5
28F5
330
2B99
100
AcDbEntity
  8
0
 62
     0
100
AcDbLine
 10
173.6159774973002
 20
-57.80000000000018
 30
0.0
 11
295.6999999999953
 21
-115.9352181531658
 31
0.0
  0
LINE
  5
28F6
330
2B99
100
AcDbEntity
  8
0
 62
     0
100
AcDbLine
 10
194.6158872342948
 20
-57.79999999999927
 30
0.0
 11
295.6999999999953
 21
-105.9352664090302
 31
0.0
  0
LINE
  5
28F7
330
2B99
100
AcDbEntity
  8
0
 62
     0
100
AcDbLine
 10
215.615796971284
 20
-57.79999999999927
 30
0.0
 11
295.6999999999953
 21
-95.93531466489642
 31
0.0
  0
LINE
  5
28F8
330
2B99
100
AcDbEntity
  8
0
 62
     0
100
AcDbLine
 10
236.6157067082749
 20
-57.80000000000111
 30
0.0
 11
295.6999999999935
 21
-85.93536292076349
 31
0.0
  0
LINE
  5
28F9
330
2B99
100
AcDbEntity
  8
0
 62
     0
100
AcDbLine
 10
257.6156164452641
 20
-57.79999999999927
 30
0.0
 11
295.6999999999935
 21
-75.93541117662789
 31
0.0
  0
LINE
  5
28FA
330
2B99
100
AcDbEntity
  8
0
 62
     0
100
AcDbLine
 10
278.6155261822551
 20
-57.79999999999927
 30
0.0
 11
295.6999999999953
 21
-65.93545943249409
 31
0.0
  0
ENDBLK
  5
28FB
330
2B99
100
AcDbEntity
  8
0
100
AcDbBlockEnd
  0
BLOCK
  5
2B9C
330
2B9B
100
AcDbEntity
  8
0
100
AcDbBlockBegin
  2
*X71
 70
     1
 10
0.0
 20
0.0
 30
0.0
  3
*X71
  1

  0
LINE
  5
28FE
330
2B9B
100
AcDbEntity
  8
0
 62
     0
100
AcDbLine
 10
292.2675752934811
 20
-586.1999999999977
 30
0.0
 11
295.7000000000008
 21
-584.5655129064597
 31
0.0
  0
LINE
  5
28FF
330
2B9B
100
AcDbEntity
  8
0
 62
     0
100
AcDbLine
 10
271.2676655564901
 20
-586.1999999999977
 30
0.0
 11
295.7000000000008
 21
-574.5655611623261
 31
0.0
  0
LINE
  5
2900
330
2B9B
100
AcDbEntity
  8
0
 62
     0
100
AcDbLine
 10
250.2677558195064
 20
-586.1999999999969
 30
0.0
 11
295.7000000000044
 21
-564.5656094181912
 31
0.0
  0
LINE
  5
2901
330
2B9B
100
AcDbEntity
  8
0
 62
     0
100
AcDbLine
 10
229.2678460825118
 20
-586.1999999999969
 30
0.0
 11
295.7000000000008
 21
-554.5656576740576
 31
0.0
  0
LINE
  5
2902
330
2B9B
100
AcDbEntity
  8
0
 62
     0
100
AcDbLine
 10
208.2679363455209
 20
-586.1999999999969
 30
0.0
 11
295.7000000000008
 21
-544.5657059299218
 31
0.0
  0
LINE
  5
2903
330
2B9B
100
AcDbEntity
  8
0
 62
     0
100
AcDbLine
 10
187.2680266085297
 20
-586.1999999999977
 30
0.0
 11
295.7000000000008
 21
-534.5657541857881
 31
0.0
  0
LINE
  5
2904
330
2B9B
100
AcDbEntity
  8
0
 62
     0
100
AcDbLine
 10
166.2681168715388
 20
-586.1999999999969
 30
0.0
 11
295.7000000000008
 21
-524.5658024416542
 31
0.0
  0
LINE
  5
2905
330
2B9B
100
AcDbEntity
  8
0
 62
     0
100
AcDbLine
 10
145.268207134548
 20
-586.1999999999977
 30
0.0
 11
295.7000000000044
 21
-514.5658506975196
 31
0.0
  0
LINE
  5
2906
330
2B9B
100
AcDbEntity
  8
0
 62
     0
100
AcDbLine
 10
124.268297397557
 20
-586.1999999999977
 30
0.0
 11
295.7000000000044
 21
-504.5658989533857
 31
0.0
  0
LINE
  5
2907
330
2B9B
100
AcDbEntity
  8
0
 62
     0
100
AcDbLine
 10
103.268387660566
 20
-586.1999999999977
 30
0.0
 11
295.7000000000008
 21
-494.5659472092502
 31
0.0
  0
LINE
  5
2908
330
2B9B
100
AcDbEntity
  8
0
 62
     0
100
AcDbLine
 10
82.26847792357512
 20
-586.1999999999989
 30
0.0
 11
295.7000000000008
 21
-484.565995465117
 31
0.0
  0
LINE
  5
2909
330
2B9B
100
AcDbEntity
  8
0
 62
     0
100
AcDbLine
 10
61.26856818658052
 20
-586.1999999999989
 30
0.0
 11
295.7000000000008
 21
-474.5660437209815
 31
0.0
  0
LINE
  5
290A
330
2B9B
100
AcDbEntity
  8
0
 62
     0
100
AcDbLine
 10
40.2686584495932
 20
-586.1999999999989
 30
0.0
 11
295.7000000000008
 21
-464.5660919768478
 31
0.0
  0
LINE
  5
290B
330
2B9B
100
AcDbEntity
  8
0
 62
     0
100
AcDbLine
 10
19.26874871260588
 20
-586.1999999999977
 30
0.0
 11
295.7000000000008
 21
-454.5661402327131
 31
0.0
  0
LINE
  5
290C
330
2B9B
100
AcDbEntity
  8
0
 62
     0
100
AcDbLine
 10
-1.731161024388709
 20
-586.1999999999977
 30
0.0
 11
295.7000000000008
 21
-444.5661884885776
 31
0.0
  0
LINE
  5
290D
330
2B9B
100
AcDbEntity
  8
0
 62
     0
100
AcDbLine
 10
-22.73107076137967
 20
-586.1999999999989
 30
0.0
 11
295.7000000000008
 21
-434.5662367444446
 31
0.0
  0
LINE
  5
290E
330
2B9B
100
AcDbEntity
  8
0
 62
     0
100
AcDbLine
 10
-43.73098049836335
 20
-586.1999999999969
 30
0.0
 11
295.7000000000044
 21
-424.5662850003091
 31
0.0
  0
LINE
  5
290F
330
2B9B
100
AcDbEntity
  8
0
 62
     0
100
AcDbLine
 10
-64.73089023535793
 20
-586.1999999999969
 30
0.0
 11
295.6999999999971
 21
-414.5663332561769
 31
0.0
  0
LINE
  5
2910
330
2B9B
100
AcDbEntity
  8
0
 62
     0
100
AcDbLine
 10
-85.7307999723489
 20
-586.1999999999977
 30
0.0
 11
295.7000000000008
 21
-404.5663815120421
 31
0.0
  0
LINE
  5
2911
330
2B9B
100
AcDbEntity
  8
0
 62
     0
100
AcDbLine
 10
-106.7307097093398
 20
-586.1999999999977
 30
0.0
 11
295.6999999999971
 21
-394.5664297679088
 31
0.0
  0
LINE
  5
2912
330
2B9B
100
AcDbEntity
  8
0
 62
     0
100
AcDbLine
 10
-127.7306194463308
 20
-586.1999999999977
 30
0.0
 11
295.6999999999971
 21
-384.566478023773
 31
0.0
  0
LINE
  5
2913
330
2B9B
100
AcDbEntity
  8
0
 62
     0
100
AcDbLine
 10
-148.7305291833218
 20
-586.1999999999989
 30
0.0
 11
295.6999999999971
 21
-374.5665262796401
 31
0.0
  0
LINE
  5
2914
330
2B9B
100
AcDbEntity
  8
0
 62
     0
100
AcDbLine
 10
-169.7304389203164
 20
-586.1999999999989
 30
0.0
 11
295.6999999999971
 21
-364.5665745355045
 31
0.0
  0
LINE
  5
2915
330
2B9B
100
AcDbEntity
  8
0
 62
     0
100
AcDbLine
 10
-190.7303486573037
 20
-586.1999999999998
 30
0.0
 11
295.6999999999971
 21
-354.5666227913698
 31
0.0
  0
LINE
  5
2916
330
2B9B
100
AcDbEntity
  8
0
 62
     0
100
AcDbLine
 10
-211.7302583942946
 20
-586.1999999999977
 30
0.0
 11
295.6999999999971
 21
-344.566671047236
 31
0.0
  0
LINE
  5
2917
330
2B9B
100
AcDbEntity
  8
0
 62
     0
100
AcDbLine
 10
-232.7301681312856
 20
-586.1999999999977
 30
0.0
 11
295.7000000000008
 21
-334.5667193031002
 31
0.0
  0
LINE
  5
2918
330
2B9B
100
AcDbEntity
  8
0
 62
     0
100
AcDbLine
 10
-253.7300778682766
 20
-586.1999999999969
 30
0.0
 11
295.6999999999971
 21
-324.5667675589675
 31
0.0
  0
LINE
  5
2919
330
2B9B
100
AcDbEntity
  8
0
 62
     0
100
AcDbLine
 10
-274.7299876052639
 20
-586.1999999999969
 30
0.0
 11
295.7000000000008
 21
-314.5668158148319
 31
0.0
  0
LINE
  5
291A
330
2B9B
100
AcDbEntity
  8
0
 62
     0
100
AcDbLine
 10
-295.7000000000044
 20
-586.1857631778603
 30
0.0
 11
295.6999999999971
 21
-304.5668640706981
 31
0.0
  0
LINE
  5
291B
330
2B9B
100
AcDbEntity
  8
0
 62
     0
100
AcDbLine
 10
-295.7000000000008
 20
-576.1858114337257
 30
0.0
 11
295.6999999999971
 21
-294.5669123265634
 31
0.0
  0
LINE
  5
291C
330
2B9B
100
AcDbEntity
  8
0
 62
     0
100
AcDbLine
 10
-295.7000000000044
 20
-566.1858596895918
 30
0.0
 11
295.6999999999971
 21
-284.5669605824296
 31
0.0
  0
LINE
  5
291D
330
2B9B
100
AcDbEntity
  8
0
 62
     0
100
AcDbLine
 10
-295.7000000000044
 20
-556.1859079454585
 30
0.0
 11
295.6999999999971
 21
-274.5670088382949
 31
0.0
  0
LINE
  5
291E
330
2B9B
100
AcDbEntity
  8
0
 62
     0
100
AcDbLine
 10
-295.7000000000008
 20
-546.185956201323
 30
0.0
 11
295.6999999999971
 21
-264.5670570941611
 31
0.0
  0
LINE
  5
291F
330
2B9B
100
AcDbEntity
  8
0
 62
     0
100
AcDbLine
 10
-295.7000000000008
 20
-536.1860044571891
 30
0.0
 11
295.7000000000008
 21
-254.5671053500255
 31
0.0
  0
LINE
  5
2920
330
2B9B
100
AcDbEntity
  8
0
 62
     0
100
AcDbLine
 10
280.9310147839424
 20
-251.5999999999985
 30
0.0
 11
295.7000000000008
 21
-244.5671536058899
 31
0.0
  0
LINE
  5
2921
330
2B9B
100
AcDbEntity
  8
0
 62
     0
100
AcDbLine
 10
-295.7000000000008
 20
-526.1860527130545
 30
0.0
 11
280.9310147839424
 21
-251.5999999999985
 31
0.0
  0
LINE
  5
2922
330
2B9B
100
AcDbEntity
  8
0
 62
     0
100
AcDbLine
 10
259.931105046955
 20
-251.5999999999985
 30
0.0
 11
295.7000000000008
 21
-234.5672018617561
 31
0.0
  0
LINE
  5
2923
330
2B9B
100
AcDbEntity
  8
0
 62
     0
100
AcDbLine
 10
-295.7000000000044
 20
-516.186100968921
 30
0.0
 11
259.931105046955
 21
-251.5999999999985
 31
0.0
  0
LINE
  5
2924
330
2B9B
100
AcDbEntity
  8
0
 62
     0
100
AcDbLine
 10
238.9311953099678
 20
-251.5999999999967
 30
0.0
 11
295.7000000000044
 21
-224.5672501176205
 31
0.0
  0
LINE
  5
2925
330
2B9B
100
AcDbEntity
  8
0
 62
     0
100
AcDbLine
 10
-295.7000000000008
 20
-506.1861492247851
 30
0.0
 11
238.9311953099678
 21
-251.5999999999967
 31
0.0
  0
LINE
  5
2926
330
2B9B
100
AcDbEntity
  8
0
 62
     0
100
AcDbLine
 10
217.9312855729731
 20
-251.5999999999976
 30
0.0
 11
295.7000000000008
 21
-214.5672983734876
 31
0.0
  0
LINE
  5
2927
330
2B9B
100
AcDbEntity
  8
0
 62
     0
100
AcDbLine
 10
-295.7000000000044
 20
-496.1861974806525
 30
0.0
 11
217.9312855729731
 21
-251.5999999999976
 31
0.0
  0
LINE
  5
2928
330
2B9B
100
AcDbEntity
  8
0
 62
     0
100
AcDbLine
 10
196.9313758359857
 20
-251.5999999999976
 30
0.0
 11
295.7000000000008
 21
-204.567346629352
 31
0.0
  0
LINE
  5
2929
330
2B9B
100
AcDbEntity
  8
0
 62
     0
100
AcDbLine
 10
-295.7000000000008
 20
-486.1862457365169
 30
0.0
 11
196.9313758359857
 21
-251.5999999999976
 31
0.0
  0
LINE
  5
292A
330
2B9B
100
AcDbEntity
  8
0
 62
     0
100
AcDbLine
 10
175.9314660989912
 20
-251.5999999999985
 30
0.0
 11
295.7000000000008
 21
-194.5673948852171
 31
0.0
  0
LINE
  5
292B
330
2B9B
100
AcDbEntity
  8
0
 62
     0
100
AcDbLine
 10
-295.7000000000044
 20
-476.1862939923823
 30
0.0
 11
175.9314660989912
 21
-251.5999999999985
 31
0.0
  0
LINE
  5
292C
330
2B9B
100
AcDbEntity
  8
0
 62
     0
100
AcDbLine
 10
154.9315563620002
 20
-251.5999999999985
 30
0.0
 11
295.7000000000008
 21
-184.5674431410834
 31
0.0
  0
LINE
  5
292D
330
2B9B
100
AcDbEntity
  8
0
 62
     0
100
AcDbLine
 10
-295.7000000000044
 20
-466.1863422482483
 30
0.0
 11
154.9315563620002
 21
-251.5999999999985
 31
0.0
  0
LINE
  5
292E
330
2B9B
100
AcDbEntity
  8
0
 62
     0
100
AcDbLine
 10
133.9316466250129
 20
-251.5999999999967
 30
0.0
 11
295.7000000000044
 21
-174.5674913969478
 31
0.0
  0
LINE
  5
292F
330
2B9B
100
AcDbEntity
  8
0
 62
     0
100
AcDbLine
 10
-295.7000000000008
 20
-456.1863905041128
 30
0.0
 11
133.9316466250092
 21
-251.5999999999985
 31
0.0
  0
LINE
  5
2930
330
2B9B
100
AcDbEntity
  8
0
 62
     0
100
AcDbLine
 10
112.931736888022
 20
-251.5999999999976
 30
0.0
 11
295.7000000000008
 21
-164.5675396528149
 31
0.0
  0
LINE
  5
2931
330
2B9B
100
AcDbEntity
  8
0
 62
     0
100
AcDbLine
 10
-295.7000000000044
 20
-446.1864387599796
 30
0.0
 11
112.9317368880183
 21
-251.5999999999985
 31
0.0
  0
LINE
  5
2932
330
2B9B
100
AcDbEntity
  8
0
 62
     0
100
AcDbLine
 10
91.93182715103105
 20
-251.5999999999976
 30
0.0
 11
295.7000000000008
 21
-154.5675879086793
 31
0.0
  0
LINE
  5
2933
330
2B9B
100
AcDbEntity
  8
0
 62
     0
100
AcDbLine
 10
-295.7000000000008
 20
-436.186487015844
 30
0.0
 11
91.93182715102741
 21
-251.5999999999985
 31
0.0
  0
LINE
  5
2934
330
2B9B
100
AcDbEntity
  8
0
 62
     0
100
AcDbLine
 10
79.90000000000145
 20
-247.3294867349323
 30
0.0
 11
295.7000000000008
 21
-144.5676361645464
 31
0.0
  0
LINE
  5
2935
330
2B9B
100
AcDbEntity
  8
0
 62
     0
100
AcDbLine
 10
-295.7000000000008
 20
-426.1865352717111
 30
0.0
 11
79.90000000000145
 21
-247.3294867349323
 31
0.0
  0
LINE
  5
2936
330
2B9B
100
AcDbEntity
  8
0
 62
     0
100
AcDbLine
 10
79.8999999999978
 20
-237.3295349907967
 30
0.0
 11
295.7000000000008
 21
-134.5676844204108
 31
0.0
  0
LINE
  5
2937
330
2B9B
100
AcDbEntity
  8
0
 62
     0
100
AcDbLine
 10
-295.7000000000044
 20
-416.1865835275756
 30
0.0
 11
79.8999999999978
 21
-237.3295349907967
 31
0.0
  0
LINE
  5
2938
330
2B9B
100
AcDbEntity
  8
0
 62
     0
100
AcDbLine
 10
79.8999999999978
 20
-227.3295832466629
 30
0.0
 11
295.7000000000008
 21
-124.567732676277
 31
0.0
  0
LINE
  5
2939
330
2B9B
100
AcDbEntity
  8
0
 62
     0
100
AcDbLine
 10
-295.7000000000044
 20
-406.1866317834415
 30
0.0
 11
79.8999999999978
 21
-227.3295832466629
 31
0.0
  0
LINE
  5
293A
330
2B9B
100
AcDbEntity
  8
0
 62
     0
100
AcDbLine
 10
79.90000000000145
 20
-217.3296315025282
 30
0.0
 11
295.7000000000044
 21
-114.5677809321423
 31
0.0
  0
LINE
  5
293B
330
2B9B
100
AcDbEntity
  8
0
 62
     0
100
AcDbLine
 10
-295.7000000000008
 20
-396.1866800393072
 30
0.0
 11
79.90000000000145
 21
-217.3296315025282
 31
0.0
  0
LINE
  5
293C
330
2B9B
100
AcDbEntity
  8
0
 62
     0
100
AcDbLine
 10
79.8999999999978
 20
-207.3296797583944
 30
0.0
 11
295.7000000000008
 21
-104.5678291880076
 31
0.0
  0
LINE
  5
293D
330
2B9B
100
AcDbEntity
  8
0
 62
     0
100
AcDbLine
 10
-295.7000000000008
 20
-386.1867282951716
 30
0.0
 11
79.8999999999978
 21
-207.3296797583944
 31
0.0
  0
LINE
  5
293E
330
2B9B
100
AcDbEntity
  8
0
 62
     0
100
AcDbLine
 10
79.90000000000145
 20
-197.3297280142585
 30
0.0
 11
295.7000000000008
 21
-94.56787744387384
 31
0.0
  0
LINE
  5
293F
330
2B9B
100
AcDbEntity
  8
0
 62
     0
100
AcDbLine
 10
-295.7000000000044
 20
-376.1867765510377
 30
0.0
 11
79.90000000000145
 21
-197.3297280142585
 31
0.0
  0
LINE
  5
2940
330
2B9B
100
AcDbEntity
  8
0
 62
     0
100
AcDbLine
 10
79.90000000000145
 20
-187.329776270124
 30
0.0
 11
295.7000000000044
 21
-84.56792569973911
 31
0.0
  0
LINE
  5
2941
330
2B9B
100
AcDbEntity
  8
0
 62
     0
100
AcDbLine
 10
-295.7000000000008
 20
-366.1868248069031
 30
0.0
 11
79.8999999999978
 21
-187.3297762701259
 31
0.0
  0
LINE
  5
2942
330
2B9B
100
AcDbEntity
  8
0
 62
     0
100
AcDbLine
 10
79.8999999999978
 20
-177.3298245259901
 30
0.0
 11
295.7000000000008
 21
-74.56797395560534
 31
0.0
  0
LINE
  5
2943
330
2B9B
100
AcDbEntity
  8
0
 62
     0
100
AcDbLine
 10
-295.7000000000044
 20
-356.1868730627692
 30
0.0
 11
79.8999999999978
 21
-177.3298245259901
 31
0.0
  0
LINE
  5
2944
330
2B9B
100
AcDbEntity
  8
0
 62
     0
100
AcDbLine
 10
79.90000000000145
 20
-167.3298727818555
 30
0.0
 11
295.7000000000044
 21
-64.56802221147064
 31
0.0
  0
LINE
  5
2945
330
2B9B
100
AcDbEntity
  8
0
 62
     0
100
AcDbLine
 10
-295.7000000000008
 20
-346.1869213186346
 30
0.0
 11
79.90000000000145
 21
-167.3298727818555
 31
0.0
  0
LINE
  5
2946
330
2B9B
100
AcDbEntity
  8
0
 62
     0
100
AcDbLine
 10
79.90000000000145
 20
-157.3299210377217
 30
0.0
 11
288.9129444022548
 21
-57.79999999999836
 31
0.0
  0
LINE
  5
2947
330
2B9B
100
AcDbEntity
  8
0
 62
     0
100
AcDbLine
 10
-295.7000000000008
 20
-336.1869695745008
 30
0.0
 11
79.90000000000145
 21
-157.3299210377217
 31
0.0
  0
LINE
  5
2948
330
2B9B
100
AcDbEntity
  8
0
 62
     0
100
AcDbLine
 10
79.90000000000145
 20
-147.3299692935861
 30
0.0
 11
267.9130346652637
 21
-57.79999999999836
 31
0.0
  0
LINE
  5
2949
330
2B9B
100
AcDbEntity
  8
0
 62
     0
100
AcDbLine
 10
-295.7000000000044
 20
-326.1870178303652
 30
0.0
 11
79.8999999999978
 21
-147.3299692935879
 31
0.0
  0
LINE
  5
294A
330
2B9B
100
AcDbEntity
  8
0
 62
     0
100
AcDbLine
 10
79.8999999999978
 20
-137.3300175494532
 30
0.0
 11
246.9131249282727
 21
-57.79999999999927
 31
0.0
  0
LINE
  5
294B
330
2B9B
100
AcDbEntity
  8
0
 62
     0
100
AcDbLine
 10
-295.7000000000044
 20
-316.1870660862323
 30
0.0
 11
79.8999999999978
 21
-137.3300175494551
 31
0.0
  0
LINE
  5
294C
330
2B9B
100
AcDbEntity
  8
0
 62
     0
100
AcDbLine
 10
79.8999999999978
 20
-127.3300658053176
 30
0.0
 11
225.9132151912782
 21
-57.79999999999927
 31
0.0
  0
LINE
  5
294D
330
2B9B
100
AcDbEntity
  8
0
 62
     0
100
AcDbLine
 10
-295.7000000000044
 20
-306.1871143420967
 30
0.0
 11
79.89999999999419
 21
-127.3300658053194
 31
0.0
  0
LINE
  5
294E
330
2B9B
100
AcDbEntity
  8
0
 62
     0
100
AcDbLine
 10
79.90000000000145
 20
-117.3301140611829
 30
0.0
 11
204.9133054542872
 21
-57.79999999999927
 31
0.0
  0
LINE
  5
294F
330
2B9B
100
AcDbEntity
  8
0
 62
     0
100
AcDbLine
 10
-295.7000000000008
 20
-296.1871625979611
 30
0.0
 11
79.89999999999419
 21
-117.3301140611856
 31
0.0
  0
LINE
  5
2950
330
2B9B
100
AcDbEntity
  8
0
 62
     0
100
AcDbLine
 10
79.90000000000145
 20
-107.33016231705
 30
0.0
 11
183.9133957172998
 21
-57.80000000000018
 31
0.0
  0
LINE
  5
2951
330
2B9B
100
AcDbEntity
  8
0
 62
     0
100
AcDbLine
 10
-295.7000000000008
 20
-286.1872108538282
 30
0.0
 11
79.8999999999978
 21
-107.3301623170509
 31
0.0
  0
LINE
  5
2952
330
2B9B
100
AcDbEntity
  8
0
 62
     0
100
AcDbLine
 10
79.90000000000145
 20
-97.33021057291443
 30
0.0
 11
162.9134859803052
 21
-57.80000000000018
 31
0.0
  0
LINE
  5
2953
330
2B9B
100
AcDbEntity
  8
0
 62
     0
100
AcDbLine
 10
-295.7000000000044
 20
-276.1872591096926
 30
0.0
 11
79.89999999999419
 21
-97.33021057291715
 31
0.0
  0
LINE
  5
2954
330
2B9B
100
AcDbEntity
  8
0
 62
     0
100
AcDbLine
 10
79.8999999999978
 20
-87.33025882878155
 30
0.0
 11
141.9135762433178
 21
-57.79999999999927
 31
0.0
  0
LINE
  5
2955
330
2B9B
100
AcDbEntity
  8
0
 62
     0
100
AcDbLine
 10
-295.7000000000044
 20
-266.1873073655597
 30
0.0
 11
79.8999999999978
 21
-87.33025882878244
 31
0.0
  0
LINE
  5
2956
330
2B9B
100
AcDbEntity
  8
0
 62
     0
100
AcDbLine
 10
79.90000000000145
 20
-77.33030708464593
 30
0.0
 11
120.913666506327
 21
-57.79999999999927
 31
0.0
  0
LINE
  5
2957
330
2B9B
100
AcDbEntity
  8
0
 62
     0
100
AcDbLine
 10
-295.7000000000008
 20
-256.1873556214241
 30
0.0
 11
79.89999999999419
 21
-77.33030708464865
 31
0.0
  0
LINE
  5
2958
330
2B9B
100
AcDbEntity
  8
0
 62
     0
100
AcDbLine
 10
79.8999999999978
 20
-67.33035534051214
 30
0.0
 11
99.91375676933605
 21
-57.79999999999927
 31
0.0
  0
LINE
  5
2959
330
2B9B
100
AcDbEntity
  8
0
 62
     0
100
AcDbLine
 10
-295.7000000000044
 20
-246.1874038772903
 30
0.0
 11
79.89999999999419
 21
-67.33035534051305
 31
0.0
  0
LINE
  5
295A
330
2B9B
100
AcDbEntity
  8
0
 62
     0
100
AcDbLine
 10
-295.7000000000008
 20
-236.1874521331556
 30
0.0
 11
78.91384703234506
 21
-57.80000000000018
 31
0.0
  0
LINE
  5
295B
330
2B9B
100
AcDbEntity
  8
0
 62
     0
100
AcDbLine
 10
-295.7000000000044
 20
-226.1875003890218
 30
0.0
 11
57.9139372953541
 21
-57.79999999999927
 31
0.0
  0
LINE
  5
295C
330
2B9B
100
AcDbEntity
  8
0
 62
     0
100
AcDbLine
 10
-295.7000000000044
 20
-216.1875486448862
 30
0.0
 11
36.91402755836316
 21
-57.79999999999927
 31
0.0
  0
LINE
  5
295D
330
2B9B
100
AcDbEntity
  8
0
 62
     0
100
AcDbLine
 10
-295.7000000000008
 20
-206.1875969007515
 30
0.0
 11
15.9141178213722
 21
-57.80000000000018
 31
0.0
  0
LINE
  5
295E
330
2B9B
100
AcDbEntity
  8
0
 62
     0
100
AcDbLine
 10
-295.7000000000008
 20
-196.1876451566184
 30
0.0
 11
-5.085791915615118
 21
-57.79999999999836
 31
0.0
  0
LINE
  5
295F
330
2B9B
100
AcDbEntity
  8
0
 62
     0
100
AcDbLine
 10
-295.7000000000008
 20
-186.1876934124839
 30
0.0
 11
-26.08570165260971
 21
-57.79999999999927
 31
0.0
  0
LINE
  5
2960
330
2B9B
100
AcDbEntity
  8
0
 62
     0
100
AcDbLine
 10
-295.7000000000044
 20
-176.1877416683501
 30
0.0
 11
-47.08561138959703
 21
-57.79999999999927
 31
0.0
  0
LINE
  5
2961
330
2B9B
100
AcDbEntity
  8
0
 62
     0
100
AcDbLine
 10
-295.7000000000008
 20
-166.1877899242145
 30
0.0
 11
-68.08552112658799
 21
-57.79999999999927
 31
0.0
  0
LINE
  5
2962
330
2B9B
100
AcDbEntity
  8
0
 62
     0
100
AcDbLine
 10
-295.7000000000044
 20
-156.1878381800816
 30
0.0
 11
-89.08543086358255
 21
-57.80000000000018
 31
0.0
  0
LINE
  5
2963
330
2B9B
100
AcDbEntity
  8
0
 62
     0
100
AcDbLine
 10
-295.7000000000008
 20
-146.187886435946
 30
0.0
 11
-110.0853406005699
 21
-57.80000000000018
 31
0.0
  0
LINE
  5
2964
330
2B9B
100
AcDbEntity
  8
0
 62
     0
100
AcDbLine
 10
-295.7000000000044
 20
-136.1879346918122
 30
0.0
 11
-131.0852503375608
 21
-57.79999999999836
 31
0.0
  0
LINE
  5
2965
330
2B9B
100
AcDbEntity
  8
0
 62
     0
100
AcDbLine
 10
-295.7000000000044
 20
-126.1879829476775
 30
0.0
 11
-152.0851600745518
 21
-57.79999999999927
 31
0.0
  0
LINE
  5
2966
330
2B9B
100
AcDbEntity
  8
0
 62
     0
100
AcDbLine
 10
-295.7000000000008
 20
-116.1880312035418
 30
0.0
 11
-173.0850698115428
 21
-57.79999999999927
 31
0.0
  0
LINE
  5
2967
330
2B9B
100
AcDbEntity
  8
0
 62
     0
100
AcDbLine
 10
-295.7000000000044
 20
-106.188079459409
 30
0.0
 11
-194.0849795485337
 21
-57.80000000000018
 31
0.0
  0
LINE
  5
2968
330
2B9B
100
AcDbEntity
  8
0
 62
     0
100
AcDbLine
 10
-295.7000000000008
 20
-96.18812771527338
 30
0.0
 11
-215.0848892855247
 21
-57.80000000000018
 31
0.0
  0
LINE
  5
2969
330
2B9B
100
AcDbEntity
  8
0
 62
     0
100
AcDbLine
 10
-295.7000000000008
 20
-86.18817597113958
 30
0.0
 11
-236.084799022512
 21
-57.79999999999836
 31
0.0
  0
LINE
  5
296A
330
2B9B
100
AcDbEntity
  8
0
 62
     0
100
AcDbLine
 10
-295.7000000000044
 20
-76.18822422700486
 30
0.0
 11
-257.0847087595066
 21
-57.79999999999927
 31
0.0
  0
LINE
  5
296B
330
2B9B
100
AcDbEntity
  8
0
 62
     0
100
AcDbLine
 10
-295.7000000000044
 20
-66.18827248287107
 30
0.0
 11
-278.0846184964939
 21
-57.79999999999836
 31
0.0
  0
ENDBLK
  5
296C
330
2B9B
100
AcDbEntity
  8
0
100
AcDbBlockEnd
  0
BLOCK
  5
2D69
330
2D68
100
AcDbEntity
  8
0
100
AcDbBlockBegin
  2
*U72
 70
     1
 10
0.0
 20
0.0
 30
0.0
  3
*U72
  1

  0
ENDBLK
  5
2D6A
330
2D68
100
AcDbEntity
  8
0
100
AcDbBlockEnd
  0
BLOCK
  5
30BF
330
30BE
100
AcDbEntity
  8
0
100
AcDbBlockBegin
  2
*U73
 70
     1
 10
0.0
 20
0.0
 30
0.0
  3
*U73
  1

  0
ENDBLK
  5
30C0
330
30BE
100
AcDbEntity
  8
0
100
AcDbBlockEnd
  0
ENDSEC
  0
SECTION
  2
ENTITIES
  0
TEXT
  5
953
330
2AC3
100
AcDbEntity
  8
OUTLINE
  6
Continuous
 62
     3
100
AcDbText
 10
-418.231467
 20
13.715189
 30
0.0
 40
64.0
  1
 
 41
0.9
100
AcDbText
  0
TEXT
  5
954
330
2AC3
100
AcDbEntity
  8
OUTLINE
  6
Continuous
 62
     3
100
AcDbText
 10
-418.231467
 20
13.715189
 30
0.0
 40
64.0
  1
 
 41
0.9
100
AcDbText
  0
TEXT
  5
955
330
2AC3
100
AcDbEntity
  8
OUTLINE
  6
Continuous
 62
     3
100
AcDbText
 10
1341.41903
 20
-706.0588199999997
 30
0.0
 40
64.0
  1
 
 41
0.9
100
AcDbText
  0
TEXT
  5
956
330
2AC3
100
AcDbEntity
  8
OUTLINE
  6
Continuous
 62
     3
100
AcDbText
 10
1341.41903
 20
-706.0588199999997
 30
0.0
 40
64.0
  1
 
 41
0.9
100
AcDbText
  0
TEXT
  5
957
330
2AC3
100
AcDbEntity
  8
OUTLINE
  6
Continuous
 62
     3
100
AcDbText
 10
1341.41903
 20
-706.0588199999997
 30
0.0
 40
64.0
  1
 
 41
0.9
100
AcDbText
  0
TEXT
  5
958
330
2AC3
100
AcDbEntity
  8
OUTLINE
  6
Continuous
 62
     3
100
AcDbText
 10
1341.41903
 20
-706.0588199999997
 30
0.0
 40
64.0
  1
 
 41
0.9
100
AcDbText
  0
TEXT
  5
2ED9
330
2AC3
100
AcDbEntity
  8
ETC
100
AcDbText
 10
-22.05202862675152
 20
797.6893875463091
 30
0.0
 40
64.0
  1
システム部材
 41
0.9
100
AcDbText
  0
TEXT
  5
2EDA
330
2AC3
100
AcDbEntity
  8
ETC
100
AcDbText
 10
-15.84403062675346
 20
898.5727135463092
 30
0.0
 40
64.0
  1
W-60SDBC_6
 41
0.9
100
AcDbText
  0
TEXT
  5
2EDB
330
2AC3
100
AcDbEntity
  8
ETC
100
AcDbText
 10
-22.05202862675152
 20
697.6893875463091
 30
0.0
 40
64.0
  1
W-60SDBC
 41
0.9
100
AcDbText
  0
LINE
  5
2EDC
330
2AC3
100
AcDbEntity
  8
SIZE
100
AcDbLine
 10
-912.850764611338
 20
-302.2433668567019
 30
0.0
 11
-1124.914089917045
 21
-302.2433668567019
 31
0.0
  0
LINE
  5
2EDD
330
2AC3
100
AcDbEntity
  8
SIZE
100
AcDbLine
 10
-946.3507646113381
 20
299.7566331432981
 30
0.0
 11
-1124.914089917045
 21
299.7566331432981
 31
0.0
  0
LINE
  5
2EDE
330
2AC3
100
AcDbEntity
  8
SIZE
100
AcDbLine
 10
-1104.914089917045
 20
-290.2433668567019
 30
0.0
 11
-1104.914089917045
 21
287.7566331432981
 31
0.0
  0
INSERT
  5
2EDF
330
2AC3
100
AcDbEntity
  8
SIZE
100
AcDbBlockReference
  2
_DOTBLANK
 10
-1104.914089917045
 20
-302.2433668567019
 30
0.0
 41
12.0
 42
12.0
 43
12.0
 50
270.0
  0
INSERT
  5
2EE0
330
2AC3
100
AcDbEntity
  8
SIZE
100
AcDbBlockReference
  2
_DOTBLANK
 10
-1104.914089917045
 20
299.7566331432981
 30
0.0
 41
12.0
 42
12.0
 43
12.0
 50
90.0
  0
MTEXT
  5
2EE1
330
2AC3
100
AcDbEntity
  8
SIZE
100
AcDbMText
 10
-1146.914089917046
 20
-2.243366856701868
 30
0.0
 40
64.0
 41
0.0
 46
0.0
 71
     5
 72
     1
  1
\A1;602
 11
0.0000000000000001
 21
1.0
 31
0.0
 73
     1
 44
1.0
  0
LINE
  5
2EE2
330
2AC3
100
AcDbEntity
  8
SIZE
100
AcDbLine
 10
-269.850764611338
 20
-322.2433668567019
 30
0.0
 11
-269.850764611338
 21
-515.6814486406583
 31
0.0
  0
LINE
  5
2EE3
330
2AC3
100
AcDbEntity
  8
SIZE
100
AcDbLine
 10
-892.8507646113381
 20
-322.2433668567019
 30
0.0
 11
-892.8507646113381
 21
-515.6814486406583
 31
0.0
  0
LINE
  5
2EE4
330
2AC3
100
AcDbEntity
  8
SIZE
100
AcDbLine
 10
-281.850764611338
 20
-495.6814486406583
 30
0.0
 11
-880.850764611338
 21
-495.6814486406583
 31
0.0
  0
INSERT
  5
2EE5
330
2AC3
100
AcDbEntity
  8
SIZE
100
AcDbBlockReference
  2
_DOTBLANK
 10
-269.850764611338
 20
-495.6814486406583
 30
0.0
 41
12.0
 42
12.0
 43
12.0
  0
INSERT
  5
2EE6
330
2AC3
100
AcDbEntity
  8
SIZE
100
AcDbBlockReference
  2
_DOTBLANK
 10
-892.8507646113381
 20
-495.6814486406583
 30
0.0
 41
12.0
 42
12.0
 43
12.0
 50
180.0
  0
MTEXT
  5
2EE7
330
2AC3
100
AcDbEntity
  8
SIZE
100
AcDbMText
 10
-581.3507646113379
 20
-453.6814486406583
 30
0.0
 40
64.0
 41
0.0
 46
0.0
 71
     5
 72
     1
  1
\A1;623
 73
     1
 44
1.0
  0
CIRCLE
  5
2EE8
330
2AC3
100
AcDbEntity
  8
ARRANGE
100
AcDbCircle
 10
-581.3507646113379
 20
299.7566331432981
 30
0.0
 40
40.0
  0
LINE
  5
2EE9
330
2AC3
100
AcDbEntity
  8
BASIS
100
AcDbLine
 10
-581.3507646113379
 20
324.7566331432981
 30
0.0
 11
-581.3507646113379
 21
-327.2433668567019
 31
0.0
  0
LINE
  5
2EEA
330
2AC3
100
AcDbEntity
  8
SIZE
100
AcDbLine
 10
-256.350764611338
 20
332.2566331432977
 30
0.0
 11
-256.350764611338
 21
480.8887241529155
 31
0.0
  0
LINE
  5
2EEB
330
2AC3
100
AcDbEntity
  8
SIZE
100
AcDbLine
 10
-906.350764611338
 20
332.2566331432977
 30
0.0
 11
-906.350764611338
 21
480.8887241529155
 31
0.0
  0
LINE
  5
2EEC
330
2AC3
100
AcDbEntity
  8
SIZE
100
AcDbLine
 10
-268.350764611338
 20
460.8887241529155
 30
0.0
 11
-894.350764611338
 21
460.8887241529155
 31
0.0
  0
INSERT
  5
2EED
330
2AC3
100
AcDbEntity
  8
SIZE
100
AcDbBlockReference
  2
_DOTBLANK
 10
-256.350764611338
 20
460.8887241529155
 30
0.0
 41
12.0
 42
12.0
 43
12.0
  0
INSERT
  5
2EEE
330
2AC3
100
AcDbEntity
  8
SIZE
100
AcDbBlockReference
  2
_DOTBLANK
 10
-906.350764611338
 20
460.8887241529155
 30
0.0
 41
12.0
 42
12.0
 43
12.0
 50
180.0
  0
MTEXT
  5
2EEF
330
2AC3
100
AcDbEntity
  8
SIZE
100
AcDbMText
 10
-581.3507646113379
 20
502.8887241529155
 30
0.0
 40
64.0
 41
0.0
 46
0.0
 71
     5
 72
     1
  1
\A1;650
 73
     1
 44
1.0
  0
LINE
  5
2EF0
330
2AC3
100
AcDbEntity
  8
SIZE
100
AcDbLine
 10
-236.3507646113362
 20
319.7566331432981
 30
0.0
 11
-236.3507646113362
 21
599.4432260798151
 31
0.0
  0
LINE
  5
2EF1
330
2AC3
100
AcDbEntity
  8
SIZE
100
AcDbLine
 10
-926.350764611338
 20
319.7566331432981
 30
0.0
 11
-926.350764611338
 21
599.4432260798151
 31
0.0
  0
LINE
  5
2EF2
330
2AC3
100
AcDbEntity
  8
SIZE
100
AcDbLine
 10
-248.3507646113362
 20
579.4432260798152
 30
0.0
 11
-914.3507646113381
 21
579.4432260798152
 31
0.0
  0
INSERT
  5
2EF3
330
2AC3
100
AcDbEntity
  8
SIZE
100
AcDbBlockReference
  2
_DOTBLANK
 10
-236.3507646113362
 20
579.4432260798152
 30
0.0
 41
12.0
 42
12.0
 43
12.0
  0
INSERT
  5
2EF4
330
2AC3
100
AcDbEntity
  8
SIZE
100
AcDbBlockReference
  2
_DOTBLANK
 10
-926.350764611338
 20
579.4432260798152
 30
0.0
 41
12.0
 42
12.0
 43
12.0
 50
180.0
  0
MTEXT
  5
2EF5
330
2AC3
100
AcDbEntity
  8
SIZE
100
AcDbMText
 10
-581.3507646113379
 20
621.4432260798152
 30
0.0
 40
64.0
 41
0.0
 46
0.0
 71
     5
 72
     1
  1
\A1;690
 73
     1
 44
1.0
  0
LINE
  5
2EF6
330
2AC3
100
AcDbEntity
  8
DETAIL
100
AcDbLine
 10
-877.0507646113387
 20
-286.4433668567017
 30
0.0
 11
-877.0507646113387
 21
241.9566331432989
 31
0.0
  0
LINE
  5
2EF7
330
2AC3
100
AcDbEntity
  8
DETAIL
100
AcDbLine
 10
-285.6507646113373
 20
-286.4433668567017
 30
0.0
 11
-285.6507646113373
 21
241.9566331432989
 31
0.0
  0
LINE
  5
2EF8
330
2AC3
100
AcDbEntity
  8
DETAIL
100
AcDbLine
 10
-269.850764611338
 20
-302.2433668567019
 30
0.0
 11
-269.850764611338
 21
287.7566331432992
 31
0.0
  0
LINE
  5
2EF9
330
2AC3
100
AcDbEntity
  8
DETAIL
100
AcDbLine
 10
-892.8507646113381
 20
-302.2433668567019
 30
0.0
 11
-892.8507646113381
 21
287.7566331432992
 31
0.0
  0
LINE
  5
2EFA
330
2AC3
100
AcDbEntity
  8
DETAIL
100
AcDbLine
 10
-877.0507646113387
 20
241.9566331432989
 30
0.0
 11
-285.6507646113373
 21
241.9566331432989
 31
0.0
  0
LINE
  5
2EFB
330
2AC3
100
AcDbEntity
  8
DETAIL
100
AcDbLine
 10
-892.8507646113361
 20
257.7566331432981
 30
0.0
 11
-269.850764611338
 21
257.7566331432981
 31
0.0
  0
LINE
  5
2EFC
330
2AC3
100
AcDbEntity
  8
DETAIL
100
AcDbLine
 10
-926.350764611338
 20
287.7566331432992
 30
0.0
 11
-236.350764611338
 21
287.7566331432992
 31
0.0
  0
LINE
  5
2EFD
330
2AC3
100
AcDbEntity
  8
DETAIL
100
AcDbLine
 10
-926.350764611338
 20
299.7566331432981
 30
0.0
 11
-236.3507646113362
 21
299.7566331432981
 31
0.0
  0
LINE
  5
2EFE
330
2AC3
100
AcDbEntity
  8
DETAIL
100
AcDbLine
 10
-892.8507646113381
 20
152.7566331432981
 30
0.0
 11
-892.8507646113381
 21
287.7566331432992
 31
0.0
  0
LINE
  5
2EFF
330
2AC3
100
AcDbEntity
  8
DETAIL
100
AcDbLine
 10
-926.350764611338
 20
287.7566331432992
 30
0.0
 11
-926.350764611338
 21
299.7566331432981
 31
0.0
  0
LINE
  5
2F00
330
2AC3
100
AcDbEntity
  8
NOTE
100
AcDbLine
 10
-906.350764611338
 20
312.2566331432977
 30
0.0
 11
-906.350764611338
 21
287.2566331432981
 31
0.0
  0
LINE
  5
2F01
330
2AC3
100
AcDbEntity
  8
NOTE
100
AcDbLine
 10
-256.350764611338
 20
287.2566331432981
 30
0.0
 11
-256.350764611338
 21
312.2566331432977
 31
0.0
  0
LINE
  5
2F02
330
2AC3
100
AcDbEntity
  8
DETAIL
100
AcDbLine
 10
-236.350764611338
 20
287.7566331432992
 30
0.0
 11
-236.350764611338
 21
299.7566331432981
 31
0.0
  0
LINE
  5
2F03
330
2AC3
100
AcDbEntity
  8
DETAIL
100
AcDbLine
 10
-285.6507646113373
 20
-286.4433668567017
 30
0.0
 11
-877.0507646113387
 21
-286.4433668567017
 31
0.0
  0
LINE
  5
2F04
330
2AC3
100
AcDbEntity
  8
DETAIL
100
AcDbLine
 10
-269.850764611338
 20
-302.2433668567019
 30
0.0
 11
-892.8507646113381
 21
-302.2433668567019
 31
0.0
  0
LINE
  5
2F05
330
2AC3
100
AcDbEntity
  8
DETAIL
100
AcDbLine
 10
-437.8507646113379
 20
-302.2433668567019
 30
0.0
 11
-301.350764611338
 21
-302.2433668567019
 31
0.0
  0
POINT
  5
2F06
330
2AC3
100
AcDbEntity
  8
ARRANGE
100
AcDbPoint
 10
-581.3507646113379
 20
299.7566331432981
 30
0.0
 39
50.0
  0
INSERT
  5
2F07
330
2AC3
100
AcDbEntity
  8
NOTE
100
AcDbBlockReference
  2
_OPEN30
 10
-906.350764611338
 20
299.7566331432981
 30
0.0
 41
11.99999999999906
 42
12.0
 43
12.0
 50
312.6090116116846
1001
ACAD
1000
DSTYLE
1002
{
1070
    41
1040
12.0
1070
    42
1040
20.0
1070
    43
1040
200.0
1070
    44
1040
20.0
1070
    73
1070
     0
1070
    74
1070
     0
1070
    77
1070
     1
1070
    78
1070
     8
1070
   140
1040
64.0
1070
   147
1040
50.0
1070
   172
1070
     1
1070
   174
1070
     1
1070
   275
1070
     0
1070
   284
1070
     0
1070
   285
1070
     0
1070
   286
1070
     0
1070
   341
1005
2B15
1070
   342
1005
2B13
1002
}
  0
LWPOLYLINE
  5
2F08
330
2AC3
100
AcDbEntity
  8
NOTE
100
AcDbPolyline
 90
        3
 70
     0
 43
0.0
 10
-914.474665447528
 20
308.5885205522136
 10
-994.2201646035906
 20
395.2837282013115
 10
-1542.803021746448
 20
395.2837282013115
1001
ACAD
1000
DSTYLE
1002
{
1070
    41
1040
12.0
1070
    42
1040
20.0
1070
    43
1040
200.0
1070
    44
1040
20.0
1070
    73
1070
     0
1070
    74
1070
     0
1070
    77
1070
     1
1070
    78
1070
     8
1070
   140
1040
64.0
1070
   147
1040
50.0
1070
   172
1070
     1
1070
   174
1070
     1
1070
   275
1070
     0
1070
   284
1070
     0
1070
   285
1070
     0
1070
   286
1070
     0
1070
   341
1005
2B15
1070
   342
1005
2B13
1002
}
  0
TEXT
  5
2F09
330
2AC3
100
AcDbEntity
  8
NOTE
100
AcDbText
 10
-1551.03159317502
 20
413.2837282013114
 30
0.0
 40
64.0
  1
4×φ15取付穴
 41
0.9
100
AcDbText
  0
LINE
  5
2F0A
330
2AC3
100
AcDbEntity
  8
NOTE
100
AcDbLine
 39
50.0
 10
-243.850764611338
 20
299.7566331432981
 30
0.0
 11
-268.850764611338
 21
299.7566331432981
 31
0.0
  0
LINE
  5
2F0B
330
2AC3
100
AcDbEntity
  8
NOTE
100
AcDbLine
 39
50.0
 10
-893.850764611338
 20
299.7566331432981
 30
0.0
 11
-918.850764611338
 21
299.7566331432981
 31
0.0
  0
LINE
  5
2F0C
330
2AC3
100
AcDbEntity
  8
OUTLINE
100
AcDbLine
 10
-269.850764611338
 20
-302.2433668567019
 30
0.0
 11
-269.850764611338
 21
287.7566331432992
 31
0.0
  0
LINE
  5
2F0D
330
2AC3
100
AcDbEntity
  8
OUTLINE
100
AcDbLine
 10
-892.8507646113381
 20
-302.2433668567019
 30
0.0
 11
-892.8507646113381
 21
287.7566331432992
 31
0.0
  0
LINE
  5
2F0E
330
2AC3
100
AcDbEntity
  8
OUTLINE
100
AcDbLine
 10
-892.8507646113361
 20
257.7566331432981
 30
0.0
 11
-269.850764611338
 21
257.7566331432981
 31
0.0
  0
LINE
  5
2F0F
330
2AC3
100
AcDbEntity
  8
OUTLINE
100
AcDbLine
 10
-926.350764611338
 20
287.7566331432992
 30
0.0
 11
-236.350764611338
 21
287.7566331432992
 31
0.0
  0
LINE
  5
2F10
330
2AC3
100
AcDbEntity
  8
OUTLINE
100
AcDbLine
 10
-892.8507646113381
 20
152.7566331432981
 30
0.0
 11
-892.8507646113381
 21
287.7566331432992
 31
0.0
  0
LINE
  5
2F11
330
2AC3
100
AcDbEntity
  8
OUTLINE
100
AcDbLine
 10
-269.850764611338
 20
-302.2433668567019
 30
0.0
 11
-892.8507646113381
 21
-302.2433668567019
 31
0.0
  0
LINE
  5
2F12
330
2AC3
100
AcDbEntity
  8
OUTLINE
100
AcDbLine
 10
-437.8507646113379
 20
-302.2433668567019
 30
0.0
 11
-301.350764611338
 21
-302.2433668567019
 31
0.0
  0
LINE
  5
2F13
330
2AC3
100
AcDbEntity
  8
OUTLINE
100
AcDbLine
 39
50.0
 10
-926.350764611338
 20
287.7566331432992
 30
0.0
 11
-926.350764611338
 21
299.7566331432981
 31
0.0
  0
LINE
  5
2F14
330
2AC3
100
AcDbEntity
  8
OUTLINE
100
AcDbLine
 39
50.0
 10
-926.350764611338
 20
299.7566331432981
 30
0.0
 11
-236.3507646113362
 21
299.7566331432981
 31
0.0
  0
LINE
  5
2F15
330
2AC3
100
AcDbEntity
  8
OUTLINE
100
AcDbLine
 39
50.0
 10
-236.350764611338
 20
299.7566331432981
 30
0.0
 11
-236.350764611338
 21
287.7566331432992
 31
0.0
  0
LINE
  5
2F16
330
2AC3
100
AcDbEntity
  8
DETAIL
100
AcDbLine
 10
-877.0507646113387
 20
-286.4433668567017
 30
0.0
 11
-877.0507646113387
 21
241.9566331432989
 31
0.0
  0
LINE
  5
2F17
330
2AC3
100
AcDbEntity
  8
DETAIL
100
AcDbLine
 10
-285.6507646113373
 20
-286.4433668567017
 30
0.0
 11
-285.6507646113373
 21
241.9566331432989
 31
0.0
  0
LINE
  5
2F18
330
2AC3
100
AcDbEntity
  8
DETAIL
100
AcDbLine
 10
-877.0507646113387
 20
241.9566331432989
 30
0.0
 11
-285.6507646113373
 21
241.9566331432989
 31
0.0
  0
LINE
  5
2F19
330
2AC3
100
AcDbEntity
  8
DETAIL
100
AcDbLine
 10
-285.6507646113373
 20
-286.4433668567017
 30
0.0
 11
-877.0507646113387
 21
-286.4433668567017
 31
0.0
  0
LINE
  5
2F1A
330
2AC3
100
AcDbEntity
  8
DETAIL
100
AcDbLine
 10
-877.0507646113351
 20
241.9566331432993
 30
0.0
 11
-285.6507646113373
 21
241.9566331432989
 31
0.0
  0
LINE
  5
2F1B
330
2AC3
100
AcDbEntity
  8
DETAIL
100
AcDbLine
 10
-285.6507646113373
 20
-286.4433668567008
 30
0.0
 11
-877.0507646113351
 21
-286.4433668567008
 31
0.0
  0
LINE
  5
2F1C
330
2AC3
100
AcDbEntity
  8
DETAIL
100
AcDbLine
 10
-877.0507646113351
 20
-286.4433668567008
 30
0.0
 11
-877.0507646113351
 21
241.9566331432989
 31
0.0
  0
LINE
  5
2F1D
330
2AC3
100
AcDbEntity
  8
DETAIL
100
AcDbLine
 10
-285.6507646113373
 20
-286.4433668567008
 30
0.0
 11
-285.6507646113373
 21
241.9566331432989
 31
0.0
  0
LINE
  5
2F1E
330
2AC3
100
AcDbEntity
  8
DETAIL
100
AcDbLine
 10
-877.0507646113387
 20
241.9566331432993
 30
0.0
 11
-285.6507646113373
 21
241.9566331432989
 31
0.0
  0
LINE
  5
2F1F
330
2AC3
100
AcDbEntity
  8
DETAIL
100
AcDbLine
 10
-285.6507646113373
 20
-286.4433668567008
 30
0.0
 11
-877.0507646113387
 21
-286.4433668567008
 31
0.0
  0
LINE
  5
2F20
330
2AC3
100
AcDbEntity
  8
DETAIL
100
AcDbLine
 10
-877.0507646113387
 20
-286.4433668567008
 30
0.0
 11
-877.0507646113387
 21
241.9566331432989
 31
0.0
  0
LINE
  5
2F21
330
2AC3
100
AcDbEntity
  8
DETAIL
100
AcDbLine
 10
-285.6507646113373
 20
-286.4433668567008
 30
0.0
 11
-285.6507646113373
 21
241.9566331432989
 31
0.0
  0
LINE
  5
2F22
330
2AC3
100
AcDbEntity
  8
DETAIL
100
AcDbLine
 10
-302.7352384290739
 20
241.9566331432989
 30
0.0
 11
-285.6507646113446
 21
233.8211737108095
 31
0.0
1001
ACAD
1010
0.0
1020
0.0
1030
0.0
1001
ACADANNOTATIVE
1000
AnnotativeData
1002
{
1070
     1
1070
     1
1002
}
  0
LINE
  5
2F23
330
2AC3
100
AcDbEntity
  8
DETAIL
100
AcDbLine
 10
-323.735148166063
 20
241.956633143297
 30
0.0
 11
-285.6507646113428
 21
223.8212219666739
 31
0.0
1001
ACAD
1010
0.0
1020
0.0
1030
0.0
1001
ACADANNOTATIVE
1000
AnnotativeData
1002
{
1070
     1
1070
     1
1002
}
  0
LINE
  5
2F24
330
2AC3
100
AcDbEntity
  8
DETAIL
100
AcDbLine
 10
-344.7350579030576
 20
241.9566331432979
 30
0.0
 11
-285.6507646113463
 21
213.8212702225401
 31
0.0
1001
ACAD
1010
0.0
1020
0.0
1030
0.0
1001
ACADANNOTATIVE
1000
AnnotativeData
1002
{
1070
     1
1070
     1
1002
}
  0
LINE
  5
2F25
330
2AC3
100
AcDbEntity
  8
DETAIL
100
AcDbLine
 10
-365.7349676400449
 20
241.9566331432989
 30
0.0
 11
-285.6507646113428
 21
203.8213184784063
 31
0.0
1001
ACAD
1010
0.0
1020
0.0
1030
0.0
1001
ACADANNOTATIVE
1000
AnnotativeData
1002
{
1070
     1
1070
     1
1002
}
  0
LINE
  5
2F26
330
2AC3
100
AcDbEntity
  8
DETAIL
100
AcDbLine
 10
-386.7348773770395
 20
241.9566331432998
 30
0.0
 11
-285.6507646113428
 21
193.8213667342706
 31
0.0
1001
ACAD
1010
0.0
1020
0.0
1030
0.0
1001
ACADANNOTATIVE
1000
AnnotativeData
1002
{
1070
     1
1070
     1
1002
}
  0
LINE
  5
2F27
330
2AC3
100
AcDbEntity
  8
DETAIL
100
AcDbLine
 10
-407.7347871140267
 20
241.9566331432979
 30
0.0
 11
-285.6507646113428
 21
183.8214149901368
 31
0.0
1001
ACAD
1010
0.0
1020
0.0
1030
0.0
1001
ACADANNOTATIVE
1000
AnnotativeData
1002
{
1070
     1
1070
     1
1002
}
  0
LINE
  5
2F28
330
2AC3
100
AcDbEntity
  8
DETAIL
100
AcDbLine
 10
-428.7346968510213
 20
241.9566331432998
 30
0.0
 11
-285.650764611341
 21
173.8214632460012
 31
0.0
1001
ACAD
1010
0.0
1020
0.0
1030
0.0
1001
ACADANNOTATIVE
1000
AnnotativeData
1002
{
1070
     1
1070
     1
1002
}
  0
LINE
  5
2F29
330
2AC3
100
AcDbEntity
  8
DETAIL
100
AcDbLine
 10
-449.7346065880086
 20
241.9566331432979
 30
0.0
 11
-285.6507646113446
 21
163.8215115018674
 31
0.0
1001
ACAD
1010
0.0
1020
0.0
1030
0.0
1001
ACADANNOTATIVE
1000
AnnotativeData
1002
{
1070
     1
1070
     1
1002
}
  0
LINE
  5
2F2A
330
2AC3
100
AcDbEntity
  8
DETAIL
100
AcDbLine
 10
-470.7345163249996
 20
241.9566331432979
 30
0.0
 11
-285.6507646113428
 21
153.8215597577318
 31
0.0
1001
ACAD
1010
0.0
1020
0.0
1030
0.0
1001
ACADANNOTATIVE
1000
AnnotativeData
1002
{
1070
     1
1070
     1
1002
}
  0
LINE
  5
2F2B
330
2AC3
100
AcDbEntity
  8
DETAIL
100
AcDbLine
 10
-491.7344260619869
 20
241.9566331432979
 30
0.0
 11
-285.6507646113428
 21
143.8216080135998
 31
0.0
1001
ACAD
1010
0.0
1020
0.0
1030
0.0
1001
ACADANNOTATIVE
1000
AnnotativeData
1002
{
1070
     1
1070
     1
1002
}
  0
LINE
  5
2F2C
330
2AC3
100
AcDbEntity
  8
DETAIL
100
AcDbLine
 10
-512.7343357989798
 20
241.9566331432979
 30
0.0
 11
-501.4507646113438
 21
236.5835068398501
 31
0.0
1001
ACAD
1010
0.0
1020
0.0
1030
0.0
1001
ACADANNOTATIVE
1000
AnnotativeData
1002
{
1070
     1
1070
     1
1002
}
  0
LINE
  5
2F2D
330
2AC3
100
AcDbEntity
  8
DETAIL
100
AcDbLine
 10
-501.4507646113438
 20
236.5835068398501
 30
0.0
 11
-285.6507646113428
 21
133.8216562694642
 31
0.0
1001
ACAD
1010
0.0
1020
0.0
1030
0.0
1001
ACADANNOTATIVE
1000
AnnotativeData
1002
{
1070
     1
1070
     1
1002
}
  0
LINE
  5
2F2E
330
2AC3
100
AcDbEntity
  8
DETAIL
100
AcDbLine
 10
-533.7342455359688
 20
241.9566331432979
 30
0.0
 11
-501.4507646113457
 21
226.5835550957163
 31
0.0
1001
ACAD
1010
0.0
1020
0.0
1030
0.0
1001
ACADANNOTATIVE
1000
AnnotativeData
1002
{
1070
     1
1070
     1
1002
}
  0
LINE
  5
2F2F
330
2AC3
100
AcDbEntity
  8
DETAIL
100
AcDbLine
 10
-501.4507646113457
 20
226.5835550957163
 30
0.0
 11
-285.6507646113428
 21
123.8217045253304
 31
0.0
1001
ACAD
1010
0.0
1020
0.0
1030
0.0
1001
ACADANNOTATIVE
1000
AnnotativeData
1002
{
1070
     1
1070
     1
1002
}
  0
LINE
  5
2F30
330
2AC3
100
AcDbEntity
  8
DETAIL
100
AcDbLine
 10
-554.7341552729599
 20
241.9566331432961
 30
0.0
 11
-501.4507646113457
 21
216.5836033515807
 31
0.0
1001
ACAD
1010
0.0
1020
0.0
1030
0.0
1001
ACADANNOTATIVE
1000
AnnotativeData
1002
{
1070
     1
1070
     1
1002
}
  0
LINE
  5
2F31
330
2AC3
100
AcDbEntity
  8
DETAIL
100
AcDbLine
 10
-501.4507646113457
 20
216.5836033515807
 30
0.0
 11
-285.6507646113428
 21
113.8217527811948
 31
0.0
1001
ACAD
1010
0.0
1020
0.0
1030
0.0
1001
ACADANNOTATIVE
1000
AnnotativeData
1002
{
1070
     1
1070
     1
1002
}
  0
LINE
  5
2F32
330
2AC3
100
AcDbEntity
  8
DETAIL
100
AcDbLine
 10
-575.7340650099528
 20
241.9566331432979
 30
0.0
 11
-501.4507646113457
 21
206.5836516074469
 31
0.0
1001
ACAD
1010
0.0
1020
0.0
1030
0.0
1001
ACADANNOTATIVE
1000
AnnotativeData
1002
{
1070
     1
1070
     1
1002
}
  0
LINE
  5
2F33
330
2AC3
100
AcDbEntity
  8
DETAIL
100
AcDbLine
 10
-501.4507646113457
 20
206.5836516074469
 30
0.0
 11
-285.650764611341
 21
103.8218010370592
 31
0.0
1001
ACAD
1010
0.0
1020
0.0
1030
0.0
1001
ACADANNOTATIVE
1000
AnnotativeData
1002
{
1070
     1
1070
     1
1002
}
  0
LINE
  5
2F34
330
2AC3
100
AcDbEntity
  8
DETAIL
100
AcDbLine
 10
-596.7339747469416
 20
241.9566331432979
 30
0.0
 11
-501.4507646113457
 21
196.5836998633131
 31
0.0
1001
ACAD
1010
0.0
1020
0.0
1030
0.0
1001
ACADANNOTATIVE
1000
AnnotativeData
1002
{
1070
     1
1070
     1
1002
}
  0
LINE
  5
2F35
330
2AC3
100
AcDbEntity
  8
DETAIL
100
AcDbLine
 10
-501.4507646113457
 20
196.5836998633131
 30
0.0
 11
-285.6507646113446
 21
93.82184929292723
 31
0.0
1001
ACAD
1010
0.0
1020
0.0
1030
0.0
1001
ACADANNOTATIVE
1000
AnnotativeData
1002
{
1070
     1
1070
     1
1002
}
  0
LINE
  5
2F36
330
2AC3
100
AcDbEntity
  8
DETAIL
100
AcDbLine
 10
-617.7338844839327
 20
241.9566331432979
 30
0.0
 11
-501.4507646113457
 21
186.5837481191793
 31
0.0
1001
ACAD
1010
0.0
1020
0.0
1030
0.0
1001
ACADANNOTATIVE
1000
AnnotativeData
1002
{
1070
     1
1070
     1
1002
}
  0
LINE
  5
2F37
330
2AC3
100
AcDbEntity
  8
DETAIL
100
AcDbLine
 10
-501.4507646113457
 20
186.5837481191793
 30
0.0
 11
-285.6507646113428
 21
83.82189754879162
 31
0.0
1001
ACAD
1010
0.0
1020
0.0
1030
0.0
1001
ACADANNOTATIVE
1000
AnnotativeData
1002
{
1070
     1
1070
     1
1002
}
  0
LINE
  5
2F38
330
2AC3
100
AcDbEntity
  8
DETAIL
100
AcDbLine
 10
-638.7337942209237
 20
241.9566331432979
 30
0.0
 11
-501.4507646113438
 21
176.5837963750437
 31
0.0
1001
ACAD
1010
0.0
1020
0.0
1030
0.0
1001
ACADANNOTATIVE
1000
AnnotativeData
1002
{
1070
     1
1070
     1
1002
}
  0
LINE
  5
2F39
330
2AC3
100
AcDbEntity
  8
DETAIL
100
AcDbLine
 10
-501.4507646113438
 20
176.5837963750437
 30
0.0
 11
-285.6507646113428
 21
73.82194580465784
 31
0.0
1001
ACAD
1010
0.0
1020
0.0
1030
0.0
1001
ACADANNOTATIVE
1000
AnnotativeData
1002
{
1070
     1
1070
     1
1002
}
  0
LINE
  5
2F3A
330
2AC3
100
AcDbEntity
  8
DETAIL
100
AcDbLine
 10
-659.7337039579147
 20
241.9566331432979
 30
0.0
 11
-501.4507646113438
 21
166.5838446309081
 31
0.0
1001
ACAD
1010
0.0
1020
0.0
1030
0.0
1001
ACADANNOTATIVE
1000
AnnotativeData
1002
{
1070
     1
1070
     1
1002
}
  0
LINE
  5
2F3B
330
2AC3
100
AcDbEntity
  8
DETAIL
100
AcDbLine
 10
-501.4507646113438
 20
166.5838446309081
 30
0.0
 11
-285.6507646113428
 21
63.82199406052314
 31
0.0
1001
ACAD
1010
0.0
1020
0.0
1030
0.0
1001
ACADANNOTATIVE
1000
AnnotativeData
1002
{
1070
     1
1070
     1
1002
}
  0
LINE
  5
2F3C
330
2AC3
100
AcDbEntity
  8
DETAIL
100
AcDbLine
 10
-680.7336136949056
 20
241.956633143297
 30
0.0
 11
-501.4507646113457
 21
156.5838928867743
 31
0.0
1001
ACAD
1010
0.0
1020
0.0
1030
0.0
1001
ACADANNOTATIVE
1000
AnnotativeData
1002
{
1070
     1
1070
     1
1002
}
  0
LINE
  5
2F3D
330
2AC3
100
AcDbEntity
  8
DETAIL
100
AcDbLine
 10
-501.4507646113457
 20
156.5838928867743
 30
0.0
 11
-285.6507646113428
 21
53.82204231638842
 31
0.0
1001
ACAD
1010
0.0
1020
0.0
1030
0.0
1001
ACADANNOTATIVE
1000
AnnotativeData
1002
{
1070
     1
1070
     1
1002
}
  0
LINE
  5
2F3E
330
2AC3
100
AcDbEntity
  8
DETAIL
100
AcDbLine
 10
-701.7335234318966
 20
241.956633143297
 30
0.0
 11
-501.4507646113457
 21
146.5839411426386
 31
0.0
1001
ACAD
1010
0.0
1020
0.0
1030
0.0
1001
ACADANNOTATIVE
1000
AnnotativeData
1002
{
1070
     1
1070
     1
1002
}
  0
LINE
  5
2F3F
330
2AC3
100
AcDbEntity
  8
DETAIL
100
AcDbLine
 10
-294.7533088107671
 20
48.15663314329778
 30
0.0
 11
-285.6507646113501
 21
43.82209057225646
 31
0.0
1001
ACAD
1010
0.0
1020
0.0
1030
0.0
1001
ACADANNOTATIVE
1000
AnnotativeData
1002
{
1070
     1
1070
     1
1002
}
  0
LINE
  5
2F40
330
2AC3
100
AcDbEntity
  8
DETAIL
100
AcDbLine
 10
-501.4507646113457
 20
146.5839411426386
 30
0.0
 11
-294.7533088107671
 21
48.15663314329778
 31
0.0
1001
ACAD
1010
0.0
1020
0.0
1030
0.0
1001
ACADANNOTATIVE
1000
AnnotativeData
1002
{
1070
     1
1070
     1
1002
}
  0
LINE
  5
2F41
330
2AC3
100
AcDbEntity
  8
DETAIL
100
AcDbLine
 10
-722.7334331688876
 20
241.9566331432989
 30
0.0
 11
-501.4507646113457
 21
136.5839893985066
 31
0.0
1001
ACAD
1010
0.0
1020
0.0
1030
0.0
1001
ACADANNOTATIVE
1000
AnnotativeData
1002
{
1070
     1
1070
     1
1002
}
  0
LINE
  5
2F42
330
2AC3
100
AcDbEntity
  8
DETAIL
100
AcDbLine
 10
-315.7532185477562
 20
48.15663314329959
 30
0.0
 11
-285.6507646113519
 21
33.82213882812448
 31
0.0
1001
ACAD
1010
0.0
1020
0.0
1030
0.0
1001
ACADANNOTATIVE
1000
AnnotativeData
1002
{
1070
     1
1070
     1
1002
}
  0
LINE
  5
2F43
330
2AC3
100
AcDbEntity
  8
DETAIL
100
AcDbLine
 10
-501.4507646113457
 20
136.5839893985066
 30
0.0
 11
-315.7532185477562
 21
48.15663314329959
 31
0.0
1001
ACAD
1010
0.0
1020
0.0
1030
0.0
1001
ACADANNOTATIVE
1000
AnnotativeData
1002
{
1070
     1
1070
     1
1002
}
  0
LINE
  5
2F44
330
2AC3
100
AcDbEntity
  8
DETAIL
100
AcDbLine
 10
-743.7333429058784
 20
241.9566331432989
 30
0.0
 11
-501.450764611342
 21
126.584037654371
 31
0.0
1001
ACAD
1010
0.0
1020
0.0
1030
0.0
1001
ACADANNOTATIVE
1000
AnnotativeData
1002
{
1070
     1
1070
     1
1002
}
  0
LINE
  5
2F45
330
2AC3
100
AcDbEntity
  8
DETAIL
100
AcDbLine
 10
-336.7531282847453
 20
48.15663314329778
 30
0.0
 11
-285.6507646113501
 21
23.82218708398887
 31
0.0
1001
ACAD
1010
0.0
1020
0.0
1030
0.0
1001
ACADANNOTATIVE
1000
AnnotativeData
1002
{
1070
     1
1070
     1
1002
}
  0
LINE
  5
2F46
330
2AC3
100
AcDbEntity
  8
DETAIL
100
AcDbLine
 10
-501.450764611342
 20
126.584037654371
 30
0.0
 11
-336.7531282847453
 21
48.15663314329778
 31
0.0
1001
ACAD
1010
0.0
1020
0.0
1030
0.0
1001
ACADANNOTATIVE
1000
AnnotativeData
1002
{
1070
     1
1070
     1
1002
}
  0
LINE
  5
2F47
330
2AC3
100
AcDbEntity
  8
DETAIL
100
AcDbLine
 10
-764.7332526428693
 20
241.9566331432989
 30
0.0
 11
-501.4507646113457
 21
116.5840859102372
 31
0.0
1001
ACAD
1010
0.0
1020
0.0
1030
0.0
1001
ACADANNOTATIVE
1000
AnnotativeData
1002
{
1070
     1
1070
     1
1002
}
  0
LINE
  5
2F48
330
2AC3
100
AcDbEntity
  8
DETAIL
100
AcDbLine
 10
-357.7530380217363
 20
48.15663314329778
 30
0.0
 11
-285.6507646113501
 21
13.82223533985507
 31
0.0
1001
ACAD
1010
0.0
1020
0.0
1030
0.0
1001
ACADANNOTATIVE
1000
AnnotativeData
1002
{
1070
     1
1070
     1
1002
}
  0
LINE
  5
2F49
330
2AC3
100
AcDbEntity
  8
DETAIL
100
AcDbLine
 10
-501.4507646113457
 20
116.5840859102372
 30
0.0
 11
-357.75303802174
 21
48.15663314329959
 31
0.0
1001
ACAD
1010
0.0
1020
0.0
1030
0.0
1001
ACADANNOTATIVE
1000
AnnotativeData
1002
{
1070
     1
1070
     1
1002
}
  0
LINE
  5
2F4A
330
2AC3
100
AcDbEntity
  8
DETAIL
100
AcDbLine
 10
-785.7331623798585
 20
241.956633143297
 30
0.0
 11
-501.4507646113438
 21
106.5841341661016
 31
0.0
1001
ACAD
1010
0.0
1020
0.0
1030
0.0
1001
ACADANNOTATIVE
1000
AnnotativeData
1002
{
1070
     1
1070
     1
1002
}
  0
LINE
  5
2F4B
330
2AC3
100
AcDbEntity
  8
DETAIL
100
AcDbLine
 10
-378.7529477587272
 20
48.15663314329778
 30
0.0
 11
-285.6507646113501
 21
3.822283595719453
 31
0.0
1001
ACAD
1010
0.0
1020
0.0
1030
0.0
1001
ACADANNOTATIVE
1000
AnnotativeData
1002
{
1070
     1
1070
     1
1002
}
  0
LINE
  5
2F4C
330
2AC3
100
AcDbEntity
  8
DETAIL
100
AcDbLine
 10
-501.4507646113438
 20
106.5841341661016
 30
0.0
 11
-378.7529477587272
 21
48.15663314329778
 31
0.0
1001
ACAD
1010
0.0
1020
0.0
1030
0.0
1001
ACADANNOTATIVE
1000
AnnotativeData
1002
{
1070
     1
1070
     1
1002
}
  0
LINE
  5
2F4D
330
2AC3
100
AcDbEntity
  8
DETAIL
100
AcDbLine
 10
-806.7330721168495
 20
241.956633143297
 30
0.0
 11
-501.4507646113472
 21
96.58418242196788
 31
0.0
1001
ACAD
1010
0.0
1020
0.0
1030
0.0
1001
ACADANNOTATIVE
1000
AnnotativeData
1002
{
1070
     1
1070
     1
1002
}
  0
LINE
  5
2F4E
330
2AC3
100
AcDbEntity
  8
DETAIL
100
AcDbLine
 10
-399.7528574957182
 20
48.15663314329778
 30
0.0
 11
-285.6507646113519
 21
-6.17766814841434
 31
0.0
1001
ACAD
1010
0.0
1020
0.0
1030
0.0
1001
ACADANNOTATIVE
1000
AnnotativeData
1002
{
1070
     1
1070
     1
1002
}
  0
LINE
  5
2F4F
330
2AC3
100
AcDbEntity
  8
DETAIL
100
AcDbLine
 10
-501.4507646113438
 20
96.58418242196603
 30
0.0
 11
-399.7528574957182
 21
48.15663314329778
 31
0.0
1001
ACAD
1010
0.0
1020
0.0
1030
0.0
1001
ACADANNOTATIVE
1000
AnnotativeData
1002
{
1070
     1
1070
     1
1002
}
  0
LINE
  5
2F50
330
2AC3
100
AcDbEntity
  8
DETAIL
100
AcDbLine
 10
-827.7329818538389
 20
241.956633143297
 30
0.0
 11
-501.4507646113457
 21
86.58423067783406
 31
0.0
1001
ACAD
1010
0.0
1020
0.0
1030
0.0
1001
ACADANNOTATIVE
1000
AnnotativeData
1002
{
1070
     1
1070
     1
1002
}
  0
LINE
  5
2F51
330
2AC3
100
AcDbEntity
  8
DETAIL
100
AcDbLine
 10
-420.7527672327091
 20
48.15663314329959
 30
0.0
 11
-285.6507646113501
 21
-16.17761989254814
 31
0.0
1001
ACAD
1010
0.0
1020
0.0
1030
0.0
1001
ACADANNOTATIVE
1000
AnnotativeData
1002
{
1070
     1
1070
     1
1002
}
  0
LINE
  5
2F52
330
2AC3
100
AcDbEntity
  8
DETAIL
100
AcDbLine
 10
-501.4507646113457
 20
86.58423067783406
 30
0.0
 11
-420.7527672327091
 21
48.15663314329959
 31
0.0
1001
ACAD
1010
0.0
1020
0.0
1030
0.0
1001
ACADANNOTATIVE
1000
AnnotativeData
1002
{
1070
     1
1070
     1
1002
}
  0
LINE
  5
2F53
330
2AC3
100
AcDbEntity
  8
DETAIL
100
AcDbLine
 10
-848.7328915908333
 20
241.9566331432989
 30
0.0
 11
-501.4507646113457
 21
76.58427893369843
 31
0.0
1001
ACAD
1010
0.0
1020
0.0
1030
0.0
1001
ACADANNOTATIVE
1000
AnnotativeData
1002
{
1070
     1
1070
     1
1002
}
  0
LINE
  5
2F54
330
2AC3
100
AcDbEntity
  8
DETAIL
100
AcDbLine
 10
-441.7526769697
 20
48.15663314329959
 30
0.0
 11
-285.6507646113501
 21
-26.17757163668375
 31
0.0
1001
ACAD
1010
0.0
1020
0.0
1030
0.0
1001
ACADANNOTATIVE
1000
AnnotativeData
1002
{
1070
     1
1070
     1
1002
}
  0
LINE
  5
2F55
330
2AC3
100
AcDbEntity
  8
DETAIL
100
AcDbLine
 10
-501.4507646113457
 20
76.58427893369843
 30
0.0
 11
-441.7526769697
 21
48.15663314329959
 31
0.0
1001
ACAD
1010
0.0
1020
0.0
1030
0.0
1001
ACADANNOTATIVE
1000
AnnotativeData
1002
{
1070
     1
1070
     1
1002
}
  0
LINE
  5
2F56
330
2AC3
100
AcDbEntity
  8
DETAIL
100
AcDbLine
 10
-869.7328013278207
 20
241.956633143297
 30
0.0
 11
-501.4507646113457
 21
66.58432718956465
 31
0.0
1001
ACAD
1010
0.0
1020
0.0
1030
0.0
1001
ACADANNOTATIVE
1000
AnnotativeData
1002
{
1070
     1
1070
     1
1002
}
  0
LINE
  5
2F57
330
2AC3
100
AcDbEntity
  8
DETAIL
100
AcDbLine
 10
-462.7525867066911
 20
48.15663314329867
 30
0.0
 11
-285.6507646113481
 21
-36.17752338081846
 31
0.0
1001
ACAD
1010
0.0
1020
0.0
1030
0.0
1001
ACADANNOTATIVE
1000
AnnotativeData
1002
{
1070
     1
1070
     1
1002
}
  0
LINE
  5
2F58
330
2AC3
100
AcDbEntity
  8
DETAIL
100
AcDbLine
 10
-501.4507646113457
 20
66.58432718956465
 30
0.0
 11
-462.7525867066911
 21
48.15663314329867
 31
0.0
1001
ACAD
1010
0.0
1020
0.0
1030
0.0
1001
ACADANNOTATIVE
1000
AnnotativeData
1002
{
1070
     1
1070
     1
1002
}
  0
LINE
  5
2F59
330
2AC3
100
AcDbEntity
  8
DETAIL
100
AcDbLine
 10
-877.0507646113443
 20
235.4414239822063
 30
0.0
 11
-501.450764611342
 21
56.58437544542993
 31
0.0
1001
ACAD
1010
0.0
1020
0.0
1030
0.0
1001
ACADANNOTATIVE
1000
AnnotativeData
1002
{
1070
     1
1070
     1
1002
}
  0
LINE
  5
2F5A
330
2AC3
100
AcDbEntity
  8
DETAIL
100
AcDbLine
 10
-483.7524964436783
 20
48.15663314329778
 30
0.0
 11
-285.6507646113463
 21
-46.17747512495407
 31
0.0
1001
ACAD
1010
0.0
1020
0.0
1030
0.0
1001
ACADANNOTATIVE
1000
AnnotativeData
1002
{
1070
     1
1070
     1
1002
}
  0
LINE
  5
2F5B
330
2AC3
100
AcDbEntity
  8
DETAIL
100
AcDbLine
 10
-501.450764611342
 20
56.58437544542993
 30
0.0
 11
-483.7524964436783
 21
48.15663314329778
 31
0.0
1001
ACAD
1010
0.0
1020
0.0
1030
0.0
1001
ACADANNOTATIVE
1000
AnnotativeData
1002
{
1070
     1
1070
     1
1002
}
  0
LINE
  5
2F5C
330
2AC3
100
AcDbEntity
  8
DETAIL
100
AcDbLine
 10
-877.0507646113443
 20
225.4414722380725
 30
0.0
 11
-285.6507646113463
 21
-56.17742686908787
 31
0.0
1001
ACAD
1010
0.0
1020
0.0
1030
0.0
1001
ACADANNOTATIVE
1000
AnnotativeData
1002
{
1070
     1
1070
     1
1002
}
  0
LINE
  5
2F5D
330
2AC3
100
AcDbEntity
  8
DETAIL
100
AcDbLine
 10
-877.0507646113443
 20
215.4415204939386
 30
0.0
 11
-285.6507646113463
 21
-66.17737861322165
 31
0.0
1001
ACAD
1010
0.0
1020
0.0
1030
0.0
1001
ACADANNOTATIVE
1000
AnnotativeData
1002
{
1070
     1
1070
     1
1002
}
  0
LINE
  5
2F5E
330
2AC3
100
AcDbEntity
  8
DETAIL
100
AcDbLine
 10
-877.0507646113422
 20
205.441568749804
 30
0.0
 11
-285.6507646113481
 21
-76.17733035735546
 31
0.0
1001
ACAD
1010
0.0
1020
0.0
1030
0.0
1001
ACADANNOTATIVE
1000
AnnotativeData
1002
{
1070
     1
1070
     1
1002
}
  0
LINE
  5
2F5F
330
2AC3
100
AcDbEntity
  8
DETAIL
100
AcDbLine
 10
-877.0507646113443
 20
195.4416170056702
 30
0.0
 11
-285.6507646113463
 21
-86.17728210149108
 31
0.0
1001
ACAD
1010
0.0
1020
0.0
1030
0.0
1001
ACADANNOTATIVE
1000
AnnotativeData
1002
{
1070
     1
1070
     1
1002
}
  0
LINE
  5
2F60
330
2AC3
100
AcDbEntity
  8
DETAIL
100
AcDbLine
 10
-877.0507646113422
 20
185.4416652615346
 30
0.0
 11
-285.6507646113481
 21
-96.17723384562488
 31
0.0
1001
ACAD
1010
0.0
1020
0.0
1030
0.0
1001
ACADANNOTATIVE
1000
AnnotativeData
1002
{
1070
     1
1070
     1
1002
}
  0
LINE
  5
2F61
330
2AC3
100
AcDbEntity
  8
DETAIL
100
AcDbLine
 10
-877.0507646113443
 20
175.4417135174008
 30
0.0
 11
-285.6507646113463
 21
-106.1771855897605
 31
0.0
1001
ACAD
1010
0.0
1020
0.0
1030
0.0
1001
ACADANNOTATIVE
1000
AnnotativeData
1002
{
1070
     1
1070
     1
1002
}
  0
LINE
  5
2F62
330
2AC3
100
AcDbEntity
  8
DETAIL
100
AcDbLine
 10
-877.0507646113443
 20
165.4417617732651
 30
0.0
 11
-285.6507646113463
 21
-116.1771373338961
 31
0.0
1001
ACAD
1010
0.0
1020
0.0
1030
0.0
1001
ACADANNOTATIVE
1000
AnnotativeData
1002
{
1070
     1
1070
     1
1002
}
  0
LINE
  5
2F63
330
2AC3
100
AcDbEntity
  8
DETAIL
100
AcDbLine
 10
-877.0507646113443
 20
155.4418100291332
 30
0.0
 11
-285.6507646113463
 21
-126.177089078028
 31
0.0
1001
ACAD
1010
0.0
1020
0.0
1030
0.0
1001
ACADANNOTATIVE
1000
AnnotativeData
1002
{
1070
     1
1070
     1
1002
}
  0
LINE
  5
2F64
330
2AC3
100
AcDbEntity
  8
DETAIL
100
AcDbLine
 10
-877.0507646113443
 20
145.4418582849976
 30
0.0
 11
-285.6507646113463
 21
-136.1770408221637
 31
0.0
1001
ACAD
1010
0.0
1020
0.0
1030
0.0
1001
ACADANNOTATIVE
1000
AnnotativeData
1002
{
1070
     1
1070
     1
1002
}
  0
LINE
  5
2F65
330
2AC3
100
AcDbEntity
  8
DETAIL
100
AcDbLine
 10
-877.0507646113458
 20
135.4419065408638
 30
0.0
 11
-285.6507646113481
 21
-146.1769925662975
 31
0.0
1001
ACAD
1010
0.0
1020
0.0
1030
0.0
1001
ACADANNOTATIVE
1000
AnnotativeData
1002
{
1070
     1
1070
     1
1002
}
  0
LINE
  5
2F66
330
2AC3
100
AcDbEntity
  8
DETAIL
100
AcDbLine
 10
-877.0507646113443
 20
125.4419547967281
 30
0.0
 11
-285.6507646113463
 21
-156.1769443104331
 31
0.0
1001
ACAD
1010
0.0
1020
0.0
1030
0.0
1001
ACADANNOTATIVE
1000
AnnotativeData
1002
{
1070
     1
1070
     1
1002
}
  0
LINE
  5
2F67
330
2AC3
100
AcDbEntity
  8
DETAIL
100
AcDbLine
 10
-877.0507646113422
 20
115.4420030525925
 30
0.0
 11
-285.6507646113481
 21
-166.1768960545669
 31
0.0
1001
ACAD
1010
0.0
1020
0.0
1030
0.0
1001
ACADANNOTATIVE
1000
AnnotativeData
1002
{
1070
     1
1070
     1
1002
}
  0
LINE
  5
2F68
330
2AC3
100
AcDbEntity
  8
DETAIL
100
AcDbLine
 10
-877.0507646113443
 20
105.4420513084606
 30
0.0
 11
-285.6507646113463
 21
-176.1768477987006
 31
0.0
1001
ACAD
1010
0.0
1020
0.0
1030
0.0
1001
ACADANNOTATIVE
1000
AnnotativeData
1002
{
1070
     1
1070
     1
1002
}
  0
LINE
  5
2F69
330
2AC3
100
AcDbEntity
  8
DETAIL
100
AcDbLine
 10
-877.0507646113443
 20
95.44209956432494
 30
0.0
 11
-285.6507646113463
 21
-186.1767995428363
 31
0.0
1001
ACAD
1010
0.0
1020
0.0
1030
0.0
1001
ACADANNOTATIVE
1000
AnnotativeData
1002
{
1070
     1
1070
     1
1002
}
  0
LINE
  5
2F6A
330
2AC3
100
AcDbEntity
  8
DETAIL
100
AcDbLine
 10
-877.0507646113443
 20
85.44214782019116
 30
0.0
 11
-285.6507646113463
 21
-196.1767512869701
 31
0.0
1001
ACAD
1010
0.0
1020
0.0
1030
0.0
1001
ACADANNOTATIVE
1000
AnnotativeData
1002
{
1070
     1
1070
     1
1002
}
  0
LINE
  5
2F6B
330
2AC3
100
AcDbEntity
  8
DETAIL
100
AcDbLine
 10
-877.0507646113422
 20
75.44219607605555
 30
0.0
 11
-285.6507646113428
 21
-206.1767030311066
 31
0.0
1001
ACAD
1010
0.0
1020
0.0
1030
0.0
1001
ACADANNOTATIVE
1000
AnnotativeData
1002
{
1070
     1
1070
     1
1002
}
  0
LINE
  5
2F6C
330
2AC3
100
AcDbEntity
  8
DETAIL
100
AcDbLine
 10
-877.0507646113443
 20
65.44224433192176
 30
0.0
 11
-285.6507646113428
 21
-216.1766547752404
 31
0.0
1001
ACAD
1010
0.0
1020
0.0
1030
0.0
1001
ACADANNOTATIVE
1000
AnnotativeData
1002
{
1070
     1
1070
     1
1002
}
  0
LINE
  5
2F6D
330
2AC3
100
AcDbEntity
  8
DETAIL
100
AcDbLine
 10
-877.0507646113443
 20
55.44229258778796
 30
0.0
 11
-285.6507646113428
 21
-226.1766065193742
 31
0.0
1001
ACAD
1010
0.0
1020
0.0
1030
0.0
1001
ACADANNOTATIVE
1000
AnnotativeData
1002
{
1070
     1
1070
     1
1002
}
  0
LINE
  5
2F6E
330
2AC3
100
AcDbEntity
  8
DETAIL
100
AcDbLine
 10
-877.0507646113443
 20
45.44234084365416
 30
0.0
 11
-285.6507646113446
 21
-236.176558263508
 31
0.0
1001
ACAD
1010
0.0
1020
0.0
1030
0.0
1001
ACADANNOTATIVE
1000
AnnotativeData
1002
{
1070
     1
1070
     1
1002
}
  0
LINE
  5
2F6F
330
2AC3
100
AcDbEntity
  8
DETAIL
100
AcDbLine
 10
-877.0507646113443
 20
35.44238909951855
 30
0.0
 11
-285.6507646113428
 21
-246.1765100076436
 31
0.0
1001
ACAD
1010
0.0
1020
0.0
1030
0.0
1001
ACADANNOTATIVE
1000
AnnotativeData
1002
{
1070
     1
1070
     1
1002
}
  0
LINE
  5
2F70
330
2AC3
100
AcDbEntity
  8
DETAIL
100
AcDbLine
 10
-877.0507646113406
 20
25.44243735538294
 30
0.0
 11
-285.6507646113463
 21
-256.1764617517774
 31
0.0
1001
ACAD
1010
0.0
1020
0.0
1030
0.0
1001
ACADANNOTATIVE
1000
AnnotativeData
1002
{
1070
     1
1070
     1
1002
}
  0
LINE
  5
2F71
330
2AC3
100
AcDbEntity
  8
DETAIL
100
AcDbLine
 10
-877.0507646113443
 20
15.44248561124914
 30
0.0
 11
-285.6507646113428
 21
-266.176413495913
 31
0.0
1001
ACAD
1010
0.0
1020
0.0
1030
0.0
1001
ACADANNOTATIVE
1000
AnnotativeData
1002
{
1070
     1
1070
     1
1002
}
  0
LINE
  5
2F72
330
2AC3
100
AcDbEntity
  8
DETAIL
100
AcDbLine
 10
-877.0507646113422
 20
5.442533867114432
 30
0.0
 11
-285.6507646113428
 21
-276.1763652400487
 31
0.0
1001
ACAD
1010
0.0
1020
0.0
1030
0.0
1001
ACADANNOTATIVE
1000
AnnotativeData
1002
{
1070
     1
1070
     1
1002
}
  0
LINE
  5
2F73
330
2AC3
100
AcDbEntity
  8
DETAIL
100
AcDbLine
 10
-877.0507646113443
 20
-4.55741787701845
 30
0.0
 11
-285.6507646113428
 21
-286.1763169841806
 31
0.0
1001
ACAD
1010
0.0
1020
0.0
1030
0.0
1001
ACADANNOTATIVE
1000
AnnotativeData
1002
{
1070
     1
1070
     1
1002
}
  0
LINE
  5
2F74
330
2AC3
100
AcDbEntity
  8
DETAIL
100
AcDbLine
 10
-877.0507646113443
 20
-14.55736962115316
 30
0.0
 11
-306.0898693203021
 21
-286.4433668567008
 31
0.0
1001
ACAD
1010
0.0
1020
0.0
1030
0.0
1001
ACADANNOTATIVE
1000
AnnotativeData
1002
{
1070
     1
1070
     1
1002
}
  0
LINE
  5
2F75
330
2AC3
100
AcDbEntity
  8
DETAIL
100
AcDbLine
 10
-877.0507646113443
 20
-24.55732136528786
 30
0.0
 11
-327.0897790572913
 21
-286.4433668567017
 31
0.0
1001
ACAD
1010
0.0
1020
0.0
1030
0.0
1001
ACADANNOTATIVE
1000
AnnotativeData
1002
{
1070
     1
1070
     1
1002
}
  0
LINE
  5
2F76
330
2AC3
100
AcDbEntity
  8
DETAIL
100
AcDbLine
 10
-877.0507646113443
 20
-34.55727310942257
 30
0.0
 11
-348.0896887942858
 21
-286.4433668567008
 31
0.0
1001
ACAD
1010
0.0
1020
0.0
1030
0.0
1001
ACADANNOTATIVE
1000
AnnotativeData
1002
{
1070
     1
1070
     1
1002
}
  0
LINE
  5
2F77
330
2AC3
100
AcDbEntity
  8
DETAIL
100
AcDbLine
 10
-877.0507646113406
 20
-44.55722485355817
 30
0.0
 11
-369.089598531275
 21
-286.4433668567026
 31
0.0
1001
ACAD
1010
0.0
1020
0.0
1030
0.0
1001
ACADANNOTATIVE
1000
AnnotativeData
1002
{
1070
     1
1070
     1
1002
}
  0
LINE
  5
2F78
330
2AC3
100
AcDbEntity
  8
DETAIL
100
AcDbLine
 10
-877.0507646113443
 20
-54.55717659769015
 30
0.0
 11
-390.0895082682642
 21
-286.4433668567008
 31
0.0
1001
ACAD
1010
0.0
1020
0.0
1030
0.0
1001
ACADANNOTATIVE
1000
AnnotativeData
1002
{
1070
     1
1070
     1
1002
}
  0
LINE
  5
2F79
330
2AC3
100
AcDbEntity
  8
DETAIL
100
AcDbLine
 10
-877.0507646113422
 20
-64.55712834182577
 30
0.0
 11
-411.0894180052532
 21
-286.4433668567026
 31
0.0
1001
ACAD
1010
0.0
1020
0.0
1030
0.0
1001
ACADANNOTATIVE
1000
AnnotativeData
1002
{
1070
     1
1070
     1
1002
}
  0
LINE
  5
2F7A
330
2AC3
100
AcDbEntity
  8
DETAIL
100
AcDbLine
 10
-877.0507646113443
 20
-74.55708008595955
 30
0.0
 11
-432.0893277422478
 21
-286.4433668567008
 31
0.0
1001
ACAD
1010
0.0
1020
0.0
1030
0.0
1001
ACADANNOTATIVE
1000
AnnotativeData
1002
{
1070
     1
1070
     1
1002
}
  0
LINE
  5
2F7B
330
2AC3
100
AcDbEntity
  8
DETAIL
100
AcDbLine
 10
-877.0507646113443
 20
-84.55703183009518
 30
0.0
 11
-453.0892374792351
 21
-286.4433668567026
 31
0.0
1001
ACAD
1010
0.0
1020
0.0
1030
0.0
1001
ACADANNOTATIVE
1000
AnnotativeData
1002
{
1070
     1
1070
     1
1002
}
  0
LINE
  5
2F7C
330
2AC3
100
AcDbEntity
  8
DETAIL
100
AcDbLine
 10
-877.0507646113443
 20
-94.556983574229
 30
0.0
 11
-474.0891472162298
 21
-286.4433668567008
 31
0.0
1001
ACAD
1010
0.0
1020
0.0
1030
0.0
1001
ACADANNOTATIVE
1000
AnnotativeData
1002
{
1070
     1
1070
     1
1002
}
  0
LINE
  5
2F7D
330
2AC3
100
AcDbEntity
  8
DETAIL
100
AcDbLine
 10
-877.0507646113443
 20
-104.5569353183646
 30
0.0
 11
-495.089056953217
 21
-286.4433668567026
 31
0.0
1001
ACAD
1010
0.0
1020
0.0
1030
0.0
1001
ACADANNOTATIVE
1000
AnnotativeData
1002
{
1070
     1
1070
     1
1002
}
  0
LINE
  5
2F7E
330
2AC3
100
AcDbEntity
  8
DETAIL
100
AcDbLine
 10
-877.0507646113443
 20
-114.5568870624966
 30
0.0
 11
-516.0889666902116
 21
-286.4433668566999
 31
0.0
1001
ACAD
1010
0.0
1020
0.0
1030
0.0
1001
ACADANNOTATIVE
1000
AnnotativeData
1002
{
1070
     1
1070
     1
1002
}
  0
LINE
  5
2F7F
330
2AC3
100
AcDbEntity
  8
DETAIL
100
AcDbLine
 10
-877.0507646113422
 20
-124.5568388066322
 30
0.0
 11
-537.088876427199
 21
-286.4433668567008
 31
0.0
1001
ACAD
1010
0.0
1020
0.0
1030
0.0
1001
ACADANNOTATIVE
1000
AnnotativeData
1002
{
1070
     1
1070
     1
1002
}
  0
LINE
  5
2F80
330
2AC3
100
AcDbEntity
  8
DETAIL
100
AcDbLine
 10
-877.0507646113422
 20
-134.5567905507678
 30
0.0
 11
-558.0887861641918
 21
-286.4433668567017
 31
0.0
1001
ACAD
1010
0.0
1020
0.0
1030
0.0
1001
ACADANNOTATIVE
1000
AnnotativeData
1002
{
1070
     1
1070
     1
1002
}
  0
LINE
  5
2F81
330
2AC3
100
AcDbEntity
  8
DETAIL
100
AcDbLine
 10
-877.0507646113443
 20
-144.5567422949016
 30
0.0
 11
-579.0886959011809
 21
-286.4433668567017
 31
0.0
1001
ACAD
1010
0.0
1020
0.0
1030
0.0
1001
ACADANNOTATIVE
1000
AnnotativeData
1002
{
1070
     1
1070
     1
1002
}
  0
LINE
  5
2F82
330
2AC3
100
AcDbEntity
  8
DETAIL
100
AcDbLine
 10
-877.0507646113443
 20
-154.5566940390371
 30
0.0
 11
-600.0886056381719
 21
-286.4433668567017
 31
0.0
1001
ACAD
1010
0.0
1020
0.0
1030
0.0
1001
ACADANNOTATIVE
1000
AnnotativeData
1002
{
1070
     1
1070
     1
1002
}
  0
LINE
  5
2F83
330
2AC3
100
AcDbEntity
  8
DETAIL
100
AcDbLine
 10
-877.0507646113443
 20
-164.5566457831692
 30
0.0
 11
-621.0885153751648
 21
-286.4433668566999
 31
0.0
1001
ACAD
1010
0.0
1020
0.0
1030
0.0
1001
ACADANNOTATIVE
1000
AnnotativeData
1002
{
1070
     1
1070
     1
1002
}
  0
LINE
  5
2F84
330
2AC3
100
AcDbEntity
  8
DETAIL
100
AcDbLine
 10
-877.0507646113443
 20
-174.5565975273048
 30
0.0
 11
-642.0884251121501
 21
-286.4433668567017
 31
0.0
1001
ACAD
1010
0.0
1020
0.0
1030
0.0
1001
ACADANNOTATIVE
1000
AnnotativeData
1002
{
1070
     1
1070
     1
1002
}
  0
LINE
  5
2F85
330
2AC3
100
AcDbEntity
  8
DETAIL
100
AcDbLine
 10
-877.0507646113443
 20
-184.5565492714386
 30
0.0
 11
-663.0883348491448
 21
-286.4433668567017
 31
0.0
1001
ACAD
1010
0.0
1020
0.0
1030
0.0
1001
ACADANNOTATIVE
1000
AnnotativeData
1002
{
1070
     1
1070
     1
1002
}
  0
LINE
  5
2F86
330
2AC3
100
AcDbEntity
  8
DETAIL
100
AcDbLine
 10
-877.0507646113422
 20
-194.5565010155742
 30
0.0
 11
-684.0882445861339
 21
-286.4433668567017
 31
0.0
1001
ACAD
1010
0.0
1020
0.0
1030
0.0
1001
ACADANNOTATIVE
1000
AnnotativeData
1002
{
1070
     1
1070
     1
1002
}
  0
LINE
  5
2F87
330
2AC3
100
AcDbEntity
  8
DETAIL
100
AcDbLine
 10
-877.0507646113458
 20
-204.556452759708
 30
0.0
 11
-705.0881543231266
 21
-286.4433668567017
 31
0.0
1001
ACAD
1010
0.0
1020
0.0
1030
0.0
1001
ACADANNOTATIVE
1000
AnnotativeData
1002
{
1070
     1
1070
     1
1002
}
  0
LINE
  5
2F88
330
2AC3
100
AcDbEntity
  8
DETAIL
100
AcDbLine
 10
-877.0507646113443
 20
-214.5564045038419
 30
0.0
 11
-726.0880640601176
 21
-286.4433668566999
 31
0.0
1001
ACAD
1010
0.0
1020
0.0
1030
0.0
1001
ACADANNOTATIVE
1000
AnnotativeData
1002
{
1070
     1
1070
     1
1002
}
  0
LINE
  5
2F89
330
2AC3
100
AcDbEntity
  8
DETAIL
100
AcDbLine
 10
-877.0507646113422
 20
-224.5563562479765
 30
0.0
 11
-747.0879737971086
 21
-286.4433668566999
 31
0.0
1001
ACAD
1010
0.0
1020
0.0
1030
0.0
1001
ACADANNOTATIVE
1000
AnnotativeData
1002
{
1070
     1
1070
     1
1002
}
  0
LINE
  5
2F8A
330
2AC3
100
AcDbEntity
  8
DETAIL
100
AcDbLine
 10
-877.0507646113443
 20
-234.5563079921103
 30
0.0
 11
-768.0878835340994
 21
-286.4433668566999
 31
0.0
1001
ACAD
1010
0.0
1020
0.0
1030
0.0
1001
ACADANNOTATIVE
1000
AnnotativeData
1002
{
1070
     1
1070
     1
1002
}
  0
LINE
  5
2F8B
330
2AC3
100
AcDbEntity
  8
DETAIL
100
AcDbLine
 10
-877.0507646113406
 20
-244.5562597362459
 30
0.0
 11
-789.0877932710905
 21
-286.4433668567008
 31
0.0
1001
ACAD
1010
0.0
1020
0.0
1030
0.0
1001
ACADANNOTATIVE
1000
AnnotativeData
1002
{
1070
     1
1070
     1
1002
}
  0
LINE
  5
2F8C
330
2AC3
100
AcDbEntity
  8
DETAIL
100
AcDbLine
 10
-877.0507646113443
 20
-254.5562114803797
 30
0.0
 11
-810.0877030080813
 21
-286.4433668567008
 31
0.0
1001
ACAD
1010
0.0
1020
0.0
1030
0.0
1001
ACADANNOTATIVE
1000
AnnotativeData
1002
{
1070
     1
1070
     1
1002
}
  0
LINE
  5
2F8D
330
2AC3
100
AcDbEntity
  8
DETAIL
100
AcDbLine
 10
-877.0507646113422
 20
-264.5561632245153
 30
0.0
 11
-831.0876127450722
 21
-286.4433668567008
 31
0.0
1001
ACAD
1010
0.0
1020
0.0
1030
0.0
1001
ACADANNOTATIVE
1000
AnnotativeData
1002
{
1070
     1
1070
     1
1002
}
  0
LINE
  5
2F8E
330
2AC3
100
AcDbEntity
  8
DETAIL
100
AcDbLine
 10
-877.0507646113458
 20
-274.5561149686473
 30
0.0
 11
-852.0875224820652
 21
-286.443366856699
 31
0.0
1001
ACAD
1010
0.0
1020
0.0
1030
0.0
1001
ACADANNOTATIVE
1000
AnnotativeData
1002
{
1070
     1
1070
     1
1002
}
  0
LINE
  5
2F8F
330
2AC3
100
AcDbEntity
  8
DETAIL
100
AcDbLine
 10
-877.0507646113443
 20
-284.5560667127829
 30
0.0
 11
-873.0874322190542
 21
-286.443366856699
 31
0.0
1001
ACAD
1010
0.0
1020
0.0
1030
0.0
1001
ACADANNOTATIVE
1000
AnnotativeData
1002
{
1070
     1
1070
     1
1002
}
  0
LINE
  5
2F90
330
2AC3
100
AcDbEntity
  8
DETAIL
100
AcDbLine
 10
-877.0507646113369
 20
233.5683606604261
 30
0.0
 11
-859.4353831078301
 21
241.956633143297
 31
0.0
1001
ACAD
1010
0.0
1020
0.0
1030
0.0
1001
ACADANNOTATIVE
1000
AnnotativeData
1002
{
1070
     1
1070
     1
1002
}
  0
LINE
  5
2F91
330
2AC3
100
AcDbEntity
  8
DETAIL
100
AcDbLine
 10
-877.0507646113369
 20
223.5684089162933
 30
0.0
 11
-838.4354733708356
 21
241.9566331432998
 31
0.0
1001
ACAD
1010
0.0
1020
0.0
1030
0.0
1001
ACADANNOTATIVE
1000
AnnotativeData
1002
{
1070
     1
1070
     1
1002
}
  0
LINE
  5
2F92
330
2AC3
100
AcDbEntity
  8
DETAIL
100
AcDbLine
 10
-877.0507646113351
 20
213.5684571721577
 30
0.0
 11
-817.43556363385
 21
241.9566331432979
 31
0.0
1001
ACAD
1010
0.0
1020
0.0
1030
0.0
1001
ACADANNOTATIVE
1000
AnnotativeData
1002
{
1070
     1
1070
     1
1002
}
  0
LINE
  5
2F93
330
2AC3
100
AcDbEntity
  8
DETAIL
100
AcDbLine
 10
-877.0507646113369
 20
203.568505428022
 30
0.0
 11
-796.4356538968573
 21
241.9566331432979
 31
0.0
1001
ACAD
1010
0.0
1020
0.0
1030
0.0
1001
ACADANNOTATIVE
1000
AnnotativeData
1002
{
1070
     1
1070
     1
1002
}
  0
LINE
  5
2F94
330
2AC3
100
AcDbEntity
  8
DETAIL
100
AcDbLine
 10
-877.0507646113369
 20
193.5685536838891
 30
0.0
 11
-775.4357441598662
 21
241.9566331432989
 31
0.0
1001
ACAD
1010
0.0
1020
0.0
1030
0.0
1001
ACADANNOTATIVE
1000
AnnotativeData
1002
{
1070
     1
1070
     1
1002
}
  0
LINE
  5
2F95
330
2AC3
100
AcDbEntity
  8
DETAIL
100
AcDbLine
 10
-877.0507646113387
 20
183.5686019397535
 30
0.0
 11
-754.4358344228771
 21
241.9566331432989
 31
0.0
1001
ACAD
1010
0.0
1020
0.0
1030
0.0
1001
ACADANNOTATIVE
1000
AnnotativeData
1002
{
1070
     1
1070
     1
1002
}
  0
LINE
  5
2F96
330
2AC3
100
AcDbEntity
  8
DETAIL
100
AcDbLine
 10
-877.0507646113369
 20
173.5686501956205
 30
0.0
 11
-733.4359246858844
 21
241.9566331432989
 31
0.0
1001
ACAD
1010
0.0
1020
0.0
1030
0.0
1001
ACADANNOTATIVE
1000
AnnotativeData
1002
{
1070
     1
1070
     1
1002
}
  0
LINE
  5
2F97
330
2AC3
100
AcDbEntity
  8
DETAIL
100
AcDbLine
 10
-877.0507646113369
 20
163.568698451485
 30
0.0
 11
-712.4360149488969
 21
241.9566331432979
 31
0.0
1001
ACAD
1010
0.0
1020
0.0
1030
0.0
1001
ACADANNOTATIVE
1000
AnnotativeData
1002
{
1070
     1
1070
     1
1002
}
  0
LINE
  5
2F98
330
2AC3
100
AcDbEntity
  8
DETAIL
100
AcDbLine
 10
-877.0507646113351
 20
153.5687467073512
 30
0.0
 11
-691.4361052119006
 21
241.9566331432989
 31
0.0
1001
ACAD
1010
0.0
1020
0.0
1030
0.0
1001
ACADANNOTATIVE
1000
AnnotativeData
1002
{
1070
     1
1070
     1
1002
}
  0
LINE
  5
2F99
330
2AC3
100
AcDbEntity
  8
DETAIL
100
AcDbLine
 10
-877.0507646113369
 20
143.5687949632174
 30
0.0
 11
-670.4361954749153
 21
241.9566331432979
 31
0.0
1001
ACAD
1010
0.0
1020
0.0
1030
0.0
1001
ACADANNOTATIVE
1000
AnnotativeData
1002
{
1070
     1
1070
     1
1002
}
  0
LINE
  5
2F9A
330
2AC3
100
AcDbEntity
  8
DETAIL
100
AcDbLine
 10
-877.0507646113351
 20
133.5688432190827
 30
0.0
 11
-649.436285737926
 21
241.956633143297
 31
0.0
1001
ACAD
1010
0.0
1020
0.0
1030
0.0
1001
ACADANNOTATIVE
1000
AnnotativeData
1002
{
1070
     1
1070
     1
1002
}
  0
LINE
  5
2F9B
330
2AC3
100
AcDbEntity
  8
DETAIL
100
AcDbLine
 10
-877.0507646113333
 20
123.5688914749489
 30
0.0
 11
-628.4363760009332
 21
241.956633143297
 31
0.0
1001
ACAD
1010
0.0
1020
0.0
1030
0.0
1001
ACADANNOTATIVE
1000
AnnotativeData
1002
{
1070
     1
1070
     1
1002
}
  0
LINE
  5
2F9C
330
2AC3
100
AcDbEntity
  8
DETAIL
100
AcDbLine
 10
-877.0507646113369
 20
113.5689397308133
 30
0.0
 11
-607.4364662639423
 21
241.956633143297
 31
0.0
1001
ACAD
1010
0.0
1020
0.0
1030
0.0
1001
ACADANNOTATIVE
1000
AnnotativeData
1002
{
1070
     1
1070
     1
1002
}
  0
LINE
  5
2F9D
330
2AC3
100
AcDbEntity
  8
DETAIL
100
AcDbLine
 10
-877.0507646113351
 20
103.5689879866795
 30
0.0
 11
-586.4365565269531
 21
241.956633143297
 31
0.0
1001
ACAD
1010
0.0
1020
0.0
1030
0.0
1001
ACADANNOTATIVE
1000
AnnotativeData
1002
{
1070
     1
1070
     1
1002
}
  0
LINE
  5
2F9E
330
2AC3
100
AcDbEntity
  8
DETAIL
100
AcDbLine
 10
-877.0507646113369
 20
93.56903624254483
 30
0.0
 11
-565.436646789964
 21
241.9566331432961
 31
0.0
1001
ACAD
1010
0.0
1020
0.0
1030
0.0
1001
ACADANNOTATIVE
1000
AnnotativeData
1002
{
1070
     1
1070
     1
1002
}
  0
LINE
  5
2F9F
330
2AC3
100
AcDbEntity
  8
DETAIL
100
AcDbLine
 10
-877.0507646113369
 20
83.56908449841103
 30
0.0
 11
-544.4367370529692
 21
241.9566331432979
 31
0.0
1001
ACAD
1010
0.0
1020
0.0
1030
0.0
1001
ACADANNOTATIVE
1000
AnnotativeData
1002
{
1070
     1
1070
     1
1002
}
  0
LINE
  5
2FA0
330
2AC3
100
AcDbEntity
  8
DETAIL
100
AcDbLine
 10
-877.0507646113351
 20
73.5691327542754
 30
0.0
 11
-523.4368273159803
 21
241.9566331432961
 31
0.0
1001
ACAD
1010
0.0
1020
0.0
1030
0.0
1001
ACADANNOTATIVE
1000
AnnotativeData
1002
{
1070
     1
1070
     1
1002
}
  0
LINE
  5
2FA1
330
2AC3
100
AcDbEntity
  8
DETAIL
100
AcDbLine
 10
-877.0507646113333
 20
63.56918101014253
 30
0.0
 11
-502.4369175789875
 21
241.9566331432989
 31
0.0
1001
ACAD
1010
0.0
1020
0.0
1030
0.0
1001
ACADANNOTATIVE
1000
AnnotativeData
1002
{
1070
     1
1070
     1
1002
}
  0
LINE
  5
2FA2
330
2AC3
100
AcDbEntity
  8
DETAIL
100
AcDbLine
 10
-877.0507646113369
 20
53.56922926600692
 30
0.0
 11
-501.4507646113383
 21
232.4262778027842
 31
0.0
1001
ACAD
1010
0.0
1020
0.0
1030
0.0
1001
ACADANNOTATIVE
1000
AnnotativeData
1002
{
1070
     1
1070
     1
1002
}
  0
LINE
  5
2FA3
330
2AC3
100
AcDbEntity
  8
DETAIL
100
AcDbLine
 10
-501.4507646113383
 20
232.4262778027842
 30
0.0
 11
-481.4370078420002
 21
241.956633143297
 31
0.0
1001
ACAD
1010
0.0
1020
0.0
1030
0.0
1001
ACADANNOTATIVE
1000
AnnotativeData
1002
{
1070
     1
1070
     1
1002
}
  0
LINE
  5
2FA4
330
2AC3
100
AcDbEntity
  8
DETAIL
100
AcDbLine
 10
-877.0507646113351
 20
43.56927752187312
 30
0.0
 11
-501.4507646113401
 21
222.4263260586486
 31
0.0
1001
ACAD
1010
0.0
1020
0.0
1030
0.0
1001
ACADANNOTATIVE
1000
AnnotativeData
1002
{
1070
     1
1070
     1
1002
}
  0
LINE
  5
2FA5
330
2AC3
100
AcDbEntity
  8
DETAIL
100
AcDbLine
 10
-501.4507646113365
 20
222.4263260586504
 30
0.0
 11
-460.4370981050037
 21
241.9566331432979
 31
0.0
1001
ACAD
1010
0.0
1020
0.0
1030
0.0
1001
ACADANNOTATIVE
1000
AnnotativeData
1002
{
1070
     1
1070
     1
1002
}
  0
LINE
  5
2FA6
330
2AC3
100
AcDbEntity
  8
DETAIL
100
AcDbLine
 10
-877.0507646113369
 20
33.56932577773842
 30
0.0
 11
-501.4507646113346
 21
212.4263743145156
 31
0.0
1001
ACAD
1010
0.0
1020
0.0
1030
0.0
1001
ACADANNOTATIVE
1000
AnnotativeData
1002
{
1070
     1
1070
     1
1002
}
  0
LINE
  5
2FA7
330
2AC3
100
AcDbEntity
  8
DETAIL
100
AcDbLine
 10
-501.4507646113346
 20
212.4263743145156
 30
0.0
 11
-439.4371883680181
 21
241.9566331432979
 31
0.0
1001
ACAD
1010
0.0
1020
0.0
1030
0.0
1001
ACADANNOTATIVE
1000
AnnotativeData
1002
{
1070
     1
1070
     1
1002
}
  0
LINE
  5
2FA8
330
2AC3
100
AcDbEntity
  8
DETAIL
100
AcDbLine
 10
-877.0507646113369
 20
23.5693740336028
 30
0.0
 11
-501.4507646113383
 21
202.4264225703801
 31
0.0
1001
ACAD
1010
0.0
1020
0.0
1030
0.0
1001
ACADANNOTATIVE
1000
AnnotativeData
1002
{
1070
     1
1070
     1
1002
}
  0
LINE
  5
2FA9
330
2AC3
100
AcDbEntity
  8
DETAIL
100
AcDbLine
 10
-501.4507646113383
 20
202.4264225703801
 30
0.0
 11
-418.4372786310237
 21
241.9566331432989
 31
0.0
1001
ACAD
1010
0.0
1020
0.0
1030
0.0
1001
ACADANNOTATIVE
1000
AnnotativeData
1002
{
1070
     1
1070
     1
1002
}
  0
LINE
  5
2FAA
330
2AC3
100
AcDbEntity
  8
DETAIL
100
AcDbLine
 10
-877.0507646113351
 20
13.56942228946991
 30
0.0
 11
-501.4507646113365
 21
192.4264708262471
 31
0.0
1001
ACAD
1010
0.0
1020
0.0
1030
0.0
1001
ACADANNOTATIVE
1000
AnnotativeData
1002
{
1070
     1
1070
     1
1002
}
  0
LINE
  5
2FAB
330
2AC3
100
AcDbEntity
  8
DETAIL
100
AcDbLine
 10
-501.4507646113365
 20
192.4264708262471
 30
0.0
 11
-397.4373688940346
 21
241.9566331432979
 31
0.0
1001
ACAD
1010
0.0
1020
0.0
1030
0.0
1001
ACADANNOTATIVE
1000
AnnotativeData
1002
{
1070
     1
1070
     1
1002
}
  0
LINE
  5
2FAC
330
2AC3
100
AcDbEntity
  8
DETAIL
100
AcDbLine
 10
-877.0507646113369
 20
3.569470545334296
 30
0.0
 11
-501.4507646113383
 21
182.4265190821115
 31
0.0
1001
ACAD
1010
0.0
1020
0.0
1030
0.0
1001
ACADANNOTATIVE
1000
AnnotativeData
1002
{
1070
     1
1070
     1
1002
}
  0
LINE
  5
2FAD
330
2AC3
100
AcDbEntity
  8
DETAIL
100
AcDbLine
 10
-501.4507646113383
 20
182.4265190821115
 30
0.0
 11
-376.4374591570454
 21
241.956633143297
 31
0.0
1001
ACAD
1010
0.0
1020
0.0
1030
0.0
1001
ACADANNOTATIVE
1000
AnnotativeData
1002
{
1070
     1
1070
     1
1002
}
  0
LINE
  5
2FAE
330
2AC3
100
AcDbEntity
  8
DETAIL
100
AcDbLine
 10
-877.0507646113369
 20
-6.430481198799497
 30
0.0
 11
-501.4507646113383
 21
172.4265673379776
 31
0.0
1001
ACAD
1010
0.0
1020
0.0
1030
0.0
1001
ACADANNOTATIVE
1000
AnnotativeData
1002
{
1070
     1
1070
     1
1002
}
  0
LINE
  5
2FAF
330
2AC3
100
AcDbEntity
  8
DETAIL
100
AcDbLine
 10
-501.4507646113383
 20
172.4265673379776
 30
0.0
 11
-355.4375494200581
 21
241.9566331432961
 31
0.0
1001
ACAD
1010
0.0
1020
0.0
1030
0.0
1001
ACADANNOTATIVE
1000
AnnotativeData
1002
{
1070
     1
1070
     1
1002
}
  0
LINE
  5
2FB0
330
2AC3
100
AcDbEntity
  8
DETAIL
100
AcDbLine
 10
-877.0507646113387
 20
-16.4304329429342
 30
0.0
 11
-501.4507646113365
 21
162.426615593843
 31
0.0
1001
ACAD
1010
0.0
1020
0.0
1030
0.0
1001
ACADANNOTATIVE
1000
AnnotativeData
1002
{
1070
     1
1070
     1
1002
}
  0
LINE
  5
2FB1
330
2AC3
100
AcDbEntity
  8
DETAIL
100
AcDbLine
 10
-501.4507646113365
 20
162.426615593843
 30
0.0
 11
-334.4376396830653
 21
241.956633143297
 31
0.0
1001
ACAD
1010
0.0
1020
0.0
1030
0.0
1001
ACADANNOTATIVE
1000
AnnotativeData
1002
{
1070
     1
1070
     1
1002
}
  0
LINE
  5
2FB2
330
2AC3
100
AcDbEntity
  8
DETAIL
100
AcDbLine
 10
-877.0507646113333
 20
-26.430384687068
 30
0.0
 11
-501.4507646113346
 21
152.4266638497092
 31
0.0
1001
ACAD
1010
0.0
1020
0.0
1030
0.0
1001
ACADANNOTATIVE
1000
AnnotativeData
1002
{
1070
     1
1070
     1
1002
}
  0
LINE
  5
2FB3
330
2AC3
100
AcDbEntity
  8
DETAIL
100
AcDbLine
 10
-501.4507646113346
 20
152.4266638497092
 30
0.0
 11
-313.4377299460725
 21
241.956633143297
 31
0.0
1001
ACAD
1010
0.0
1020
0.0
1030
0.0
1001
ACADANNOTATIVE
1000
AnnotativeData
1002
{
1070
     1
1070
     1
1002
}
  0
LINE
  5
2FB4
330
2AC3
100
AcDbEntity
  8
DETAIL
100
AcDbLine
 10
-877.0507646113351
 20
-36.43033643120271
 30
0.0
 11
-501.4507646113365
 21
142.4267121055745
 31
0.0
1001
ACAD
1010
0.0
1020
0.0
1030
0.0
1001
ACADANNOTATIVE
1000
AnnotativeData
1002
{
1070
     1
1070
     1
1002
}
  0
LINE
  5
2FB5
330
2AC3
100
AcDbEntity
  8
DETAIL
100
AcDbLine
 10
-501.4507646113365
 20
142.4267121055745
 30
0.0
 11
-292.4378202090834
 21
241.9566331432979
 31
0.0
1001
ACAD
1010
0.0
1020
0.0
1030
0.0
1001
ACADANNOTATIVE
1000
AnnotativeData
1002
{
1070
     1
1070
     1
1002
}
  0
LINE
  5
2FB6
330
2AC3
100
AcDbEntity
  8
DETAIL
100
AcDbLine
 10
-877.0507646113333
 20
-46.43028817533649
 30
0.0
 11
-501.4507646113383
 21
132.4267603614398
 31
0.0
1001
ACAD
1010
0.0
1020
0.0
1030
0.0
1001
ACADANNOTATIVE
1000
AnnotativeData
1002
{
1070
     1
1070
     1
1002
}
  0
LINE
  5
2FB7
330
2AC3
100
AcDbEntity
  8
DETAIL
100
AcDbLine
 10
-501.4507646113346
 20
132.4267603614407
 30
0.0
 11
-285.6507646113318
 21
235.1886109318266
 31
0.0
1001
ACAD
1010
0.0
1020
0.0
1030
0.0
1001
ACADANNOTATIVE
1000
AnnotativeData
1002
{
1070
     1
1070
     1
1002
}
  0
LINE
  5
2FB8
330
2AC3
100
AcDbEntity
  8
DETAIL
100
AcDbLine
 10
-877.0507646113369
 20
-56.43023991947211
 30
0.0
 11
-501.4507646113383
 21
122.4268086173051
 31
0.0
1001
ACAD
1010
0.0
1020
0.0
1030
0.0
1001
ACADANNOTATIVE
1000
AnnotativeData
1002
{
1070
     1
1070
     1
1002
}
  0
LINE
  5
2FB9
330
2AC3
100
AcDbEntity
  8
DETAIL
100
AcDbLine
 10
-501.4507646113383
 20
122.4268086173051
 30
0.0
 11
-285.6507646113355
 21
225.188659187691
 31
0.0
1001
ACAD
1010
0.0
1020
0.0
1030
0.0
1001
ACADANNOTATIVE
1000
AnnotativeData
1002
{
1070
     1
1070
     1
1002
}
  0
LINE
  5
2FBA
330
2AC3
100
AcDbEntity
  8
DETAIL
100
AcDbLine
 10
-877.0507646113387
 20
-66.43019166360682
 30
0.0
 11
-501.4507646113365
 21
112.4268568731713
 31
0.0
1001
ACAD
1010
0.0
1020
0.0
1030
0.0
1001
ACADANNOTATIVE
1000
AnnotativeData
1002
{
1070
     1
1070
     1
1002
}
  0
LINE
  5
2FBB
330
2AC3
100
AcDbEntity
  8
DETAIL
100
AcDbLine
 10
-501.4507646113365
 20
112.4268568731713
 30
0.0
 11
-285.6507646113337
 21
215.1887074435581
 31
0.0
1001
ACAD
1010
0.0
1020
0.0
1030
0.0
1001
ACADANNOTATIVE
1000
AnnotativeData
1002
{
1070
     1
1070
     1
1002
}
  0
LINE
  5
2FBC
330
2AC3
100
AcDbEntity
  8
DETAIL
100
AcDbLine
 10
-877.0507646113333
 20
-76.43014340774062
 30
0.0
 11
-501.4507646113346
 21
102.4269051290366
 31
0.0
1001
ACAD
1010
0.0
1020
0.0
1030
0.0
1001
ACADANNOTATIVE
1000
AnnotativeData
1002
{
1070
     1
1070
     1
1002
}
  0
LINE
  5
2FBD
330
2AC3
100
AcDbEntity
  8
DETAIL
100
AcDbLine
 10
-501.4507646113346
 20
102.4269051290366
 30
0.0
 11
-285.6507646113355
 21
205.1887556994225
 31
0.0
1001
ACAD
1010
0.0
1020
0.0
1030
0.0
1001
ACADANNOTATIVE
1000
AnnotativeData
1002
{
1070
     1
1070
     1
1002
}
  0
LINE
  5
2FBE
330
2AC3
100
AcDbEntity
  8
DETAIL
100
AcDbLine
 10
-877.0507646113369
 20
-86.43009515187625
 30
0.0
 11
-501.4507646113383
 21
92.42695338490191
 31
0.0
1001
ACAD
1010
0.0
1020
0.0
1030
0.0
1001
ACADANNOTATIVE
1000
AnnotativeData
1002
{
1070
     1
1070
     1
1002
}
  0
LINE
  5
2FBF
330
2AC3
100
AcDbEntity
  8
DETAIL
100
AcDbLine
 10
-501.4507646113383
 20
92.42695338490191
 30
0.0
 11
-285.6507646113355
 21
195.1888039552868
 31
0.0
1001
ACAD
1010
0.0
1020
0.0
1030
0.0
1001
ACADANNOTATIVE
1000
AnnotativeData
1002
{
1070
     1
1070
     1
1002
}
  0
LINE
  5
2FC0
330
2AC3
100
AcDbEntity
  8
DETAIL
100
AcDbLine
 10
-877.0507646113351
 20
-96.43004689600912
 30
0.0
 11
-501.4507646113365
 21
82.42700164076905
 31
0.0
1001
ACAD
1010
0.0
1020
0.0
1030
0.0
1001
ACADANNOTATIVE
1000
AnnotativeData
1002
{
1070
     1
1070
     1
1002
}
  0
LINE
  5
2FC1
330
2AC3
100
AcDbEntity
  8
DETAIL
100
AcDbLine
 10
-501.4507646113365
 20
82.42700164076905
 30
0.0
 11
-285.6507646113337
 21
185.188852211154
 31
0.0
1001
ACAD
1010
0.0
1020
0.0
1030
0.0
1001
ACADANNOTATIVE
1000
AnnotativeData
1002
{
1070
     1
1070
     1
1002
}
  0
LINE
  5
2FC2
330
2AC3
100
AcDbEntity
  8
DETAIL
100
AcDbLine
 10
-877.0507646113369
 20
-106.4299986401447
 30
0.0
 11
-501.4507646113383
 21
72.42704989663343
 31
0.0
1001
ACAD
1010
0.0
1020
0.0
1030
0.0
1001
ACADANNOTATIVE
1000
AnnotativeData
1002
{
1070
     1
1070
     1
1002
}
  0
LINE
  5
2FC3
330
2AC3
100
AcDbEntity
  8
DETAIL
100
AcDbLine
 10
-501.4507646113383
 20
72.42704989663343
 30
0.0
 11
-285.6507646113355
 21
175.1889004670183
 31
0.0
1001
ACAD
1010
0.0
1020
0.0
1030
0.0
1001
ACADANNOTATIVE
1000
AnnotativeData
1002
{
1070
     1
1070
     1
1002
}
  0
LINE
  5
2FC4
330
2AC3
100
AcDbEntity
  8
DETAIL
100
AcDbLine
 10
-877.0507646113369
 20
-116.4299503842785
 30
0.0
 11
-501.4507646113346
 21
62.42709815249964
 31
0.0
1001
ACAD
1010
0.0
1020
0.0
1030
0.0
1001
ACADANNOTATIVE
1000
AnnotativeData
1002
{
1070
     1
1070
     1
1002
}
  0
LINE
  5
2FC5
330
2AC3
100
AcDbEntity
  8
DETAIL
100
AcDbLine
 10
-501.4507646113346
 20
62.42709815249964
 30
0.0
 11
-285.6507646113355
 21
165.1889487228845
 31
0.0
1001
ACAD
1010
0.0
1020
0.0
1030
0.0
1001
ACADANNOTATIVE
1000
AnnotativeData
1002
{
1070
     1
1070
     1
1002
}
  0
LINE
  5
2FC6
330
2AC3
100
AcDbEntity
  8
DETAIL
100
AcDbLine
 10
-877.0507646113351
 20
-126.4299021284132
 30
0.0
 11
-501.4507646113365
 21
52.42714640836492
 31
0.0
1001
ACAD
1010
0.0
1020
0.0
1030
0.0
1001
ACADANNOTATIVE
1000
AnnotativeData
1002
{
1070
     1
1070
     1
1002
}
  0
LINE
  5
2FC7
330
2AC3
100
AcDbEntity
  8
DETAIL
100
AcDbLine
 10
-501.4507646113365
 20
52.42714640836492
 30
0.0
 11
-285.6507646113373
 21
155.1889969787498
 31
0.0
1001
ACAD
1010
0.0
1020
0.0
1030
0.0
1001
ACADANNOTATIVE
1000
AnnotativeData
1002
{
1070
     1
1070
     1
1002
}
  0
LINE
  5
2FC8
330
2AC3
100
AcDbEntity
  8
DETAIL
100
AcDbLine
 10
-877.0507646113333
 20
-136.429853872547
 30
0.0
 11
-489.418937460305
 21
48.15663314329867
 31
0.0
1001
ACAD
1010
0.0
1020
0.0
1030
0.0
1001
ACADANNOTATIVE
1000
AnnotativeData
1002
{
1070
     1
1070
     1
1002
}
  0
LINE
  5
2FC9
330
2AC3
100
AcDbEntity
  8
DETAIL
100
AcDbLine
 10
-489.418937460305
 20
48.15663314329867
 30
0.0
 11
-285.6507646113318
 21
145.189045234616
 31
0.0
1001
ACAD
1010
0.0
1020
0.0
1030
0.0
1001
ACADANNOTATIVE
1000
AnnotativeData
1002
{
1070
     1
1070
     1
1002
}
  0
LINE
  5
2FCA
330
2AC3
100
AcDbEntity
  8
DETAIL
100
AcDbLine
 10
-877.0507646113369
 20
-146.4298056166817
 30
0.0
 11
-468.4190277233177
 21
48.15663314329778
 31
0.0
1001
ACAD
1010
0.0
1020
0.0
1030
0.0
1001
ACADANNOTATIVE
1000
AnnotativeData
1002
{
1070
     1
1070
     1
1002
}
  0
LINE
  5
2FCB
330
2AC3
100
AcDbEntity
  8
DETAIL
100
AcDbLine
 10
-468.4190277233177
 20
48.15663314329778
 30
0.0
 11
-285.6507646113355
 21
135.1890934904813
 31
0.0
1001
ACAD
1010
0.0
1020
0.0
1030
0.0
1001
ACADANNOTATIVE
1000
AnnotativeData
1002
{
1070
     1
1070
     1
1002
}
  0
LINE
  5
2FCC
330
2AC3
100
AcDbEntity
  8
DETAIL
100
AcDbLine
 10
-877.0507646113351
 20
-156.4297573608155
 30
0.0
 11
-447.4191179863249
 21
48.15663314329778
 31
0.0
1001
ACAD
1010
0.0
1020
0.0
1030
0.0
1001
ACADANNOTATIVE
1000
AnnotativeData
1002
{
1070
     1
1070
     1
1002
}
  0
LINE
  5
2FCD
330
2AC3
100
AcDbEntity
  8
DETAIL
100
AcDbLine
 10
-447.4191179863214
 20
48.15663314329959
 30
0.0
 11
-285.6507646113337
 21
125.1891417463475
 31
0.0
1001
ACAD
1010
0.0
1020
0.0
1030
0.0
1001
ACADANNOTATIVE
1000
AnnotativeData
1002
{
1070
     1
1070
     1
1002
}
  0
LINE
  5
2FCE
330
2AC3
100
AcDbEntity
  8
DETAIL
100
AcDbLine
 10
-877.0507646113369
 20
-166.4297091049511
 30
0.0
 11
-426.4192082493358
 21
48.15663314329778
 31
0.0
1001
ACAD
1010
0.0
1020
0.0
1030
0.0
1001
ACADANNOTATIVE
1000
AnnotativeData
1002
{
1070
     1
1070
     1
1002
}
  0
LINE
  5
2FCF
330
2AC3
100
AcDbEntity
  8
DETAIL
100
AcDbLine
 10
-426.4192082493358
 20
48.15663314329778
 30
0.0
 11
-285.6507646113355
 21
115.1891900022119
 31
0.0
1001
ACAD
1010
0.0
1020
0.0
1030
0.0
1001
ACADANNOTATIVE
1000
AnnotativeData
1002
{
1070
     1
1070
     1
1002
}
  0
LINE
  5
2FD0
330
2AC3
100
AcDbEntity
  8
DETAIL
100
AcDbLine
 10
-877.0507646113351
 20
-176.429660849084
 30
0.0
 11
-405.4192985123432
 21
48.15663314329867
 31
0.0
1001
ACAD
1010
0.0
1020
0.0
1030
0.0
1001
ACADANNOTATIVE
1000
AnnotativeData
1002
{
1070
     1
1070
     1
1002
}
  0
LINE
  5
2FD1
330
2AC3
100
AcDbEntity
  8
DETAIL
100
AcDbLine
 10
-405.4192985123432
 20
48.15663314329867
 30
0.0
 11
-285.6507646113373
 21
105.1892382580781
 31
0.0
1001
ACAD
1010
0.0
1020
0.0
1030
0.0
1001
ACADANNOTATIVE
1000
AnnotativeData
1002
{
1070
     1
1070
     1
1002
}
  0
LINE
  5
2FD2
330
2AC3
100
AcDbEntity
  8
DETAIL
100
AcDbLine
 10
-877.0507646113351
 20
-186.4296125932196
 30
0.0
 11
-384.4193887753521
 21
48.15663314329867
 31
0.0
1001
ACAD
1010
0.0
1020
0.0
1030
0.0
1001
ACADANNOTATIVE
1000
AnnotativeData
1002
{
1070
     1
1070
     1
1002
}
  0
LINE
  5
2FD3
330
2AC3
100
AcDbEntity
  8
DETAIL
100
AcDbLine
 10
-384.4193887753521
 20
48.15663314329867
 30
0.0
 11
-285.6507646113337
 21
95.18928651394436
 31
0.0
1001
ACAD
1010
0.0
1020
0.0
1030
0.0
1001
ACADANNOTATIVE
1000
AnnotativeData
1002
{
1070
     1
1070
     1
1002
}
  0
LINE
  5
2FD4
330
2AC3
100
AcDbEntity
  8
DETAIL
100
AcDbLine
 10
-877.0507646113369
 20
-196.4295643373525
 30
0.0
 11
-363.4194790383631
 21
48.15663314329959
 31
0.0
1001
ACAD
1010
0.0
1020
0.0
1030
0.0
1001
ACADANNOTATIVE
1000
AnnotativeData
1002
{
1070
     1
1070
     1
1002
}
  0
LINE
  5
2FD5
330
2AC3
100
AcDbEntity
  8
DETAIL
100
AcDbLine
 10
-363.4194790383631
 20
48.15663314329959
 30
0.0
 11
-285.6507646113355
 21
85.18933476980967
 31
0.0
1001
ACAD
1010
0.0
1020
0.0
1030
0.0
1001
ACADANNOTATIVE
1000
AnnotativeData
1002
{
1070
     1
1070
     1
1002
}
  0
LINE
  5
2FD6
330
2AC3
100
AcDbEntity
  8
DETAIL
100
AcDbLine
 10
-877.0507646113351
 20
-206.4295160814881
 30
0.0
 11
-342.4195693013703
 21
48.15663314329867
 31
0.0
1001
ACAD
1010
0.0
1020
0.0
1030
0.0
1001
ACADANNOTATIVE
1000
AnnotativeData
1002
{
1070
     1
1070
     1
1002
}
  0
LINE
  5
2FD7
330
2AC3
100
AcDbEntity
  8
DETAIL
100
AcDbLine
 10
-342.4195693013703
 20
48.15663314329867
 30
0.0
 11
-285.6507646113337
 21
75.18938302567583
 31
0.0
1001
ACAD
1010
0.0
1020
0.0
1030
0.0
1001
ACADANNOTATIVE
1000
AnnotativeData
1002
{
1070
     1
1070
     1
1002
}
  0
LINE
  5
2FD8
330
2AC3
100
AcDbEntity
  8
DETAIL
100
AcDbLine
 10
-877.0507646113369
 20
-216.429467825622
 30
0.0
 11
-321.4196595643812
 21
48.15663314329778
 31
0.0
1001
ACAD
1010
0.0
1020
0.0
1030
0.0
1001
ACADANNOTATIVE
1000
AnnotativeData
1002
{
1070
     1
1070
     1
1002
}
  0
LINE
  5
2FD9
330
2AC3
100
AcDbEntity
  8
DETAIL
100
AcDbLine
 10
-321.4196595643775
 20
48.15663314329867
 30
0.0
 11
-285.6507646113355
 21
65.18943128154024
 31
0.0
1001
ACAD
1010
0.0
1020
0.0
1030
0.0
1001
ACADANNOTATIVE
1000
AnnotativeData
1002
{
1070
     1
1070
     1
1002
}
  0
LINE
  5
2FDA
330
2AC3
100
AcDbEntity
  8
DETAIL
100
AcDbLine
 10
-877.0507646113333
 20
-226.4294195697548
 30
0.0
 11
-300.4197498273866
 21
48.15663314329959
 31
0.0
1001
ACAD
1010
0.0
1020
0.0
1030
0.0
1001
ACADANNOTATIVE
1000
AnnotativeData
1002
{
1070
     1
1070
     1
1002
}
  0
LINE
  5
2FDB
330
2AC3
100
AcDbEntity
  8
DETAIL
100
AcDbLine
 10
-300.4197498273866
 20
48.15663314329959
 30
0.0
 11
-285.6507646113355
 21
55.18947953740735
 31
0.0
1001
ACAD
1010
0.0
1020
0.0
1030
0.0
1001
ACADANNOTATIVE
1000
AnnotativeData
1002
{
1070
     1
1070
     1
1002
}
  0
LINE
  5
2FDC
330
2AC3
100
AcDbEntity
  8
DETAIL
100
AcDbLine
 10
-877.0507646113351
 20
-236.4293713138904
 30
0.0
 11
-285.650764611341
 21
45.18952779326808
 31
0.0
1001
ACAD
1010
0.0
1020
0.0
1030
0.0
1001
ACADANNOTATIVE
1000
AnnotativeData
1002
{
1070
     1
1070
     1
1002
}
  0
LINE
  5
2FDD
330
2AC3
100
AcDbEntity
  8
DETAIL
100
AcDbLine
 10
-877.0507646113333
 20
-246.4293230580242
 30
0.0
 11
-285.6507646113428
 21
35.18957604913339
 31
0.0
1001
ACAD
1010
0.0
1020
0.0
1030
0.0
1001
ACADANNOTATIVE
1000
AnnotativeData
1002
{
1070
     1
1070
     1
1002
}
  0
LINE
  5
2FDE
330
2AC3
100
AcDbEntity
  8
DETAIL
100
AcDbLine
 10
-877.0507646113369
 20
-256.429274802159
 30
0.0
 11
-285.6507646113428
 21
25.1896243049996
 31
0.0
1001
ACAD
1010
0.0
1020
0.0
1030
0.0
1001
ACADANNOTATIVE
1000
AnnotativeData
1002
{
1070
     1
1070
     1
1002
}
  0
LINE
  5
2FDF
330
2AC3
100
AcDbEntity
  8
DETAIL
100
AcDbLine
 10
-877.0507646113387
 20
-266.4292265462945
 30
0.0
 11
-285.6507646113446
 21
15.18967256086489
 31
0.0
1001
ACAD
1010
0.0
1020
0.0
1030
0.0
1001
ACADANNOTATIVE
1000
AnnotativeData
1002
{
1070
     1
1070
     1
1002
}
  0
LINE
  5
2FE0
330
2AC3
100
AcDbEntity
  8
DETAIL
100
AcDbLine
 10
-877.0507646113333
 20
-276.4291782904284
 30
0.0
 11
-285.6507646113391
 21
5.189720816730186
 31
0.0
1001
ACAD
1010
0.0
1020
0.0
1030
0.0
1001
ACADANNOTATIVE
1000
AnnotativeData
1002
{
1070
     1
1070
     1
1002
}
  0
LINE
  5
2FE1
330
2AC3
100
AcDbEntity
  8
DETAIL
100
AcDbLine
 10
-877.0507646113369
 20
-286.4291300345631
 30
0.0
 11
-285.6507646113428
 21
-4.810230927403608
 31
0.0
1001
ACAD
1010
0.0
1020
0.0
1030
0.0
1001
ACADANNOTATIVE
1000
AnnotativeData
1002
{
1070
     1
1070
     1
1002
}
  0
LINE
  5
2FE2
330
2AC3
100
AcDbEntity
  8
DETAIL
100
AcDbLine
 10
-856.0807522166019
 20
-286.4433668567017
 30
0.0
 11
-285.650764611341
 21
-14.8101826715374
 31
0.0
1001
ACAD
1010
0.0
1020
0.0
1030
0.0
1001
ACADANNOTATIVE
1000
AnnotativeData
1002
{
1070
     1
1070
     1
1002
}
  0
LINE
  5
2FE3
330
2AC3
100
AcDbEntity
  8
DETAIL
100
AcDbLine
 10
-835.0808424796092
 20
-286.443366856699
 30
0.0
 11
-285.6507646113428
 21
-24.81013441567211
 31
0.0
1001
ACAD
1010
0.0
1020
0.0
1030
0.0
1001
ACADANNOTATIVE
1000
AnnotativeData
1002
{
1070
     1
1070
     1
1002
}
  0
LINE
  5
2FE4
330
2AC3
100
AcDbEntity
  8
DETAIL
100
AcDbLine
 10
-814.0809327426216
 20
-286.4433668567008
 30
0.0
 11
-285.6507646113463
 21
-34.81008615980773
 31
0.0
1001
ACAD
1010
0.0
1020
0.0
1030
0.0
1001
ACADANNOTATIVE
1000
AnnotativeData
1002
{
1070
     1
1070
     1
1002
}
  0
LINE
  5
2FE5
330
2AC3
100
AcDbEntity
  8
DETAIL
100
AcDbLine
 10
-793.0810230056289
 20
-286.4433668567008
 30
0.0
 11
-285.6507646113373
 21
-44.81003790394061
 31
0.0
1001
ACAD
1010
0.0
1020
0.0
1030
0.0
1001
ACADANNOTATIVE
1000
AnnotativeData
1002
{
1070
     1
1070
     1
1002
}
  0
LINE
  5
2FE6
330
2AC3
100
AcDbEntity
  8
DETAIL
100
AcDbLine
 10
-772.0811132686398
 20
-286.4433668567017
 30
0.0
 11
-285.6507646113391
 21
-54.8099896480744
 31
0.0
1001
ACAD
1010
0.0
1020
0.0
1030
0.0
1001
ACADANNOTATIVE
1000
AnnotativeData
1002
{
1070
     1
1070
     1
1002
}
  0
LINE
  5
2FE7
330
2AC3
100
AcDbEntity
  8
DETAIL
100
AcDbLine
 10
-751.0812035316506
 20
-286.4433668567017
 30
0.0
 11
-285.6507646113373
 21
-64.8099413922082
 31
0.0
1001
ACAD
1010
0.0
1020
0.0
1030
0.0
1001
ACADANNOTATIVE
1000
AnnotativeData
1002
{
1070
     1
1070
     1
1002
}
  0
LINE
  5
2FE8
330
2AC3
100
AcDbEntity
  8
DETAIL
100
AcDbLine
 10
-730.081293794658
 20
-286.4433668567008
 30
0.0
 11
-285.6507646113391
 21
-74.80989313634291
 31
0.0
1001
ACAD
1010
0.0
1020
0.0
1030
0.0
1001
ACADANNOTATIVE
1000
AnnotativeData
1002
{
1070
     1
1070
     1
1002
}
  0
LINE
  5
2FE9
330
2AC3
100
AcDbEntity
  8
DETAIL
100
AcDbLine
 10
-709.0813840576669
 20
-286.4433668567008
 30
0.0
 11
-285.6507646113391
 21
-84.80984488047671
 31
0.0
1001
ACAD
1010
0.0
1020
0.0
1030
0.0
1001
ACADANNOTATIVE
1000
AnnotativeData
1002
{
1070
     1
1070
     1
1002
}
  0
LINE
  5
2FEA
330
2AC3
100
AcDbEntity
  8
DETAIL
100
AcDbLine
 10
-688.0814743206742
 20
-286.4433668567017
 30
0.0
 11
-285.6507646113373
 21
-94.80979662461232
 31
0.0
1001
ACAD
1010
0.0
1020
0.0
1030
0.0
1001
ACADANNOTATIVE
1000
AnnotativeData
1002
{
1070
     1
1070
     1
1002
}
  0
LINE
  5
2FEB
330
2AC3
100
AcDbEntity
  8
DETAIL
100
AcDbLine
 10
-667.0815645836851
 20
-286.4433668567008
 30
0.0
 11
-285.6507646113355
 21
-104.8097483687452
 31
0.0
1001
ACAD
1010
0.0
1020
0.0
1030
0.0
1001
ACADANNOTATIVE
1000
AnnotativeData
1002
{
1070
     1
1070
     1
1002
}
  0
LINE
  5
2FEC
330
2AC3
100
AcDbEntity
  8
DETAIL
100
AcDbLine
 10
-646.081654846694
 20
-286.4433668567008
 30
0.0
 11
-285.6507646113391
 21
-114.8097001128808
 31
0.0
1001
ACAD
1010
0.0
1020
0.0
1030
0.0
1001
ACADANNOTATIVE
1000
AnnotativeData
1002
{
1070
     1
1070
     1
1002
}
  0
LINE
  5
2FED
330
2AC3
100
AcDbEntity
  8
DETAIL
100
AcDbLine
 10
-625.081745109705
 20
-286.4433668567026
 30
0.0
 11
-285.650764611341
 21
-124.8096518570164
 31
0.0
1001
ACAD
1010
0.0
1020
0.0
1030
0.0
1001
ACADANNOTATIVE
1000
AnnotativeData
1002
{
1070
     1
1070
     1
1002
}
  0
LINE
  5
2FEE
330
2AC3
100
AcDbEntity
  8
DETAIL
100
AcDbLine
 10
-604.0818353727122
 20
-286.4433668566999
 30
0.0
 11
-285.6507646113391
 21
-134.8096036011493
 31
0.0
1001
ACAD
1010
0.0
1020
0.0
1030
0.0
1001
ACADANNOTATIVE
1000
AnnotativeData
1002
{
1070
     1
1070
     1
1002
}
  0
LINE
  5
2FEF
330
2AC3
100
AcDbEntity
  8
DETAIL
100
AcDbLine
 10
-583.0819256357248
 20
-286.4433668567017
 30
0.0
 11
-285.6507646113391
 21
-144.8095553452849
 31
0.0
1001
ACAD
1010
0.0
1020
0.0
1030
0.0
1001
ACADANNOTATIVE
1000
AnnotativeData
1002
{
1070
     1
1070
     1
1002
}
  0
LINE
  5
2FF0
330
2AC3
100
AcDbEntity
  8
DETAIL
100
AcDbLine
 10
-562.0820158987283
 20
-286.4433668567008
 30
0.0
 11
-285.6507646113373
 21
-154.8095070894186
 31
0.0
1001
ACAD
1010
0.0
1020
0.0
1030
0.0
1001
ACADANNOTATIVE
1000
AnnotativeData
1002
{
1070
     1
1070
     1
1002
}
  0
LINE
  5
2FF1
330
2AC3
100
AcDbEntity
  8
DETAIL
100
AcDbLine
 10
-541.0821061617394
 20
-286.4433668567008
 30
0.0
 11
-285.6507646113391
 21
-164.8094588335534
 31
0.0
1001
ACAD
1010
0.0
1020
0.0
1030
0.0
1001
ACADANNOTATIVE
1000
AnnotativeData
1002
{
1070
     1
1070
     1
1002
}
  0
LINE
  5
2FF2
330
2AC3
100
AcDbEntity
  8
DETAIL
100
AcDbLine
 10
-520.0821964247519
 20
-286.4433668567017
 30
0.0
 11
-285.6507646113391
 21
-174.8094105776871
 31
0.0
1001
ACAD
1010
0.0
1020
0.0
1030
0.0
1001
ACADANNOTATIVE
1000
AnnotativeData
1002
{
1070
     1
1070
     1
1002
}
  0
LINE
  5
2FF3
330
2AC3
100
AcDbEntity
  8
DETAIL
100
AcDbLine
 10
-499.0822866877628
 20
-286.4433668567017
 30
0.0
 11
-285.650764611341
 21
-184.8093623218219
 31
0.0
1001
ACAD
1010
0.0
1020
0.0
1030
0.0
1001
ACADANNOTATIVE
1000
AnnotativeData
1002
{
1070
     1
1070
     1
1002
}
  0
LINE
  5
2FF4
330
2AC3
100
AcDbEntity
  8
DETAIL
100
AcDbLine
 10
-478.08237695077
 20
-286.4433668567026
 30
0.0
 11
-285.6507646113355
 21
-194.8093140659557
 31
0.0
1001
ACAD
1010
0.0
1020
0.0
1030
0.0
1001
ACADANNOTATIVE
1000
AnnotativeData
1002
{
1070
     1
1070
     1
1002
}
  0
LINE
  5
2FF5
330
2AC3
100
AcDbEntity
  8
DETAIL
100
AcDbLine
 10
-457.0824672137791
 20
-286.4433668567026
 30
0.0
 11
-285.6507646113355
 21
-204.8092658100895
 31
0.0
1001
ACAD
1010
0.0
1020
0.0
1030
0.0
1001
ACADANNOTATIVE
1000
AnnotativeData
1002
{
1070
     1
1070
     1
1002
}
  0
LINE
  5
2FF6
330
2AC3
100
AcDbEntity
  8
DETAIL
100
AcDbLine
 10
-436.08255747679
 20
-286.4433668567017
 30
0.0
 11
-285.6507646113373
 21
-214.8092175542242
 31
0.0
1001
ACAD
1010
0.0
1020
0.0
1030
0.0
1001
ACADANNOTATIVE
1000
AnnotativeData
1002
{
1070
     1
1070
     1
1002
}
  0
LINE
  5
2FF7
330
2AC3
100
AcDbEntity
  8
DETAIL
100
AcDbLine
 10
-415.0826477397973
 20
-286.4433668567017
 30
0.0
 11
-285.6507646113355
 21
-224.809169298358
 31
0.0
1001
ACAD
1010
0.0
1020
0.0
1030
0.0
1001
ACADANNOTATIVE
1000
AnnotativeData
1002
{
1070
     1
1070
     1
1002
}
  0
LINE
  5
2FF8
330
2AC3
100
AcDbEntity
  8
DETAIL
100
AcDbLine
 10
-394.0827380028045
 20
-286.4433668567008
 30
0.0
 11
-285.6507646113373
 21
-234.8091210424927
 31
0.0
1001
ACAD
1010
0.0
1020
0.0
1030
0.0
1001
ACADANNOTATIVE
1000
AnnotativeData
1002
{
1070
     1
1070
     1
1002
}
  0
LINE
  5
2FF9
330
2AC3
100
AcDbEntity
  8
DETAIL
100
AcDbLine
 10
-373.0828282658154
 20
-286.4433668567008
 30
0.0
 11
-285.6507646113355
 21
-244.8090727866265
 31
0.0
1001
ACAD
1010
0.0
1020
0.0
1030
0.0
1001
ACADANNOTATIVE
1000
AnnotativeData
1002
{
1070
     1
1070
     1
1002
}
  0
LINE
  5
2FFA
330
2AC3
100
AcDbEntity
  8
DETAIL
100
AcDbLine
 10
-352.0829185288244
 20
-286.4433668567008
 30
0.0
 11
-285.6507646113355
 21
-254.8090245307621
 31
0.0
1001
ACAD
1010
0.0
1020
0.0
1030
0.0
1001
ACADANNOTATIVE
1000
AnnotativeData
1002
{
1070
     1
1070
     1
1002
}
  0
LINE
  5
2FFB
330
2AC3
100
AcDbEntity
  8
DETAIL
100
AcDbLine
 10
-331.0830087918316
 20
-286.4433668566999
 30
0.0
 11
-285.6507646113337
 21
-264.808976274895
 31
0.0
1001
ACAD
1010
0.0
1020
0.0
1030
0.0
1001
ACADANNOTATIVE
1000
AnnotativeData
1002
{
1070
     1
1070
     1
1002
}
  0
LINE
  5
2FFC
330
2AC3
100
AcDbEntity
  8
DETAIL
100
AcDbLine
 10
-310.0830990548425
 20
-286.4433668567017
 30
0.0
 11
-285.6507646113355
 21
-274.8089280190306
 31
0.0
1001
ACAD
1010
0.0
1020
0.0
1030
0.0
1001
ACADANNOTATIVE
1000
AnnotativeData
1002
{
1070
     1
1070
     1
1002
}
  0
LINE
  5
2FFD
330
2AC3
100
AcDbEntity
  8
DETAIL
100
AcDbLine
 10
-289.0831893178514
 20
-286.4433668567008
 30
0.0
 11
-285.6507646113355
 21
-284.8088797631644
 31
0.0
1001
ACAD
1010
0.0
1020
0.0
1030
0.0
1001
ACADANNOTATIVE
1000
AnnotativeData
1002
{
1070
     1
1070
     1
1002
}
  0
LINE
  5
2FFE
330
2AC3
100
AcDbEntity
  8
DETAIL
100
AcDbLine
 10
-877.0507646113387
 20
241.9566331432993
 30
0.0
 11
-285.6507646113373
 21
241.9566331432989
 31
0.0
  0
LINE
  5
2FFF
330
2AC3
100
AcDbEntity
  8
DETAIL
100
AcDbLine
 10
-285.6507646113373
 20
-286.4433668567008
 30
0.0
 11
-877.0507646113387
 21
-286.4433668567008
 31
0.0
  0
LINE
  5
3000
330
2AC3
100
AcDbEntity
  8
DETAIL
100
AcDbLine
 10
-877.0507646113387
 20
-286.4433668567008
 30
0.0
 11
-877.0507646113387
 21
241.9566331432989
 31
0.0
  0
LINE
  5
3001
330
2AC3
100
AcDbEntity
  8
DETAIL
100
AcDbLine
 10
-285.6507646113373
 20
-286.4433668567008
 30
0.0
 11
-285.6507646113373
 21
241.9566331432989
 31
0.0
  0
LINE
  5
3002
330
2AC3
100
AcDbEntity
  8
SIZE
100
AcDbLine
 10
-216.3507646113361
 20
299.7566331432981
 30
0.0
 11
-112.1739939229996
 21
299.7566331432981
 31
0.0
  0
LINE
  5
3003
330
2AC3
100
AcDbEntity
  8
SIZE
100
AcDbLine
 10
-216.350764611338
 20
287.7566331432992
 30
0.0
 11
-112.1739939229996
 21
287.7566331432992
 31
0.0
  0
LINE
  5
3004
330
2AC3
100
AcDbEntity
  8
SIZE
100
AcDbLine
 10
-132.1739939229995
 20
311.7566331432982
 30
0.0
 11
-132.1739939229995
 21
323.7566331432981
 31
0.0
  0
LINE
  5
3005
330
2AC3
100
AcDbEntity
  8
SIZE
100
AcDbLine
 10
-132.1739939229995
 20
275.7566331432991
 30
0.0
 11
-132.1739939229995
 21
158.7280617147276
 31
0.0
  0
INSERT
  5
3006
330
2AC3
100
AcDbEntity
  8
SIZE
100
AcDbBlockReference
  2
_DOTBLANK
 10
-132.1739939229995
 20
299.7566331432981
 30
0.0
 41
12.0
 42
12.0
 43
12.0
 50
270.0
  0
INSERT
  5
3007
330
2AC3
100
AcDbEntity
  8
SIZE
100
AcDbBlockReference
  2
_DOTBLANK
 10
-132.1739939229995
 20
287.7566331432992
 30
0.0
 41
12.0
 42
12.0
 43
12.0
 50
90.0
  0
MTEXT
  5
3008
330
2AC3
100
AcDbEntity
  8
SIZE
100
AcDbMText
 10
-174.1739939229996
 20
211.2423474290113
 30
0.0
 40
64.0
 41
0.0
 46
0.0
 71
     5
 72
     1
  1
\A1;12
 11
0.0000000000000001
 21
1.0
 31
0.0
 73
     1
 44
1.0
  0
ENDSEC
  0
SECTION
  2
OBJECTS
  0
DICTIONARY
  5
2A5B
330
0
100
AcDbDictionary
281
     1
  3
ACAD_COLOR
350
2AB9
  3
ACAD_GROUP
350
2A5C
  3
ACAD_LAYOUT
350
2AB8
  3
ACAD_MATERIAL
350
2A5F
  3
ACAD_MLEADERSTYLE
350
2ABC
  3
ACAD_MLINESTYLE
350
2AB5
  3
ACAD_PLOTSETTINGS
350
2AB7
  3
ACAD_PLOTSTYLENAME
350
2A5D
  3
ACAD_SCALELIST
350
2A89
  3
ACAD_TABLESTYLE
350
2ABA
  3
ACAD_VISUALSTYLE
350
2A78
  3
ACDB_RECOMPOSE_DATA
350
2CA6
  3
AcDbVariableDictionary
350
2C9D
  3
AcmDictionary
350
2C50
  3
AMG
350
2B9D
  3
AMGSNAPSETTINGS
350
2D97
  3
MAPISURF_MODULE
350
3095
  0
DICTIONARY
  5
2DA0
330
2A51
100
AcDbDictionary
280
     1
281
     1
  3
ACAD_LAYERSTATES
360
2DA1
  0
DICTIONARY
  5
2C78
330
2AAB
100
AcDbDictionary
280
     1
281
     1
  3
ADSK_XREC_LAYER_RECONCILED
360
2C79
  0
DICTIONARY
  5
2C7A
330
2ADA
100
AcDbDictionary
280
     1
281
     1
  3
ADSK_XREC_LAYER_RECONCILED
360
2C7B
  0
DICTIONARY
  5
2C7C
330
2ADB
100
AcDbDictionary
280
     1
281
     1
  3
ADSK_XREC_LAYER_RECONCILED
360
2C7D
  0
DICTIONARY
  5
2C7E
330
2ADC
100
AcDbDictionary
280
     1
281
     1
  3
ADSK_XREC_LAYER_RECONCILED
360
2C7F
  0
DICTIONARY
  5
2C80
330
2ADD
100
AcDbDictionary
280
     1
281
     1
  3
ADSK_XREC_LAYER_RECONCILED
360
2C81
  0
DICTIONARY
  5
2C82
330
2ADE
100
AcDbDictionary
280
     1
281
     1
  3
ADSK_XREC_LAYER_RECONCILED
360
2C83
  0
DICTIONARY
  5
2C84
330
2AE0
100
AcDbDictionary
280
     1
281
     1
  3
ADSK_XREC_LAYER_RECONCILED
360
2C85
  0
DICTIONARY
  5
2C86
330
2AE1
100
AcDbDictionary
280
     1
281
     1
  3
ADSK_XREC_LAYER_RECONCILED
360
2C87
  0
DICTIONARY
  5
2C88
330
2AE2
100
AcDbDictionary
280
     1
281
     1
  3
ADSK_XREC_LAYER_RECONCILED
360
2C89
  0
DICTIONARY
  5
2C8A
330
2AE3
100
AcDbDictionary
280
     1
281
     1
  3
ADSK_XREC_LAYER_RECONCILED
360
2C8B
  0
DICTIONARY
  5
2C8C
330
2AE4
100
AcDbDictionary
280
     1
281
     1
  3
ADSK_XREC_LAYER_RECONCILED
360
2C8D
  0
DICTIONARY
  5
2C8E
330
2AC3
100
AcDbDictionary
280
     1
281
     1
  3
ACAD_INDEX
360
2C8F
  0
DICTIONARY
  5
2AB9
102
{ACAD_REACTORS
330
2A5B
102
}
330
2A5B
100
AcDbDictionary
281
     1
  0
DICTIONARY
  5
2A5C
102
{ACAD_REACTORS
330
2A5B
102
}
330
2A5B
100
AcDbDictionary
281
     1
  0
DICTIONARY
  5
2AB8
102
{ACAD_REACTORS
330
2A5B
102
}
330
2A5B
100
AcDbDictionary
281
     1
  3
Model
350
2AC6
  3
レイアウト1
350
2AC2
  0
DICTIONARY
  5
2A5F
102
{ACAD_REACTORS
330
2A5B
102
}
330
2A5B
100
AcDbDictionary
281
     1
  3
ByBlock
350
2A68
  3
ByLayer
350
2A60
  3
Global
350
2A70
  0
DICTIONARY
  5
2ABC
102
{ACAD_REACTORS
330
2A5B
102
}
330
2A5B
100
AcDbDictionary
281
     1
  3
Standard
350
2ABD
  0
DICTIONARY
  5
2AB5
102
{ACAD_REACTORS
330
2A5B
102
}
330
2A5B
100
AcDbDictionary
281
     1
  3
Standard
350
2AB6
  0
DICTIONARY
  5
2AB7
102
{ACAD_REACTORS
330
2A5B
102
}
330
2A5B
100
AcDbDictionary
281
     1
  0
ACDBDICTIONARYWDFLT
  5
2A5D
102
{ACAD_REACTORS
330
2A5B
102
}
330
2A5B
100
AcDbDictionary
281
     1
  3
Normal
350
2A5E
100
AcDbDictionaryWithDefault
340
2A5E
  0
DICTIONARY
  5
2A89
102
{ACAD_REACTORS
330
2A5B
102
}
330
2A5B
100
AcDbDictionary
281
     1
  3
A0
350
2A8A
  3
A1
350
2A8B
  3
A2
350
2A8C
  3
A3
350
2A8D
  3
A4
350
2A8E
  3
A5
350
2A8F
  3
A6
350
2A90
  3
A7
350
2A91
  3
A8
350
2A92
  3
A9
350
2A93
  3
B0
350
2A94
  3
B1
350
2A95
  3
B2
350
2A96
  3
B3
350
2A97
  3
B4
350
2A98
  3
B5
350
2A99
  3
B6
350
2A9A
  3
B7
350
2A9B
  3
B8
350
2A9C
  3
B9
350
2A9D
  3
C0
350
2A9E
  3
C1
350
2A9F
  3
C2
350
2AA0
  3
C3
350
2AA1
  3
C4
350
2AA2
  3
C5
350
2AA3
  3
C6
350
2AA4
  3
C7
350
2AA5
  3
C8
350
2AA6
  3
C9
350
2AA7
  3
D0
350
2AA8
  3
D1
350
2AA9
  3
D2
350
2AAA
  0
DICTIONARY
  5
2ABA
102
{ACAD_REACTORS
330
2A5B
102
}
330
2A5B
100
AcDbDictionary
281
     1
  3
Standard
350
2ABB
  0
DICTIONARY
  5
2A78
102
{ACAD_REACTORS
330
2A5B
102
}
330
2A5B
100
AcDbDictionary
281
     1
  3
2dWireframe
350
2A7E
  3
3D Hidden
350
2A80
  3
3dWireframe
350
2A7F
  3
Basic
350
2A7D
  3
Brighten
350
2A84
  3
ColorChange
350
2A88
  3
Conceptual
350
2A81
  3
Dim
350
2A83
  3
Facepattern
350
2A87
  3
Flat
350
2A79
  3
FlatWithEdges
350
2A7A
  3
Gouraud
350
2A7B
  3
GouraudWithEdges
350
2A7C
  3
Linepattern
350
2A86
  3
Realistic
350
2A82
  3
Thicken
350
2A85
  0
XRECORD
  5
2CA6
102
{ACAD_REACTORS
330
2A5B
102
}
330
2A5B
100
AcDbXrecord
280
     1
 90
        1
330
2ABB
  0
DICTIONARY
  5
2C9D
102
{ACAD_REACTORS
330
2A5B
102
}
330
2A5B
100
AcDbDictionary
281
     1
  3
CANNOSCALE
350
2CA0
  3
CMLEADERSTYLE
350
2C9F
  3
CTABLESTYLE
350
2C9E
  3
DIMASSOC
350
2CA3
  3
INDEXCTL
350
2CA2
  3
LAYEREVAL
350
300B
  3
LAYERNOTIFY
350
300C
  3
LIGHTINGUNITS
350
300A
  3
MSLTSCALE
350
3009
  3
SORTENTS
350
2CA1
  0
DICTIONARY
  5
2C50
102
{ACAD_REACTORS
330
2A5B
102
}
330
2A5B
100
AcDbDictionary
281
     1
  3
AcmStdDictionary
350
2C5E
  0
DICTIONARY
  5
2B9D
102
{ACAD_REACTORS
330
2A5B
102
}
330
2A5B
100
AcDbDictionary
281
     1
  3
AcMgSettings
350
2B9E
  3
AMGLAYCFG
350
30E5
  0
DICTIONARY
  5
2D97
102
{ACAD_REACTORS
330
2A5B
102
}
330
2A5B
100
AcDbDictionary
281
     1
  3
DIMENSION
350
2D9C
  3
FEA
350
2D9B
  3
HATCH (1)
350
2D98
  3
HATCH (2)
350
2D99
  3
SIMPLE WELD
350
2D9D
  3
SYMBOLS
350
2D9A
  0
DICTIONARY
  5
2DA1
102
{ACAD_REACTORS
330
2DA0
102
}
330
2DA0
100
AcDbDictionary
281
     1
  0
XRECORD
  5
2C79
102
{ACAD_REACTORS
330
2C78
102
}
330
2C78
100
AcDbXrecord
280
     1
290
     1
  0
XRECORD
  5
2C7B
102
{ACAD_REACTORS
330
2C7A
102
}
330
2C7A
100
AcDbXrecord
280
     1
290
     1
  0
XRECORD
  5
2C7D
102
{ACAD_REACTORS
330
2C7C
102
}
330
2C7C
100
AcDbXrecord
280
     1
290
     1
  0
XRECORD
  5
2C7F
102
{ACAD_REACTORS
330
2C7E
102
}
330
2C7E
100
AcDbXrecord
280
     1
290
     1
  0
XRECORD
  5
2C81
102
{ACAD_REACTORS
330
2C80
102
}
330
2C80
100
AcDbXrecord
280
     1
290
     1
  0
XRECORD
  5
2C83
102
{ACAD_REACTORS
330
2C82
102
}
330
2C82
100
AcDbXrecord
280
     1
290
     1
  0
XRECORD
  5
2C85
102
{ACAD_REACTORS
330
2C84
102
}
330
2C84
100
AcDbXrecord
280
     1
290
     1
  0
XRECORD
  5
2C87
102
{ACAD_REACTORS
330
2C86
102
}
330
2C86
100
AcDbXrecord
280
     1
290
     1
  0
XRECORD
  5
2C89
102
{ACAD_REACTORS
330
2C88
102
}
330
2C88
100
AcDbXrecord
280
     1
290
     1
  0
XRECORD
  5
2C8B
102
{ACAD_REACTORS
330
2C8A
102
}
330
2C8A
100
AcDbXrecord
280
     1
290
     1
  0
XRECORD
  5
2C8D
102
{ACAD_REACTORS
330
2C8C
102
}
330
2C8C
100
AcDbXrecord
280
     1
290
     1
  0
DICTIONARY
  5
2C8F
102
{ACAD_REACTORS
330
2C8E
102
}
330
2C8E
100
AcDbDictionary
281
     1
  3
*A1
350
2C90
  0
LAYOUT
  5
2AC6
102
{ACAD_REACTORS
330
2AB8
102
}
330
2AB8
100
AcDbPlotSettings
  1

  2
自動 EPSON LP-9600S (W2450527 上)
  4

  6

 40
0.0
 41
0.0
 42
0.0
 43
0.0
 44
0.0
 45
0.0
 46
0.0
 47
0.0
 48
0.0
 49
0.0
140
0.0
141
0.0
142
1.0
143
1.0
 70
  1712
 72
     0
 73
     0
 74
     0
  7

 75
     0
147
1.0
 76
     0
 77
     2
 78
   300
148
0.0
149
0.0
100
AcDbLayout
  1
Model
 70
     1
 71
     0
 10
0.0
 20
0.0
 11
12.0
 21
9.0
 12
0.0
 22
0.0
 32
0.0
 14
0.0
 24
0.0
 34
0.0
 15
0.0
 25
0.0
 35
0.0
146
0.0
 13
0.0
 23
0.0
 33
0.0
 16
1.0
 26
0.0
 36
0.0
 17
0.0
 27
1.0
 37
0.0
 76
     0
330
2AC3
331
2AC7
  0
LAYOUT
  5
2AC2
102
{ACAD_REACTORS
330
2AB8
102
}
330
2AB8
100
AcDbPlotSettings
  1

  2
自動 EPSON LP-9600S (W2450527 上)
  4

  6

 40
0.0
 41
0.0
 42
0.0
 43
0.0
 44
0.0
 45
0.0
 46
0.0
 47
0.0
 48
0.0
 49
0.0
140
0.0
141
0.0
142
1.0
143
1.0
 70
   688
 72
     0
 73
     0
 74
     5
  7

 75
    16
147
1.0
 76
     0
 77
     2
 78
   300
148
0.0
149
0.0
100
AcDbLayout
  1
レイアウト1
 70
     1
 71
     1
 10
0.0
 20
0.0
 11
12.0
 21
9.0
 12
0.0
 22
0.0
 32
0.0
 14
1.000000000000000E+20
 24
1.000000000000000E+20
 34
1.000000000000000E+20
 15
-1.000000000000000E+20
 25
-1.000000000000000E+20
 35
-1.000000000000000E+20
146
0.0
 13
0.0
 23
0.0
 33
0.0
 16
1.0
 26
0.0
 36
0.0
 17
0.0
 27
1.0
 37
0.0
 76
     0
330
2ABF
  0
MATERIAL
  5
2A68
102
{ACAD_XDICTIONARY
360
2A69
102
}
102
{ACAD_REACTORS
330
2A5F
102
}
330
2A5F
100
AcDbMaterial
  1
ByBlock
 72
     0
 43
0.0208333333333333
 43
0.0
 43
0.0
 43
0.0
 43
0.0
 43
0.0208333333333333
 43
0.0
 43
0.0
 43
0.0
 43
0.0
 43
1.0
 43
0.0
 43
0.0
 43
0.0
 43
0.0
 43
1.0
 77
     0
 47
0.0208333333333333
 47
0.0
 47
0.0
 47
0.0
 47
0.0
 47
0.0208333333333333
 47
0.0
 47
0.0
 47
0.0
 47
0.0
 47
1.0
 47
0.0
 47
0.0
 47
0.0
 47
0.0
 47
1.0
171
     0
 49
0.0208333333333333
 49
0.0
 49
0.0
 49
0.0
 49
0.0
 49
0.0208333333333333
 49
0.0
 49
0.0
 49
0.0
 49
0.0
 49
1.0
 49
0.0
 49
0.0
 49
0.0
 49
0.0
 49
1.0
175
     0
142
0.0208333333333333
142
0.0
142
0.0
142
0.0
142
0.0
142
0.0208333333333333
142
0.0
142
0.0
142
0.0
142
0.0
142
1.0
142
0.0
142
0.0
142
0.0
142
0.0
142
1.0
179
     0
144
0.0208333333333333
144
0.0
144
0.0
144
0.0
144
0.0
144
0.0208333333333333
144
0.0
144
0.0
144
0.0
144
0.0
144
1.0
144
0.0
144
0.0
144
0.0
144
0.0
144
1.0
147
0.0208333333333333
147
0.0
147
0.0
147
0.0
147
0.0
147
0.0208333333333333
147
0.0
147
0.0
147
0.0
147
0.0
147
1.0
147
0.0
147
0.0
147
0.0
147
0.0
147
1.0
  0
MATERIAL
  5
2A60
102
{ACAD_XDICTIONARY
360
2A61
102
}
102
{ACAD_REACTORS
330
2A5F
102
}
330
2A5F
100
AcDbMaterial
  1
ByLayer
 72
     0
 43
0.0208333333333333
 43
0.0
 43
0.0
 43
0.0
 43
0.0
 43
0.0208333333333333
 43
0.0
 43
0.0
 43
0.0
 43
0.0
 43
1.0
 43
0.0
 43
0.0
 43
0.0
 43
0.0
 43
1.0
 77
     0
 47
0.0208333333333333
 47
0.0
 47
0.0
 47
0.0
 47
0.0
 47
0.0208333333333333
 47
0.0
 47
0.0
 47
0.0
 47
0.0
 47
1.0
 47
0.0
 47
0.0
 47
0.0
 47
0.0
 47
1.0
171
     0
 49
0.0208333333333333
 49
0.0
 49
0.0
 49
0.0
 49
0.0
 49
0.0208333333333333
 49
0.0
 49
0.0
 49
0.0
 49
0.0
 49
1.0
 49
0.0
 49
0.0
 49
0.0
 49
0.0
 49
1.0
175
     0
142
0.0208333333333333
142
0.0
142
0.0
142
0.0
142
0.0
142
0.0208333333333333
142
0.0
142
0.0
142
0.0
142
0.0
142
1.0
142
0.0
142
0.0
142
0.0
142
0.0
142
1.0
179
     0
144
0.0208333333333333
144
0.0
144
0.0
144
0.0
144
0.0
144
0.0208333333333333
144
0.0
144
0.0
144
0.0
144
0.0
144
1.0
144
0.0
144
0.0
144
0.0
144
0.0
144
1.0
147
0.0208333333333333
147
0.0
147
0.0
147
0.0
147
0.0
147
0.0208333333333333
147
0.0
147
0.0
147
0.0
147
0.0
147
1.0
147
0.0
147
0.0
147
0.0
147
0.0
147
1.0
  0
MATERIAL
  5
2A70
102
{ACAD_XDICTIONARY
360
2A71
102
}
102
{ACAD_REACTORS
330
2A5F
102
}
330
2A5F
100
AcDbMaterial
  1
Global
 72
     0
 43
0.0208333333333333
 43
0.0
 43
0.0
 43
0.0
 43
0.0
 43
0.0208333333333333
 43
0.0
 43
0.0
 43
0.0
 43
0.0
 43
1.0
 43
0.0
 43
0.0
 43
0.0
 43
0.0
 43
1.0
 77
     0
 47
0.0208333333333333
 47
0.0
 47
0.0
 47
0.0
 47
0.0
 47
0.0208333333333333
 47
0.0
 47
0.0
 47
0.0
 47
0.0
 47
1.0
 47
0.0
 47
0.0
 47
0.0
 47
0.0
 47
1.0
171
     0
 49
0.0208333333333333
 49
0.0
 49
0.0
 49
0.0
 49
0.0
 49
0.0208333333333333
 49
0.0
 49
0.0
 49
0.0
 49
0.0
 49
1.0
 49
0.0
 49
0.0
 49
0.0
 49
0.0
 49
1.0
175
     0
142
0.0208333333333333
142
0.0
142
0.0
142
0.0
142
0.0
142
0.0208333333333333
142
0.0
142
0.0
142
0.0
142
0.0
142
1.0
142
0.0
142
0.0
142
0.0
142
0.0
142
1.0
179
     0
144
0.0208333333333333
144
0.0
144
0.0
144
0.0
144
0.0
144
0.0208333333333333
144
0.0
144
0.0
144
0.0
144
0.0
144
1.0
144
0.0
144
0.0
144
0.0
144
0.0
144
1.0
147
0.0208333333333333
147
0.0
147
0.0
147
0.0
147
0.0
147
0.0208333333333333
147
0.0
147
0.0
147
0.0
147
0.0
147
1.0
147
0.0
147
0.0
147
0.0
147
0.0
147
1.0
  0
MLEADERSTYLE
  5
2ABD
102
{ACAD_REACTORS
330
2ABC
102
}
330
2ABC
100
AcDbMLeaderStyle
170
     2
171
     1
172
     0
 90
        2
 40
0.0
 41
0.0
173
     1
 91
-1056964608
340
2AB1
 92
       -2
290
     1
 42
0.09
291
     1
 43
0.36
  3
Standard
 44
0.18
300

342
2AAC
174
     1
178
     6
175
     1
176
     0
 93
-1056964608
 45
0.18
292
     0
297
     0
 46
0.18
 94
-1056964608
 47
1.0
 49
1.0
140
1.0
293
     1
141
0.0
294
     1
177
     0
142
1.0
295
     0
296
     0
143
0.125
1001
ACAD_MLEADERVER
1070
     2
  0
MLINESTYLE
  5
2AB6
102
{ACAD_REACTORS
330
2AB5
102
}
330
2AB5
100
AcDbMlineStyle
  2
STANDARD
 70
     0
  3

 62
   256
 51
90.0
 52
90.0
 71
     2
 49
0.5
 62
   256
  6
BYLAYER
 49
-0.5
 62
   256
  6
BYLAYER
  0
ACDBPLACEHOLDER
  5
2A5E
102
{ACAD_REACTORS
330
2A5D
102
}
330
2A5D
  0
SCALE
  5
2A8A
102
{ACAD_REACTORS
330
2A89
102
}
330
2A89
100
AcDbScale
 70
     0
300
1:1
140
1.0
141
1.0
290
     1
  0
SCALE
  5
2A8B
102
{ACAD_REACTORS
330
2A89
102
}
330
2A89
100
AcDbScale
 70
     0
300
1:2
140
1.0
141
2.0
290
     0
  0
SCALE
  5
2A8C
102
{ACAD_REACTORS
330
2A89
102
}
330
2A89
100
AcDbScale
 70
     0
300
1:4
140
1.0
141
4.0
290
     0
  0
SCALE
  5
2A8D
102
{ACAD_REACTORS
330
2A89
102
}
330
2A89
100
AcDbScale
 70
     0
300
1:5
140
1.0
141
5.0
290
     0
  0
SCALE
  5
2A8E
102
{ACAD_REACTORS
330
2A89
102
}
330
2A89
100
AcDbScale
 70
     0
300
1:8
140
1.0
141
8.0
290
     0
  0
SCALE
  5
2A8F
102
{ACAD_REACTORS
330
2A89
102
}
330
2A89
100
AcDbScale
 70
     0
300
1:10
140
1.0
141
10.0
290
     0
  0
SCALE
  5
2A90
102
{ACAD_REACTORS
330
2A89
102
}
330
2A89
100
AcDbScale
 70
     0
300
1:16
140
1.0
141
16.0
290
     0
  0
SCALE
  5
2A91
102
{ACAD_REACTORS
330
2A89
102
}
330
2A89
100
AcDbScale
 70
     0
300
1:20
140
1.0
141
20.0
290
     0
  0
SCALE
  5
2A92
102
{ACAD_REACTORS
330
2A89
102
}
330
2A89
100
AcDbScale
 70
     0
300
1:30
140
1.0
141
30.0
290
     0
  0
SCALE
  5
2A93
102
{ACAD_REACTORS
330
2A89
102
}
330
2A89
100
AcDbScale
 70
     0
300
1:40
140
1.0
141
40.0
290
     0
  0
SCALE
  5
2A94
102
{ACAD_REACTORS
330
2A89
102
}
330
2A89
100
AcDbScale
 70
     0
300
1:50
140
1.0
141
50.0
290
     0
  0
SCALE
  5
2A95
102
{ACAD_REACTORS
330
2A89
102
}
330
2A89
100
AcDbScale
 70
     0
300
1:100
140
1.0
141
100.0
290
     0
  0
SCALE
  5
2A96
102
{ACAD_REACTORS
330
2A89
102
}
330
2A89
100
AcDbScale
 70
     0
300
2:1
140
2.0
141
1.0
290
     0
  0
SCALE
  5
2A97
102
{ACAD_REACTORS
330
2A89
102
}
330
2A89
100
AcDbScale
 70
     0
300
4:1
140
4.0
141
1.0
290
     0
  0
SCALE
  5
2A98
102
{ACAD_REACTORS
330
2A89
102
}
330
2A89
100
AcDbScale
 70
     0
300
8:1
140
8.0
141
1.0
290
     0
  0
SCALE
  5
2A99
102
{ACAD_REACTORS
330
2A89
102
}
330
2A89
100
AcDbScale
 70
     0
300
10:1
140
10.0
141
1.0
290
     0
  0
SCALE
  5
2A9A
102
{ACAD_REACTORS
330
2A89
102
}
330
2A89
100
AcDbScale
 70
     0
300
100:1
140
100.0
141
1.0
290
     0
  0
SCALE
  5
2A9B
102
{ACAD_REACTORS
330
2A89
102
}
330
2A89
100
AcDbScale
 70
     0
300
1/128" = 1'-0"
140
0.0078125
141
12.0
290
     0
  0
SCALE
  5
2A9C
102
{ACAD_REACTORS
330
2A89
102
}
330
2A89
100
AcDbScale
 70
     0
300
1/64" = 1'-0"
140
0.015625
141
12.0
290
     0
  0
SCALE
  5
2A9D
102
{ACAD_REACTORS
330
2A89
102
}
330
2A89
100
AcDbScale
 70
     0
300
1/32" = 1'-0"
140
0.03125
141
12.0
290
     0
  0
SCALE
  5
2A9E
102
{ACAD_REACTORS
330
2A89
102
}
330
2A89
100
AcDbScale
 70
     0
300
1/16" = 1'-0"
140
0.0625
141
12.0
290
     0
  0
SCALE
  5
2A9F
102
{ACAD_REACTORS
330
2A89
102
}
330
2A89
100
AcDbScale
 70
     0
300
3/32" = 1'-0"
140
0.09375
141
12.0
290
     0
  0
SCALE
  5
2AA0
102
{ACAD_REACTORS
330
2A89
102
}
330
2A89
100
AcDbScale
 70
     0
300
1/8" = 1'-0"
140
0.125
141
12.0
290
     0
  0
SCALE
  5
2AA1
102
{ACAD_REACTORS
330
2A89
102
}
330
2A89
100
AcDbScale
 70
     0
300
3/16" = 1'-0"
140
0.1875
141
12.0
290
     0
  0
SCALE
  5
2AA2
102
{ACAD_REACTORS
330
2A89
102
}
330
2A89
100
AcDbScale
 70
     0
300
1/4" = 1'-0"
140
0.25
141
12.0
290
     0
  0
SCALE
  5
2AA3
102
{ACAD_REACTORS
330
2A89
102
}
330
2A89
100
AcDbScale
 70
     0
300
3/8" = 1'-0"
140
0.375
141
12.0
290
     0
  0
SCALE
  5
2AA4
102
{ACAD_REACTORS
330
2A89
102
}
330
2A89
100
AcDbScale
 70
     0
300
1/2" = 1'-0"
140
0.5
141
12.0
290
     0
  0
SCALE
  5
2AA5
102
{ACAD_REACTORS
330
2A89
102
}
330
2A89
100
AcDbScale
 70
     0
300
3/4" = 1'-0"
140
0.75
141
12.0
290
     0
  0
SCALE
  5
2AA6
102
{ACAD_REACTORS
330
2A89
102
}
330
2A89
100
AcDbScale
 70
     0
300
1" = 1'-0"
140
1.0
141
12.0
290
     0
  0
SCALE
  5
2AA7
102
{ACAD_REACTORS
330
2A89
102
}
330
2A89
100
AcDbScale
 70
     0
300
1-1/2" = 1'-0"
140
1.5
141
12.0
290
     0
  0
SCALE
  5
2AA8
102
{ACAD_REACTORS
330
2A89
102
}
330
2A89
100
AcDbScale
 70
     0
300
3" = 1'-0"
140
3.0
141
12.0
290
     0
  0
SCALE
  5
2AA9
102
{ACAD_REACTORS
330
2A89
102
}
330
2A89
100
AcDbScale
 70
     0
300
6" = 1'-0"
140
6.0
141
12.0
290
     0
  0
SCALE
  5
2AAA
102
{ACAD_REACTORS
330
2A89
102
}
330
2A89
100
AcDbScale
 70
     0
300
1'-0" = 1'-0"
140
12.0
141
12.0
290
     0
  0
TABLESTYLE
  5
2ABB
102
{ACAD_XDICTIONARY
360
2CA4
102
}
102
{ACAD_REACTORS
330
2ABA
102
}
330
2ABA
100
AcDbTableStyle
  3
Standard
 70
     0
 71
     0
 40
0.06
 41
0.06
280
     0
281
     0
  7
STANDARD
140
0.18
170
     2
 62
     0
 63
     7
283
     0
 90
      512
 91
        0
  1

274
    -2
284
     1
 64
     0
275
    -2
285
     1
 65
     0
276
    -2
286
     1
 66
     0
277
    -2
287
     1
 67
     0
278
    -2
288
     1
 68
     0
279
    -2
289
     1
 69
     0
  7
STANDARD
140
0.25
170
     5
 62
     0
 63
     7
283
     0
 90
      512
 91
        0
  1

274
    -2
284
     1
 64
     0
275
    -2
285
     1
 65
     0
276
    -2
286
     1
 66
     0
277
    -2
287
     1
 67
     0
278
    -2
288
     1
 68
     0
279
    -2
289
     1
 69
     0
  7
STANDARD
140
0.18
170
     5
 62
     0
 63
     7
283
     0
 90
      512
 91
        0
  1

274
    -2
284
     1
 64
     0
275
    -2
285
     1
 65
     0
276
    -2
286
     1
 66
     0
277
    -2
287
     1
 67
     0
278
    -2
288
     1
 68
     0
279
    -2
289
     1
 69
     0
  0
VISUALSTYLE
  5
2A7E
102
{ACAD_REACTORS
330
2A78
102
}
330
2A78
100
AcDbVisualStyle
  2
2dWireframe
 70
     4
 71
     0
 72
     2
 73
     0
 90
        0
 40
-0.6
 41
-30.0
 62
     5
 63
     7
 74
     1
 91
        4
 64
     7
 65
   257
 75
     1
175
     1
 42
1.0
 92
        0
 66
   257
 43
1.0
 76
     1
 77
     6
 78
     2
 67
     7
 79
     5
170
     0
171
     0
290
     0
174
     0
 93
        1
 44
0.0
173
     0
291
     0
 45
0.0
1001
ACAD
1000
AcDbSavedByObjectVersion
1070
     0
  0
VISUALSTYLE
  5
2A80
102
{ACAD_REACTORS
330
2A78
102
}
330
2A78
100
AcDbVisualStyle
  2
3D Hidden
 70
     6
 71
     1
 72
     2
 73
     2
 90
        0
 40
-0.6
 41
-30.0
 62
     5
 63
     7
 74
     2
 91
        2
 64
     7
 65
   257
 75
     2
175
     1
 42
40.0
 92
        0
 66
   257
 43
1.0
 76
     1
 77
     6
 78
     2
 67
     7
 79
     3
170
     0
171
     0
290
     0
174
     0
 93
        1
 44
0.0
173
     0
291
     0
 45
0.0
1001
ACAD
1000
AcDbSavedByObjectVersion
1070
     0
  0
VISUALSTYLE
  5
2A7F
102
{ACAD_REACTORS
330
2A78
102
}
330
2A78
100
AcDbVisualStyle
  2
3dWireframe
 70
     5
 71
     0
 72
     2
 73
     0
 90
        0
 40
-0.6
 41
-30.0
 62
     5
 63
     7
 74
     1
 91
        4
 64
     7
 65
   257
 75
     1
175
     1
 42
1.0
 92
        0
 66
   257
 43
1.0
 76
     1
 77
     6
 78
     2
 67
     7
 79
     5
170
     0
171
     0
290
     0
174
     0
 93
        1
 44
0.0
173
     0
291
     0
 45
0.0
1001
ACAD
1000
AcDbSavedByObjectVersion
1070
     0
  0
VISUALSTYLE
  5
2A7D
102
{ACAD_REACTORS
330
2A78
102
}
330
2A78
100
AcDbVisualStyle
  2
Basic
 70
     7
 71
     1
 72
     0
 73
     1
 90
        0
 40
-0.6
 41
-30.0
 62
     5
 63
     7
 74
     0
 91
        4
 64
     7
 65
   257
 75
     1
175
     1
 42
1.0
 92
        8
 66
     7
 43
1.0
 76
     1
 77
     6
 78
     2
 67
     7
 79
     5
170
     0
171
     0
290
     0
174
     0
 93
        1
 44
0.0
173
     0
291
     1
 45
0.0
1001
ACAD
1000
AcDbSavedByObjectVersion
1070
     0
  0
VISUALSTYLE
  5
2A84
102
{ACAD_REACTORS
330
2A78
102
}
330
2A78
100
AcDbVisualStyle
  2
Brighten
 70
    12
 71
     2
 72
     2
 73
     0
 90
        0
 40
-0.6
 41
-30.0
 62
     5
 63
     7
 74
     1
 91
        4
 64
     7
 65
   257
 75
     1
175
     1
 42
1.0
 92
        8
 66
     7
 43
1.0
 76
     1
 77
     6
 78
     2
 67
     7
 79
     5
170
     0
171
     0
290
     0
174
     0
 93
        1
 44
50.0
173
     0
291
     1
 45
0.0
1001
ACAD
1000
AcDbSavedByObjectVersion
1070
     0
  0
VISUALSTYLE
  5
2A88
102
{ACAD_REACTORS
330
2A78
102
}
330
2A78
100
AcDbVisualStyle
  2
ColorChange
 70
    16
 71
     2
 72
     2
 73
     3
 90
        0
 40
-0.6
 41
-30.0
 62
     5
 63
     8
 74
     1
 91
        4
 64
     7
 65
   257
 75
     1
175
     1
 42
1.0
 92
        8
 66
     8
 43
1.0
 76
     1
 77
     6
 78
     2
 67
     7
 79
     5
170
     0
171
     0
290
     0
174
     0
 93
        1
 44
0.0
173
     0
291
     1
 45
0.0
1001
ACAD
1000
AcDbSavedByObjectVersion
1070
     0
  0
VISUALSTYLE
  5
2A81
102
{ACAD_REACTORS
330
2A78
102
}
330
2A78
100
AcDbVisualStyle
  2
Conceptual
 70
     9
 71
     3
 72
     2
 73
     0
 90
        0
 40
-0.6
 41
-30.0
 62
     5
 63
     7
 74
     2
 91
        2
 64
     7
 65
   257
 75
     1
175
     1
 42
40.0
 92
        8
 66
     7
 43
1.0
 76
     1
 77
     6
 78
     2
 67
     7
 79
     3
170
     0
171
     0
290
     0
174
     0
 93
        1
 44
0.0
173
     0
291
     0
 45
0.0
1001
ACAD
1000
AcDbSavedByObjectVersion
1070
     0
  0
VISUALSTYLE
  5
2A83
102
{ACAD_REACTORS
330
2A78
102
}
330
2A78
100
AcDbVisualStyle
  2
Dim
 70
    11
 71
     2
 72
     2
 73
     0
 90
        0
 40
-0.6
 41
-30.0
 62
     5
 63
     7
 74
     1
 91
        4
 64
     7
 65
   257
 75
     1
175
     1
 42
1.0
 92
        8
 66
     7
 43
1.0
 76
     1
 77
     6
 78
     2
 67
     7
 79
     5
170
     0
171
     0
290
     0
174
     0
 93
        1
 44
-50.0
173
     0
291
     1
 45
0.0
1001
ACAD
1000
AcDbSavedByObjectVersion
1070
     0
  0
VISUALSTYLE
  5
2A87
102
{ACAD_REACTORS
330
2A78
102
}
330
2A78
100
AcDbVisualStyle
  2
Facepattern
 70
    15
 71
     2
 72
     2
 73
     0
 90
        0
 40
-0.6
 41
-30.0
 62
     5
 63
     7
 74
     1
 91
        4
 64
     7
 65
   257
 75
     1
175
     1
 42
1.0
 92
        8
 66
     7
 43
1.0
 76
     1
 77
     6
 78
     2
 67
     7
 79
     5
170
     0
171
     0
290
     0
174
     0
 93
        1
 44
0.0
173
     0
291
     1
 45
0.0
1001
ACAD
1000
AcDbSavedByObjectVersion
1070
     0
  0
VISUALSTYLE
  5
2A79
102
{ACAD_REACTORS
330
2A78
102
}
330
2A78
100
AcDbVisualStyle
  2
Flat
 70
     0
 71
     2
 72
     1
 73
     1
 90
        2
 40
-0.6
 41
30.0
 62
     5
 63
     7
 74
     0
 91
        4
 64
     7
 65
   257
 75
     1
175
     1
 42
1.0
 92
        8
 66
     7
 43
1.0
 76
     1
 77
     6
 78
     2
 67
     7
 79
     5
170
     0
171
     0
290
     0
174
     0
 93
       13
 44
0.0
173
     0
291
     1
 45
0.0
1001
ACAD
1000
AcDbSavedByObjectVersion
1070
     0
  0
VISUALSTYLE
  5
2A7A
102
{ACAD_REACTORS
330
2A78
102
}
330
2A78
100
AcDbVisualStyle
  2
FlatWithEdges
 70
     1
 71
     2
 72
     1
 73
     1
 90
        2
 40
-0.6
 41
30.0
 62
     5
 63
     7
 74
     1
 91
        4
 64
     7
 65
   257
 75
     1
175
     1
 42
1.0
 92
        0
 66
   257
 43
1.0
 76
     1
 77
     6
 78
     2
 67
     7
 79
     5
170
     0
171
     0
290
     0
174
     0
 93
       13
 44
0.0
173
     0
291
     1
 45
0.0
1001
ACAD
1000
AcDbSavedByObjectVersion
1070
     0
  0
VISUALSTYLE
  5
2A7B
102
{ACAD_REACTORS
330
2A78
102
}
330
2A78
100
AcDbVisualStyle
  2
Gouraud
 70
     2
 71
     2
 72
     2
 73
     1
 90
        2
 40
-0.6
 41
30.0
 62
     5
 63
     7
 74
     0
 91
        4
 64
     7
 65
   257
 75
     1
175
     1
 42
1.0
 92
        0
 66
     7
 43
1.0
 76
     1
 77
     6
 78
     2
 67
     7
 79
     5
170
     0
171
     0
290
     0
174
     0
 93
       13
 44
0.0
173
     0
291
     1
 45
0.0
1001
ACAD
1000
AcDbSavedByObjectVersion
1070
     0
  0
VISUALSTYLE
  5
2A7C
102
{ACAD_REACTORS
330
2A78
102
}
330
2A78
100
AcDbVisualStyle
  2
GouraudWithEdges
 70
     3
 71
     2
 72
     2
 73
     1
 90
        2
 40
-0.6
 41
30.0
 62
     5
 63
     7
 74
     1
 91
        4
 64
     7
 65
   257
 75
     1
175
     1
 42
1.0
 92
        0
 66
   257
 43
1.0
 76
     1
 77
     6
 78
     2
 67
     7
 79
     5
170
     0
171
     0
290
     0
174
     0
 93
       13
 44
0.0
173
     0
291
     1
 45
0.0
1001
ACAD
1000
AcDbSavedByObjectVersion
1070
     0
  0
VISUALSTYLE
  5
2A86
102
{ACAD_REACTORS
330
2A78
102
}
330
2A78
100
AcDbVisualStyle
  2
Linepattern
 70
    14
 71
     2
 72
     2
 73
     0
 90
        0
 40
-0.6
 41
-30.0
 62
     5
 63
     7
 74
     1
 91
        4
 64
     7
 65
   257
 75
     7
175
     7
 42
1.0
 92
        8
 66
     7
 43
1.0
 76
     1
 77
     6
 78
     2
 67
     7
 79
     5
170
     0
171
     0
290
     0
174
     0
 93
        1
 44
0.0
173
     0
291
     1
 45
0.0
1001
ACAD
1000
AcDbSavedByObjectVersion
1070
     0
  0
VISUALSTYLE
  5
2A82
102
{ACAD_REACTORS
330
2A78
102
}
330
2A78
100
AcDbVisualStyle
  2
Realistic
 70
     8
 71
     2
 72
     2
 73
     0
 90
        0
 40
-0.6
 41
-30.0
 62
     5
 63
     7
 74
     1
 91
        0
 64
     7
 65
   257
 75
     1
175
     1
 42
1.0
 92
        8
 66
     8
 43
1.0
 76
     1
 77
     6
 78
     2
 67
     7
 79
     5
170
     0
171
     0
290
     0
174
     0
 93
       13
 44
0.0
173
     0
291
     0
 45
0.0
1001
ACAD
1000
AcDbSavedByObjectVersion
1070
     0
  0
VISUALSTYLE
  5
2A85
102
{ACAD_REACTORS
330
2A78
102
}
330
2A78
100
AcDbVisualStyle
  2
Thicken
 70
    13
 71
     2
 72
     2
 73
     0
 90
        0
 40
-0.6
 41
-30.0
 62
     5
 63
     7
 74
     1
 91
        4
 64
     7
 65
   257
 75
     1
175
     1
 42
1.0
 92
       12
 66
     7
 43
1.0
 76
     1
 77
     6
 78
     2
 67
     7
 79
     5
170
     0
171
     0
290
     0
174
     0
 93
        1
 44
0.0
173
     0
291
     1
 45
0.0
1001
ACAD
1000
AcDbSavedByObjectVersion
1070
     0
  0
DICTIONARYVAR
  5
2CA0
102
{ACAD_REACTORS
330
2C9D
102
}
330
2C9D
100
DictionaryVariables
280
     0
  1
1:1
  0
DICTIONARYVAR
  5
2C9F
102
{ACAD_REACTORS
330
2C9D
102
}
330
2C9D
100
DictionaryVariables
280
     0
  1
STANDARD
  0
DICTIONARYVAR
  5
2C9E
102
{ACAD_REACTORS
330
2C9D
102
}
330
2C9D
100
DictionaryVariables
280
     0
  1
STANDARD
  0
DICTIONARYVAR
  5
2CA3
102
{ACAD_REACTORS
330
2C9D
102
}
330
2C9D
100
DictionaryVariables
280
     0
  1
1
  0
DICTIONARYVAR
  5
2CA2
102
{ACAD_REACTORS
330
2C9D
102
}
330
2C9D
100
DictionaryVariables
280
     0
  1
1
  0
DICTIONARYVAR
  5
300B
102
{ACAD_REACTORS
330
2C9D
102
}
330
2C9D
100
DictionaryVariables
280
     0
  1
1
  0
DICTIONARYVAR
  5
300C
102
{ACAD_REACTORS
330
2C9D
102
}
330
2C9D
100
DictionaryVariables
280
     0
  1
15
  0
DICTIONARYVAR
  5
300A
102
{ACAD_REACTORS
330
2C9D
102
}
330
2C9D
100
DictionaryVariables
280
     0
  1
0
  0
DICTIONARYVAR
  5
3009
102
{ACAD_REACTORS
330
2C9D
102
}
330
2C9D
100
DictionaryVariables
280
     0
  1
0
  0
DICTIONARYVAR
  5
2CA1
102
{ACAD_REACTORS
330
2C9D
102
}
330
2C9D
100
DictionaryVariables
280
     0
  1
127
  0
DICTIONARY
  5
2C5E
102
{ACAD_REACTORS
330
2C50
102
}
330
2C50
100
AcDbDictionary
281
     1
  0
DICTIONARY
  5
2B9E
102
{ACAD_REACTORS
330
2B9D
102
}
330
2B9D
100
AcDbDictionary
281
     1
  3
DWGSETTINGS
350
3017
  3
TRANSSETTINGS
350
3018
  0
ACAMGFILTERDAT
  5
2D9C
102
{ACAD_REACTORS
330
2D97
102
}
330
2D97
100
AcAmgFilterDat
 70
    15
  1
DIMENSION,AMDT_*_DIM
  2
*
  3
*
  4
*
  5
*
290
     1
  0
ACAMGFILTERDAT
  5
2D9B
102
{ACAD_REACTORS
330
2D97
102
}
330
2D97
100
AcAmgFilterDat
 70
    15
  1
*
  2
AM_FEA-AM_*
  3
*
  4
*
  5
*
290
     1
  0
ACAMGFILTERDAT
  5
2D98
102
{ACAD_REACTORS
330
2D97
102
}
330
2D97
100
AcAmgFilterDat
 70
    15
  1
HATCH
  2
*
  3
*
  4
*
  5
*
290
     1
  0
ACAMGFILTERDAT
  5
2D99
102
{ACAD_REACTORS
330
2D97
102
}
330
2D97
100
AcAmgFilterDat
 70
    15
  1
LINE
  2
8,8N,*-8,*-8N,AM_8,AM_8N,*-AM_8,*-AM_8N
  3
*
  4
*
  5
INSERT,STDPART2D
290
     1
  0
ACAMGFILTERDAT
  5
2D9D
102
{ACAD_REACTORS
330
2D97
102
}
330
2D97
100
AcAmgFilterDat
 70
    15
  1
ARC
  2
AM_5
  3
*
  4
2
  5
INSERT
290
     0
  0
ACAMGFILTERDAT
  5
2D9A
102
{ACAD_REACTORS
330
2D97
102
}
330
2D97
100
AcAmgFilterDat
 70
    15
  1
ACMFCFRAME,ACMDATUMTARGET,ACMDATUMID,ACMWELDSYM,ACMSURFSYM,ACMFEATID,ACMPARTREF,ACMBALLOON,AMDTEDGESYM,AMGSCREWCALCTABLE,ACMMARKSTAMP
  2
*
  3
*
  4
*
  5
*
290
     1
  0
LAYER_INDEX
  5
2C90
102
{ACAD_REACTORS
330
2C8F
102
}
330
2C8F
100
AcDbIndex
 40
2457466.597023658
100
AcDbLayerIndex
  8
0
360
2C91
 90
        0
  8
OUTLINE
360
2C92
 90
       16
  8
SIZE
360
2C93
 90
       31
  8
BASIS
360
2C94
 90
        1
  8
DETAIL
360
2C95
 90
      250
  8
ARRANGE
360
2C96
 90
        2
  8
DEFPOINTS
360
2C97
 90
        0
  8
ETC
360
2C98
 90
        3
  8
FIX
360
2C99
 90
        0
  8
NOTE
360
2C9A
 90
        7
  8
SERVICESPACE
360
2C9B
 90
        0
  8
SYMBOLLINE
360
2C9C
 90
        0
  0
DICTIONARY
  5
2A69
330
2A68
100
AcDbDictionary
280
     1
281
     1
  3
ACAD_XREC_ROUNDTRIP
360
2CAE
  3
BUMPTILE
360
2A6B
  3
DIFFUSETILE
360
2A6A
  3
OPACITYTILE
360
2A6E
  3
REFLECTIONTILE
360
2A6D
  3
REFRACTIONTILE
360
2A6F
  3
SPECULARTILE
360
2A6C
  0
DICTIONARY
  5
2A61
330
2A60
100
AcDbDictionary
280
     1
281
     1
  3
ACAD_XREC_ROUNDTRIP
360
2CAD
  3
BUMPTILE
360
2A63
  3
DIFFUSETILE
360
2A62
  3
OPACITYTILE
360
2A66
  3
REFLECTIONTILE
360
2A65
  3
REFRACTIONTILE
360
2A67
  3
SPECULARTILE
360
2A64
  0
DICTIONARY
  5
2A71
330
2A70
100
AcDbDictionary
280
     1
281
     1
  3
ACAD_XREC_ROUNDTRIP
360
2CAF
  3
BUMPTILE
360
2A73
  3
DIFFUSETILE
360
2A72
  3
OPACITYTILE
360
2A76
  3
REFLECTIONTILE
360
2A75
  3
REFRACTIONTILE
360
2A77
  3
SPECULARTILE
360
2A74
  0
DICTIONARY
  5
2CA4
330
2ABB
100
AcDbDictionary
280
     1
281
     1
  3
ACAD_ROUNDTRIP_2008_TABLESTYLE_CELLSTYLEMAP
360
30EE
  0
IDBUFFER
  5
2C91
330
0
100
AcDbIdBuffer
  0
IDBUFFER
  5
2C92
330
0
100
AcDbIdBuffer
330
953
330
954
330
955
330
956
330
957
330
958
330
2F0C
330
2F0D
330
2F0E
330
2F0F
330
2F10
330
2F11
330
2F12
330
2F13
330
2F14
330
2F15
  0
IDBUFFER
  5
2C93
330
0
100
AcDbIdBuffer
330
2EDC
330
2EDD
330
2EDE
330
2EDF
330
2EE0
330
2EE1
330
2EE2
330
2EE3
330
2EE4
330
2EE5
330
2EE6
330
2EE7
330
2EEA
330
2EEB
330
2EEC
330
2EED
330
2EEE
330
2EEF
330
2EF0
330
2EF1
330
2EF2
330
2EF3
330
2EF4
330
2EF5
330
3002
330
3003
330
3004
330
3005
330
3006
330
3007
330
3008
  0
IDBUFFER
  5
2C94
330
0
100
AcDbIdBuffer
330
2EE9
  0
IDBUFFER
  5
2C95
330
0
100
AcDbIdBuffer
330
2EF6
330
2EF7
330
2EF8
330
2EF9
330
2EFA
330
2EFB
330
2EFC
330
2EFD
330
2EFE
330
2EFF
330
2F02
330
2F03
330
2F04
330
2F05
330
2F16
330
2F17
330
2F18
330
2F19
330
2F1A
330
2F1B
330
2F1C
330
2F1D
330
2F1E
330
2F1F
330
2F20
330
2F21
330
2F22
330
2F23
330
2F24
330
2F25
330
2F26
330
2F27
330
2F28
330
2F29
330
2F2A
330
2F2B
330
2F2C
330
2F2D
330
2F2E
330
2F2F
330
2F30
330
2F31
330
2F32
330
2F33
330
2F34
330
2F35
330
2F36
330
2F37
330
2F38
330
2F39
330
2F3A
330
2F3B
330
2F3C
330
2F3D
330
2F3E
330
2F3F
330
2F40
330
2F41
330
2F42
330
2F43
330
2F44
330
2F45
330
2F46
330
2F47
330
2F48
330
2F49
330
2F4A
330
2F4B
330
2F4C
330
2F4D
330
2F4E
330
2F4F
330
2F50
330
2F51
330
2F52
330
2F53
330
2F54
330
2F55
330
2F56
330
2F57
330
2F58
330
2F59
330
2F5A
330
2F5B
330
2F5C
330
2F5D
330
2F5E
330
2F5F
330
2F60
330
2F61
330
2F62
330
2F63
330
2F64
330
2F65
330
2F66
330
2F67
330
2F68
330
2F69
330
2F6A
330
2F6B
330
2F6C
330
2F6D
330
2F6E
330
2F6F
330
2F70
330
2F71
330
2F72
330
2F73
330
2F74
330
2F75
330
2F76
330
2F77
330
2F78
330
2F79
330
2F7A
330
2F7B
330
2F7C
330
2F7D
330
2F7E
330
2F7F
330
2F80
330
2F81
330
2F82
330
2F83
330
2F84
330
2F85
330
2F86
330
2F87
330
2F88
330
2F89
330
2F8A
330
2F8B
330
2F8C
330
2F8D
330
2F8E
330
2F8F
330
2F90
330
2F91
330
2F92
330
2F93
330
2F94
330
2F95
330
2F96
330
2F97
330
2F98
330
2F99
330
2F9A
330
2F9B
330
2F9C
330
2F9D
330
2F9E
330
2F9F
330
2FA0
330
2FA1
330
2FA2
330
2FA3
330
2FA4
330
2FA5
330
2FA6
330
2FA7
330
2FA8
330
2FA9
330
2FAA
330
2FAB
330
2FAC
330
2FAD
330
2FAE
330
2FAF
330
2FB0
330
2FB1
330
2FB2
330
2FB3
330
2FB4
330
2FB5
330
2FB6
330
2FB7
330
2FB8
330
2FB9
330
2FBA
330
2FBB
330
2FBC
330
2FBD
330
2FBE
330
2FBF
330
2FC0
330
2FC1
330
2FC2
330
2FC3
330
2FC4
330
2FC5
330
2FC6
330
2FC7
330
2FC8
330
2FC9
330
2FCA
330
2FCB
330
2FCC
330
2FCD
330
2FCE
330
2FCF
330
2FD0
330
2FD1
330
2FD2
330
2FD3
330
2FD4
330
2FD5
330
2FD6
330
2FD7
330
2FD8
330
2FD9
330
2FDA
330
2FDB
330
2FDC
330
2FDD
330
2FDE
330
2FDF
330
2FE0
330
2FE1
330
2FE2
330
2FE3
330
2FE4
330
2FE5
330
2FE6
330
2FE7
330
2FE8
330
2FE9
330
2FEA
330
2FEB
330
2FEC
330
2FED
330
2FEE
330
2FEF
330
2FF0
330
2FF1
330
2FF2
330
2FF3
330
2FF4
330
2FF5
330
2FF6
330
2FF7
330
2FF8
330
2FF9
330
2FFA
330
2FFB
330
2FFC
330
2FFD
330
2FFE
330
2FFF
330
3000
330
3001
  0
IDBUFFER
  5
2C96
330
0
100
AcDbIdBuffer
330
2EE8
330
2F06
  0
IDBUFFER
  5
2C97
330
0
100
AcDbIdBuffer
  0
IDBUFFER
  5
2C98
330
0
100
AcDbIdBuffer
330
2ED9
330
2EDA
330
2EDB
  0
IDBUFFER
  5
2C99
330
0
100
AcDbIdBuffer
  0
IDBUFFER
  5
2C9A
330
0
100
AcDbIdBuffer
330
2F00
330
2F01
330
2F07
330
2F08
330
2F09
330
2F0A
330
2F0B
  0
IDBUFFER
  5
2C9B
330
0
100
AcDbIdBuffer
  0
IDBUFFER
  5
2C9C
330
0
100
AcDbIdBuffer
  0
XRECORD
  5
2CAE
102
{ACAD_REACTORS
330
2A69
102
}
330
2A69
100
AcDbXrecord
280
     1
102
MATERIAL
148
0.0
149
0.0
149
0.0
 93
        0
 94
      127
282
     0
 72
     0
 77
     0
171
     0
175
     0
179
     0
273
     0
  0
XRECORD
  5
2A6B
102
{ACAD_REACTORS
330
2A69
102
}
330
2A69
100
AcDbXrecord
280
     1
270
     1
271
     1
  0
XRECORD
  5
2A6A
102
{ACAD_REACTORS
330
2A69
102
}
330
2A69
100
AcDbXrecord
280
     1
270
     1
271
     1
  0
XRECORD
  5
2A6E
102
{ACAD_REACTORS
330
2A69
102
}
330
2A69
100
AcDbXrecord
280
     1
270
     1
271
     1
  0
XRECORD
  5
2A6D
102
{ACAD_REACTORS
330
2A69
102
}
330
2A69
100
AcDbXrecord
280
     1
270
     1
271
     1
  0
XRECORD
  5
2A6F
102
{ACAD_REACTORS
330
2A69
102
}
330
2A69
100
AcDbXrecord
280
     1
270
     1
271
     1
  0
XRECORD
  5
2A6C
102
{ACAD_REACTORS
330
2A69
102
}
330
2A69
100
AcDbXrecord
280
     1
270
     1
271
     1
  0
XRECORD
  5
2CAD
102
{ACAD_REACTORS
330
2A61
102
}
330
2A61
100
AcDbXrecord
280
     1
102
MATERIAL
148
0.0
149
0.0
149
0.0
 93
        0
 94
      127
282
     0
 72
     0
 77
     0
171
     0
175
     0
179
     0
273
     0
  0
XRECORD
  5
2A63
102
{ACAD_REACTORS
330
2A61
102
}
330
2A61
100
AcDbXrecord
280
     1
270
     1
271
     1
  0
XRECORD
  5
2A62
102
{ACAD_REACTORS
330
2A61
102
}
330
2A61
100
AcDbXrecord
280
     1
270
     1
271
     1
  0
XRECORD
  5
2A66
102
{ACAD_REACTORS
330
2A61
102
}
330
2A61
100
AcDbXrecord
280
     1
270
     1
271
     1
  0
XRECORD
  5
2A65
102
{ACAD_REACTORS
330
2A61
102
}
330
2A61
100
AcDbXrecord
280
     1
270
     1
271
     1
  0
XRECORD
  5
2A67
102
{ACAD_REACTORS
330
2A61
102
}
330
2A61
100
AcDbXrecord
280
     1
270
     1
271
     1
  0
XRECORD
  5
2A64
102
{ACAD_REACTORS
330
2A61
102
}
330
2A61
100
AcDbXrecord
280
     1
270
     1
271
     1
  0
XRECORD
  5
2CAF
102
{ACAD_REACTORS
330
2A71
102
}
330
2A71
100
AcDbXrecord
280
     1
102
MATERIAL
148
0.0
149
0.0
149
0.0
 93
        0
 94
      127
282
     0
 72
     0
 77
     0
171
     0
175
     0
179
     0
273
     0
  0
XRECORD
  5
2A73
102
{ACAD_REACTORS
330
2A71
102
}
330
2A71
100
AcDbXrecord
280
     1
270
     1
271
     1
  0
XRECORD
  5
2A72
102
{ACAD_REACTORS
330
2A71
102
}
330
2A71
100
AcDbXrecord
280
     1
270
     1
271
     1
  0
XRECORD
  5
2A76
102
{ACAD_REACTORS
330
2A71
102
}
330
2A71
100
AcDbXrecord
280
     1
270
     1
271
     1
  0
XRECORD
  5
2A75
102
{ACAD_REACTORS
330
2A71
102
}
330
2A71
100
AcDbXrecord
280
     1
270
     1
271
     1
  0
XRECORD
  5
2A77
102
{ACAD_REACTORS
330
2A71
102
}
330
2A71
100
AcDbXrecord
280
     1
270
     1
271
     1
  0
XRECORD
  5
2A74
102
{ACAD_REACTORS
330
2A71
102
}
330
2A71
100
AcDbXrecord
280
     1
270
     1
271
     1
  0
CELLSTYLEMAP
  5
30EE
102
{ACAD_REACTORS
330
2CA4
102
}
330
2CA4
100
AcDbCellStyleMap
 90
        3
300
CELLSTYLE
  1
TABLEFORMAT_BEGIN
 90
        5
170
     1
 91
        0
 92
    32768
 62
   257
 93
        1
300
CONTENTFORMAT
  1
CONTENTFORMAT_BEGIN
 90
        0
 91
        0
 92
      512
 93
        0
300

 40
0.0
140
1.0
 94
        5
 62
     0
340
2AAC
144
0.25
309
CONTENTFORMAT_END
171
     1
301
MARGIN
  1
CELLMARGIN_BEGIN
 40
0.06
 40
0.06
 40
0.06
 40
0.06
 40
0.18
 40
0.18
309
CELLMARGIN_END
 94
        6
 95
        1
302
GRIDFORMAT
  1
GRIDFORMAT_BEGIN
 90
        0
 91
        1
 62
     0
 92
       -2
340
0
 93
        0
 40
0.045
309
GRIDFORMAT_END
 95
        2
302
GRIDFORMAT
  1
GRIDFORMAT_BEGIN
 90
        0
 91
        1
 62
     0
 92
       -2
340
0
 93
        0
 40
0.045
309
GRIDFORMAT_END
 95
        4
302
GRIDFORMAT
  1
GRIDFORMAT_BEGIN
 90
        0
 91
        1
 62
     0
 92
       -2
340
0
 93
        0
 40
0.045
309
GRIDFORMAT_END
 95
        8
302
GRIDFORMAT
  1
GRIDFORMAT_BEGIN
 90
        0
 91
        1
 62
     0
 92
       -2
340
0
 93
        0
 40
0.045
309
GRIDFORMAT_END
 95
       16
302
GRIDFORMAT
  1
GRIDFORMAT_BEGIN
 90
        0
 91
        1
 62
     0
 92
       -2
340
0
 93
        0
 40
0.045
309
GRIDFORMAT_END
 95
       32
302
GRIDFORMAT
  1
GRIDFORMAT_BEGIN
 90
        0
 91
        1
 62
     0
 92
       -2
340
0
 93
        0
 40
0.045
309
GRIDFORMAT_END
309
TABLEFORMAT_END
  1
CELLSTYLE_BEGIN
 90
        1
 91
        1
300
_TITLE
309
CELLSTYLE_END
300
CELLSTYLE
  1
TABLEFORMAT_BEGIN
 90
        5
170
     1
 91
        0
 92
        0
 62
   257
 93
        1
300
CONTENTFORMAT
  1
CONTENTFORMAT_BEGIN
 90
        0
 91
        0
 92
      512
 93
        0
300

 40
0.0
140
1.0
 94
        5
 62
     0
340
2AAC
144
0.18
309
CONTENTFORMAT_END
171
     1
301
MARGIN
  1
CELLMARGIN_BEGIN
 40
0.06
 40
0.06
 40
0.06
 40
0.06
 40
0.18
 40
0.18
309
CELLMARGIN_END
 94
        6
 95
        1
302
GRIDFORMAT
  1
GRIDFORMAT_BEGIN
 90
        0
 91
        1
 62
     0
 92
       -2
340
0
 93
        0
 40
0.045
309
GRIDFORMAT_END
 95
        2
302
GRIDFORMAT
  1
GRIDFORMAT_BEGIN
 90
        0
 91
        1
 62
     0
 92
       -2
340
0
 93
        0
 40
0.045
309
GRIDFORMAT_END
 95
        4
302
GRIDFORMAT
  1
GRIDFORMAT_BEGIN
 90
        0
 91
        1
 62
     0
 92
       -2
340
0
 93
        0
 40
0.045
309
GRIDFORMAT_END
 95
        8
302
GRIDFORMAT
  1
GRIDFORMAT_BEGIN
 90
        0
 91
        1
 62
     0
 92
       -2
340
0
 93
        0
 40
0.045
309
GRIDFORMAT_END
 95
       16
302
GRIDFORMAT
  1
GRIDFORMAT_BEGIN
 90
        0
 91
        1
 62
     0
 92
       -2
340
0
 93
        0
 40
0.045
309
GRIDFORMAT_END
 95
       32
302
GRIDFORMAT
  1
GRIDFORMAT_BEGIN
 90
        0
 91
        1
 62
     0
 92
       -2
340
0
 93
        0
 40
0.045
309
GRIDFORMAT_END
309
TABLEFORMAT_END
  1
CELLSTYLE_BEGIN
 90
        2
 91
        1
300
_HEADER
309
CELLSTYLE_END
300
CELLSTYLE
  1
TABLEFORMAT_BEGIN
 90
        5
170
     1
 91
        0
 92
        0
 62
   257
 93
        1
300
CONTENTFORMAT
  1
CONTENTFORMAT_BEGIN
 90
        0
 91
        0
 92
      512
 93
        0
300

 40
0.0
140
1.0
 94
        2
 62
     0
340
2AAC
144
0.18
309
CONTENTFORMAT_END
171
     1
301
MARGIN
  1
CELLMARGIN_BEGIN
 40
0.06
 40
0.06
 40
0.06
 40
0.06
 40
0.18
 40
0.18
309
CELLMARGIN_END
 94
        6
 95
        1
302
GRIDFORMAT
  1
GRIDFORMAT_BEGIN
 90
        0
 91
        1
 62
     0
 92
       -2
340
0
 93
        0
 40
0.045
309
GRIDFORMAT_END
 95
        2
302
GRIDFORMAT
  1
GRIDFORMAT_BEGIN
 90
        0
 91
        1
 62
     0
 92
       -2
340
0
 93
        0
 40
0.045
309
GRIDFORMAT_END
 95
        4
302
GRIDFORMAT
  1
GRIDFORMAT_BEGIN
 90
        0
 91
        1
 62
     0
 92
       -2
340
0
 93
        0
 40
0.045
309
GRIDFORMAT_END
 95
        8
302
GRIDFORMAT
  1
GRIDFORMAT_BEGIN
 90
        0
 91
        1
 62
     0
 92
       -2
340
0
 93
        0
 40
0.045
309
GRIDFORMAT_END
 95
       16
302
GRIDFORMAT
  1
GRIDFORMAT_BEGIN
 90
        0
 91
        1
 62
     0
 92
       -2
340
0
 93
        0
 40
0.045
309
GRIDFORMAT_END
 95
       32
302
GRIDFORMAT
  1
GRIDFORMAT_BEGIN
 90
        0
 91
        1
 62
     0
 92
       -2
340
0
 93
        0
 40
0.045
309
GRIDFORMAT_END
309
TABLEFORMAT_END
  1
CELLSTYLE_BEGIN
 90
        3
 91
        2
300
_DATA
309
CELLSTYLE_END
  0
ENDSEC
  0
EOF
