  0
SECTION
  2
HEADER
  9
$ACADVER
  1
AC1021
  9
$ACADMAINTVER
 70
    50
  9
$DWGCODEPAGE
  3
ANSI_932
  9
$LASTSAVEDBY
  1
A140052
  9
$CUSTOMPROPERTYTAG
  1
AmdtFileType
  9
$CUSTOMPROPERTY
  1
84
  9
$INSBASE
 10
0.0
 20
0.0
 30
0.0
  9
$EXTMIN
 10
-949.4247274699446
 20
791.7938363875655
 30
-0.0007624039136971
  9
$EXTMAX
 10
1200.036632863381
 20
2026.428232349488
 30
50.00076310244821
  9
$LIMMIN
 10
-2970.0
 20
-2100.0
  9
$LIMMAX
 10
2970.0
 20
2100.0
  9
$ORTHOMODE
 70
     1
  9
$REGENMODE
 70
     0
  9
$FILLMODE
 70
     1
  9
$QTEXTMODE
 70
     0
  9
$MIRRTEXT
 70
     0
  9
$LTSCALE
 40
20.0
  9
$ATTMODE
 70
     1
  9
$TEXTSIZE
 40
64.0
  9
$TRACEWID
 40
0.05
  9
$TEXTSTYLE
  7
STANDARD
  9
$CLAYER
  8
0
  9
$CELTYPE
  6
ByLayer
  9
$CECOLOR
 62
   256
  9
$CELTSCALE
 40
1.0
  9
$DISPSILH
 70
     0
  9
$DIMSCALE
 40
1.0
  9
$DIMASZ
 40
0.12
  9
$DIMEXO
 40
0.05
  9
$DIMDLI
 40
0.5
  9
$DIMRND
 40
0.0
  9
$DIMDLE
 40
0.0
  9
$DIMEXE
 40
0.1
  9
$DIMTP
 40
0.1
  9
$DIMTM
 40
0.1
  9
$DIMTXT
 40
0.12
  9
$DIMCEN
 40
0.0
  9
$DIMTSZ
 40
0.0
  9
$DIMTOL
 70
     0
  9
$DIMLIM
 70
     0
  9
$DIMTIH
 70
     1
  9
$DIMTOH
 70
     1
  9
$DIMSE1
 70
     0
  9
$DIMSE2
 70
     0
  9
$DIMTAD
 70
     0
  9
$DIMZIN
 70
     7
  9
$DIMBLK
  1

  9
$DIMASO
 70
     1
  9
$DIMSHO
 70
     0
  9
$DIMPOST
  1

  9
$DIMAPOST
  1
mm
  9
$DIMALT
 70
     0
  9
$DIMALTD
 70
     2
  9
$DIMALTF
 40
25.4
  9
$DIMLFAC
 40
1.0
  9
$DIMTOFL
 70
     0
  9
$DIMTVP
 40
0.0
  9
$DIMTIX
 70
     0
  9
$DIMSOXD
 70
     0
  9
$DIMSAH
 70
     0
  9
$DIMBLK1
  1

  9
$DIMBLK2
  1

  9
$DIMSTYLE
  2
AM_ANSI
  9
$DIMCLRD
 70
   256
  9
$DIMCLRE
 70
   256
  9
$DIMCLRT
 70
     2
  9
$DIMTFAC
 40
0.71
  9
$DIMGAP
 40
0.06
  9
$DIMJUST
 70
     0
  9
$DIMSD1
 70
     0
  9
$DIMSD2
 70
     0
  9
$DIMTOLJ
 70
     1
  9
$DIMTZIN
 70
     7
  9
$DIMALTZ
 70
     0
  9
$DIMALTTZ
 70
     0
  9
$DIMUPT
 70
     0
  9
$DIMDEC
 70
     4
  9
$DIMTDEC
 70
     4
  9
$DIMALTU
 70
     2
  9
$DIMALTTD
 70
     4
  9
$DIMTXSTY
  7
STANDARD
  9
$DIMAUNIT
 70
     0
  9
$DIMADEC
 70
     0
  9
$DIMALTRND
 40
0.0
  9
$DIMAZIN
 70
     2
  9
$DIMDSEP
 70
    46
  9
$DIMATFIT
 70
     3
  9
$DIMFRAC
 70
     0
  9
$DIMLDRBLK
  1

  9
$DIMLUNIT
 70
     2
  9
$DIMLWD
 70
    -1
  9
$DIMLWE
 70
    -1
  9
$DIMTMOVE
 70
     0
  9
$DIMFXL
 40
1.0
  9
$DIMFXLON
 70
     0
  9
$DIMJOGANG
 40
0.7853981633974483
  9
$DIMTFILL
 70
     0
  9
$DIMTFILLCLR
 70
     0
  9
$DIMARCSYM
 70
     1
  9
$DIMLTYPE
  6
ByBlock
  9
$DIMLTEX1
  6
ByBlock
  9
$DIMLTEX2
  6
ByBlock
  9
$LUNITS
 70
     2
  9
$LUPREC
 70
     4
  9
$SKETCHINC
 40
0.1
  9
$FILLETRAD
 40
4.0
  9
$AUNITS
 70
     1
  9
$AUPREC
 70
     3
  9
$MENU
  1
ACAD
  9
$ELEVATION
 40
0.0
  9
$PELEVATION
 40
0.0
  9
$THICKNESS
 40
50.0
  9
$LIMCHECK
 70
     0
  9
$CHAMFERA
 40
0.0
  9
$CHAMFERB
 40
0.0
  9
$CHAMFERC
 40
0.0
  9
$CHAMFERD
 40
0.0
  9
$SKPOLY
 70
     0
  9
$TDCREATE
 40
2452321.396199653
  9
$TDUCREATE
 40
2452321.021199653
  9
$TDUPDATE
 40
2457472.713635787
  9
$TDUUPDATE
 40
2457472.338635787
  9
$TDINDWG
 40
1.0425362847
  9
$TDUSRTIMER
 40
1.0425305208
  9
$USRTIMER
 70
     1
  9
$ANGBASE
 50
0.0
  9
$ANGDIR
 70
     0
  9
$PDMODE
 70
     3
  9
$PDSIZE
 40
-2.0
  9
$PLINEWID
 40
0.0
  9
$SPLFRAME
 70
     0
  9
$SPLINETYPE
 70
     6
  9
$SPLINESEGS
 70
     8
  9
$HANDSEED
  5
35A3
  9
$SURFTAB1
 70
     6
  9
$SURFTAB2
 70
     6
  9
$SURFTYPE
 70
     6
  9
$SURFU
 70
     6
  9
$SURFV
 70
     6
  9
$UCSBASE
  2

  9
$UCSNAME
  2

  9
$UCSORG
 10
0.0
 20
0.0
 30
0.0
  9
$UCSXDIR
 10
1.0
 20
0.0
 30
0.0
  9
$UCSYDIR
 10
0.0
 20
1.0
 30
0.0
  9
$UCSORTHOREF
  2

  9
$UCSORTHOVIEW
 70
     0
  9
$UCSORGTOP
 10
0.0
 20
0.0
 30
0.0
  9
$UCSORGBOTTOM
 10
0.0
 20
0.0
 30
0.0
  9
$UCSORGLEFT
 10
0.0
 20
0.0
 30
0.0
  9
$UCSORGRIGHT
 10
0.0
 20
0.0
 30
0.0
  9
$UCSORGFRONT
 10
0.0
 20
0.0
 30
0.0
  9
$UCSORGBACK
 10
0.0
 20
0.0
 30
0.0
  9
$PUCSBASE
  2

  9
$PUCSNAME
  2

  9
$PUCSORG
 10
0.0
 20
0.0
 30
0.0
  9
$PUCSXDIR
 10
1.0
 20
0.0
 30
0.0
  9
$PUCSYDIR
 10
0.0
 20
1.0
 30
0.0
  9
$PUCSORTHOREF
  2

  9
$PUCSORTHOVIEW
 70
     0
  9
$PUCSORGTOP
 10
0.0
 20
0.0
 30
0.0
  9
$PUCSORGBOTTOM
 10
0.0
 20
0.0
 30
0.0
  9
$PUCSORGLEFT
 10
0.0
 20
0.0
 30
0.0
  9
$PUCSORGRIGHT
 10
0.0
 20
0.0
 30
0.0
  9
$PUCSORGFRONT
 10
0.0
 20
0.0
 30
0.0
  9
$PUCSORGBACK
 10
0.0
 20
0.0
 30
0.0
  9
$USERI1
 70
     0
  9
$USERI2
 70
     0
  9
$USERI3
 70
     0
  9
$USERI4
 70
     0
  9
$USERI5
 70
     0
  9
$USERR1
 40
20.0
  9
$USERR2
 40
0.0
  9
$USERR3
 40
0.0
  9
$USERR4
 40
0.0
  9
$USERR5
 40
0.0
  9
$WORLDVIEW
 70
     1
  9
$SHADEDGE
 70
     3
  9
$SHADEDIF
 70
    70
  9
$TILEMODE
 70
     1
  9
$MAXACTVP
 70
    64
  9
$PINSBASE
 10
0.0
 20
0.0
 30
0.0
  9
$PLIMCHECK
 70
     0
  9
$PEXTMIN
 10
1.000000000000000E+20
 20
1.000000000000000E+20
 30
1.000000000000000E+20
  9
$PEXTMAX
 10
-1.000000000000000E+20
 20
-1.000000000000000E+20
 30
-1.000000000000000E+20
  9
$PLIMMIN
 10
0.0
 20
0.0
  9
$PLIMMAX
 10
12.0
 20
9.0
  9
$UNITMODE
 70
     0
  9
$VISRETAIN
 70
     1
  9
$PLINEGEN
 70
     0
  9
$PSLTSCALE
 70
     1
  9
$TREEDEPTH
 70
  3020
  9
$CMLSTYLE
  2
Standard
  9
$CMLJUST
 70
     0
  9
$CMLSCALE
 40
1.0
  9
$PROXYGRAPHICS
 70
     1
  9
$MEASUREMENT
 70
     0
  9
$CELWEIGHT
370
    -1
  9
$ENDCAPS
280
     0
  9
$JOINSTYLE
280
     0
  9
$LWDISPLAY
290
     0
  9
$INSUNITS
 70
     0
  9
$HYPERLINKBASE
  1

  9
$STYLESHEET
  1

  9
$XEDIT
290
     1
  9
$CEPSNTYPE
380
     0
  9
$PSTYLEMODE
290
     1
  9
$FINGERPRINTGUID
  2
{5CF16AD8-240B-429D-95CC-3D18E3DF11B2}
  9
$VERSIONGUID
  2
{DDE7A45F-E2AD-4F76-8704-51A5020141FF}
  9
$EXTNAMES
290
     1
  9
$PSVPSCALE
 40
0.0
  9
$OLESTARTUP
290
     0
  9
$SORTENTS
280
   127
  9
$INDEXCTL
280
     1
  9
$HIDETEXT
280
     0
  9
$XCLIPFRAME
290
     0
  9
$HALOGAP
280
     0
  9
$OBSCOLOR
 70
   257
  9
$OBSLTYPE
280
     0
  9
$INTERSECTIONDISPLAY
280
     0
  9
$INTERSECTIONCOLOR
 70
   257
  9
$DIMASSOC
280
     1
  9
$PROJECTNAME
  1

  9
$CAMERADISPLAY
290
     0
  9
$LENSLENGTH
 40
50.0
  9
$CAMERAHEIGHT
 40
0.0
  9
$STEPSPERSEC
 40
2.0
  9
$STEPSIZE
 40
6.0
  9
$3DDWFPREC
 40
2.0
  9
$PSOLWIDTH
 40
0.25
  9
$PSOLHEIGHT
 40
4.0
  9
$LOFTANG1
 40
1.570796326794896
  9
$LOFTANG2
 40
1.570796326794896
  9
$LOFTMAG1
 40
0.0
  9
$LOFTMAG2
 40
0.0
  9
$LOFTPARAM
 70
     7
  9
$LOFTNORMALS
280
     1
  9
$LATITUDE
 40
37.795
  9
$LONGITUDE
 40
-122.394
  9
$NORTHDIRECTION
 40
0.0
  9
$TIMEZONE
 70
 -8000
  9
$LIGHTGLYPHDISPLAY
280
     1
  9
$TILEMODELIGHTSYNCH
280
     1
  9
$CMATERIAL
347
30C0
  9
$SOLIDHIST
280
     1
  9
$SHOWHIST
280
     1
  9
$DWFFRAME
280
     2
  9
$DGNFRAME
280
     0
  9
$REALWORLDSCALE
290
     1
  9
$INTERFERECOLOR
 62
     1
  9
$INTERFEREOBJVS
345
30E2
  9
$INTERFEREVPVS
346
30DF
  9
$CSHADOW
280
     0
  9
$SHADOWPLANELOCATION
 40
0.0
  0
ENDSEC
  0
SECTION
  2
CLASSES
  0
CLASS
  1
ACDBDICTIONARYWDFLT
  2
AcDbDictionaryWithDefault
  3
ObjectDBX Classes
 90
        0
 91
        1
280
     0
281
     0
  0
CLASS
  1
MATERIAL
  2
AcDbMaterial
  3
ObjectDBX Classes
 90
     1153
 91
        3
280
     0
281
     0
  0
CLASS
  1
VISUALSTYLE
  2
AcDbVisualStyle
  3
ObjectDBX Classes
 90
     4095
 91
       16
280
     0
281
     0
  0
CLASS
  1
SCALE
  2
AcDbScale
  3
ObjectDBX Classes
 90
     1153
 91
       33
280
     0
281
     0
  0
CLASS
  1
TABLESTYLE
  2
AcDbTableStyle
  3
ObjectDBX Classes
 90
     4095
 91
        1
280
     0
281
     0
  0
CLASS
  1
MLEADERSTYLE
  2
AcDbMLeaderStyle
  3
ACDB_MLEADERSTYLE_CLASS
 90
     4095
 91
        1
280
     0
281
     0
  0
CLASS
  1
AMGSETTINGSOBJ
  2
AmgSettingsObj
  3
"AcadM|Product Description: AutoCAD Mechanical|Company: Autodesk, Inc."
 90
     1024
 91
        2
280
     0
281
     0
  0
CLASS
  1
ACME_DOCUMENT
  2
AcMeDbDoc
  3
AcMeServices
 90
     1024
 91
        1
280
     0
281
     0
  0
CLASS
  1
ACMESCOPE
  2
AcMeScope
  3
AcMeServices
 90
     1024
 91
        1
280
     0
281
     0
  0
CLASS
  1
ACMECOMMANDHISTORY
  2
AcMeCommandHistory
  3
AcMeServices
 90
     1024
 91
        1
280
     0
281
     0
  0
CLASS
  1
ACIMSYSVARMAN
  2
AcImSysVarManager
  3
AcMeServices
 90
     1024
 91
        6
280
     0
281
     0
  0
CLASS
  1
ACIMREALSYSVAR
  2
AcImRealSysVar
  3
AcMeServices
 90
     1024
 91
       16
280
     0
281
     0
  0
CLASS
  1
ACIMINTSYSVAR
  2
AcImIntSysVar
  3
AcMeServices
 90
     1024
 91
       45
280
     0
281
     0
  0
CLASS
  1
ACMEDRAWINGMAN
  2
AcMeDrawingMan
  3
AcMeServices
 90
     1024
 91
        1
280
     0
281
     0
  0
CLASS
  1
ACMEVIEW
  2
AcMeView
  3
AcMeServices
 90
     1024
 91
        1
280
     0
281
     0
  0
CLASS
  1
ACDBENTITYCACHE
  2
AcMeEntityCache
  3
AcMeServices
 90
     1024
 91
        1
280
     0
281
     0
  0
CLASS
  1
GSMANAGER
  2
AcMeGSManager
  3
AcMeServices
 90
     1024
 91
        1
280
     0
281
     0
  0
CLASS
  1
AMDTINTERNALREACTOR
  2
AmdtInternalReactor
  3
AcMeServices
 90
     1024
 91
        2
280
     0
281
     0
  0
CLASS
  1
ACMESTATEMGR
  2
AcMeStateMgr
  3
AcMeServices
 90
     1024
 91
        1
280
     0
281
     0
  0
CLASS
  1
ACGREFMASTER
  2
AcGrefMaster
  3
AcAttribServices
 90
     1024
 91
        1
280
     0
281
     0
  0
CLASS
  1
AM_DRAWING_MGR
  2
AcDmDwgMgr
  3
AcMechDwgViewMgmt
 90
     1024
 91
        1
280
     0
281
     0
  0
CLASS
  1
AM_DWG_DOCUMENT
  2
AcDmDwgDocument
  3
AcMechDwgViewMgmt
 90
     1024
 91
        1
280
     0
281
     0
  0
CLASS
  1
AM_DWG_SHEET
  2
AcDmSheet
  3
AcMechDwgViewMgmt
 90
     1024
 91
        1
280
     0
281
     0
  0
CLASS
  1
AM_VIEWDIMPARMAP
  2
AcDmViewDimParMap
  3
AcMechDwgViewMgmt
 90
     1024
 91
        1
280
     0
281
     0
  0
CLASS
  1
AM_DWGMGR_NAME
  2
AcDmDwgMgrName
  3
AcMechDwgViewMgmt
 90
     1024
 91
        1
280
     0
281
     0
  0
CLASS
  1
ACME_DATABASE
  2
AcMeDbDatabase
  3
AcMeServices
 90
     1024
 91
        1
280
     0
281
     0
  0
CLASS
  1
ACRFINSADJUSTERMGR
  2
AcRfInsAdjusterMgr
  3
AcMeServices
 90
     1024
 91
        1
280
     0
281
     0
  0
CLASS
  1
ACGREFACADMASTER
  2
AcGrefacadMaster
  3
AcGrefServices
 90
     1024
 91
        1
280
     0
281
     0
  0
CLASS
  1
AMDTMENUSTATEMGR
  2
AmdtMenuStateMgr
  3
McadcomServices
 90
     1024
 91
        1
280
     0
281
     0
  0
CLASS
  1
AMDTMCOMMENUSTATE
  2
AmdtMcomMenuState
  3
McadcomServices
 90
     1024
 91
        1
280
     0
281
     0
  0
CLASS
  1
AMIMASTER
  2
AmiMaster
  3
AmiServices
 90
     1024
 91
        1
280
     0
281
     0
  0
CLASS
  1
ASAPP
  2
AcAsAppObject
  3
AutoSurfServices
 90
     1024
 91
        1
280
     0
281
     0
  0
CLASS
  1
IM_STATIC_MAN
  2
AcImStaticVarManager
  3
AcMeServices
 90
     1024
 91
        1
280
     0
281
     0
  0
CLASS
  1
ACIMSTRSYSVAR
  2
AcImStrSysVar
  3
AcMeServices
 90
     1024
 91
       11
280
     0
281
     0
  0
CLASS
  1
ACIMDBLSTATICVAR
  2
AcImDblStaticVar
  3
AcMeServices
 90
     1024
 91
       20
280
     0
281
     0
  0
CLASS
  1
ACIMSTRSTATICVAR
  2
AcImStrStaticVar
  3
AcMeServices
 90
     1024
 91
       12
280
     0
281
     0
  0
CLASS
  1
ACIMINTSTATICVAR
  2
AcImIntStaticVar
  3
AcMeServices
 90
     1024
 91
       17
280
     0
281
     0
  0
CLASS
  1
ACASGREFMASTER
  2
AcAsGrefMaster
  3
AutoSurfResolverServices
 90
     1024
 91
        1
280
     0
281
     0
  0
CLASS
  1
ACADGREFMODULE
  2
AcAdGrefModule
  3
AdGrefServices
 90
     1024
 91
        1
280
     0
281
     0
  0
CLASS
  1
AMDTMAPISURFMOUDULE
  2
AmdtMApiSurfModule
  3
MApiSurfServices
 90
     1024
 91
        1
280
     0
281
     0
  0
CLASS
  1
MAPIAMMOUDLE
  2
MApiAmModule
  3
MApiAmServices
 90
     1024
 91
        1
280
     0
281
     0
  0
CLASS
  1
AMDTADMENUSTATE
  2
AmdtAdMenuState
  3
DesignerServices
 90
     1024
 91
        1
280
     0
281
     0
  0
CLASS
  1
ADAPPL
  2
AcAdAppl
  3
DesignerServices
 90
     1024
 91
        1
280
     0
281
     0
  0
CLASS
  1
DEPMGR
  2
AcAdDepMgr
  3
DesignerServices
 90
     1024
 91
        1
280
     0
281
     0
  0
CLASS
  1
PARAMMGR
  2
AcAdParamMgr
  3
DesignerServices
 90
     1024
 91
        1
280
     0
281
     0
  0
CLASS
  1
PARAMSCOPE
  2
AcAdParamScope
  3
DesignerServices
 90
     1024
 91
        1
280
     0
281
     0
  0
CLASS
  1
NAMEDAPPL
  2
AcAdNamedAppl
  3
DesignerServices
 90
     1024
 91
        1
280
     0
281
     0
  0
CLASS
  1
AMDTDMMENUSTATE
  2
AmdtDmMenuState
  3
AcMechDwgViewMgmt
 90
     1024
 91
        1
280
     0
281
     0
  0
CLASS
  1
MAPIADMODULE
  2
MApiAdModule
  3
MApiAdServices
 90
     1024
 91
        1
280
     0
281
     0
  0
CLASS
  1
AMDTAMMENUSTATE
  2
AmdtAmMenuState
  3
DesignerAssemblies
 90
     1024
 91
        1
280
     0
281
     0
  0
CLASS
  1
ACAMPROJECT
  2
AcAmProject
  3
DesignerAssemblies
 90
     1024
 91
        1
280
     0
281
     0
  0
CLASS
  1
ACAMGRCOMPDEF
  2
AcAmGrCompDef
  3
DesignerAssemblies
 90
     1024
 91
        1
280
     0
281
     0
  0
CLASS
  1
ACCMCONTEXT
  2
AcCmContext
  3
DesignerAssemblies
 90
     1024
 91
        1
280
     0
281
     0
  0
CLASS
  1
ACAMCOMPDEF
  2
AcAmCompDef
  3
DesignerAssemblies
 90
     1024
 91
        1
280
     0
281
     0
  0
CLASS
  1
ACAMCOMPDEFMGR
  2
AcAmCompDefMgr
  3
DesignerAssemblies
 90
     1024
 91
        1
280
     0
281
     0
  0
CLASS
  1
AMCONTEXTMGR
  2
AcAmContextMgr
  3
DesignerAssemblies
 90
     1024
 91
        1
280
     0
281
     0
  0
CLASS
  1
ACAMCONTEXTMODELER
  2
AcAmContextModeler
  3
DesignerAssemblies
 90
     1024
 91
        1
280
     0
281
     0
  0
CLASS
  1
ACMDATADICTIONARY
  2
AcmDataDictionary
  3
"AcmSymBB|Product Description: AutoCAD Mechanical|Company: Autodesk, Inc."
 90
     1024
 91
        1
280
     0
281
     0
  0
CLASS
  1
ACMDATAENTRYBLOCK
  2
AcmDataEntryBlock
  3
AcmSymBB|Product Description: AutoCAD Mechanical|Company: Autodesk, Inc.
 90
     1024
 91
        1
280
     0
281
     0
  0
CLASS
  1
ACRFATTGENMGR
  2
AcRfAttGeneralMgr
  3
AcAttribServices
 90
     1024
 91
        1
280
     0
281
     0
  0
CLASS
  1
ACRFOBJATTMGR
  2
AcRfObjAttGroupMgr
  3
AcAttribServices
 90
     1024
 91
        1
280
     0
281
     0
  0
CLASS
  1
ACRFMCADAPIATTHOLDER
  2
AcRfMCADAPIAttHolder
  3
AcAttribServices
 90
     1024
 91
        1
280
     0
281
     0
  0
CLASS
  1
AMDTSYSATTR
  2
AmdtSystemAttribute
  3
AcAttribServices
 90
     1024
 91
        1
280
     0
281
     0
  0
CLASS
  1
CATALOGSTATE
  2
AcAmCatalogState
  3
DesignerAssemblies
 90
     1024
 91
        1
280
     0
281
     0
  0
CLASS
  1
ACAMGRCOMPDEFSET
  2
AcAmGrCompDefSet
  3
DesignerAssemblies
 90
     1024
 91
        1
280
     0
281
     0
  0
CLASS
  1
AMDTBROWSERDBTAB
  2
AmdtBrowserDbTab
  3
McadcomServices
 90
     1024
 91
        1
280
     0
281
     0
  0
CLASS
  1
CBROWSERAPPOBJECT
  2
CBrowserAppObject
  3
McadcomServices
 90
     1024
 91
        3
280
     0
281
     0
  0
CLASS
  1
DM_PLACEHOLDER
  2
AcDmSelsetPlaceholder
  3
AcMechDwgViewMgmt
 90
     1024
 91
        1
280
     0
281
     0
  0
CLASS
  1
ACMSTANDARDANSI
  2
AcmStandardANSI
  3
"Amdt_StdImp|Product Description: AutoCAD Mechanical|Company: Autodesk, Inc."
 90
     1024
 91
        1
280
     0
281
     0
  0
CLASS
  1
ACMSURFSTANDARDANSI
  2
AcmSurfTextStdANSI
  3
"Amdt_StdImp|Product Description: AutoCAD Mechanical|Company: Autodesk, Inc."
 90
     1024
 91
        1
280
     0
281
     0
  0
CLASS
  1
ACMFCFSTANDARDANSI
  2
AcmFCFStdANSI
  3
"Amdt_StdImp|Product Description: AutoCAD Mechanical|Company: Autodesk, Inc."
 90
     1024
 91
        1
280
     0
281
     0
  0
CLASS
  1
ACMWELDSTANDARDANSI
  2
AcmWeldingStdANSI
  3
"Amdt_StdImp|Product Description: AutoCAD Mechanical|Company: Autodesk, Inc."
 90
     1024
 91
        1
280
     0
281
     0
  0
CLASS
  1
ACMIDSTANDARDANSI
  2
AcmIdStdANSI
  3
"Amdt_StdImp|Product Description: AutoCAD Mechanical|Company: Autodesk, Inc."
 90
     1024
 91
        1
280
     0
281
     0
  0
CLASS
  1
ACMDATUMSTANDARDANSI
  2
AcmDatumStdANSI
  3
"Amdt_StdImp|Product Description: AutoCAD Mechanical|Company: Autodesk, Inc."
 90
     1024
 91
        1
280
     0
281
     0
  0
CLASS
  1
ACMBOMSTANDARDANSI
  2
AcmBOMStdANSI
  3
"Amdt_StdImp|Product Description: AutoCAD Mechanical|Company: Autodesk, Inc."
 90
     1024
 91
        1
280
     0
281
     0
  0
CLASS
  1
ACMDETAILSTANDARDANSI
  2
AmdtDetailSymStdANSI
  3
"Amdt_StdImp|Product Description: AutoCAD Mechanical|Company: Autodesk, Inc."
 90
     1024
 91
        1
280
     0
281
     0
  0
CLASS
  1
ACMSECTIONSTANDARDANSI
  2
AmdtSectionSymStdANSI
  3
"Amdt_StdImp|Product Description: AutoCAD Mechanical|Company: Autodesk, Inc."
 90
     1024
 91
        1
280
     0
281
     0
  0
CLASS
  1
ACMCENTERLINESTANDARDANSI
  2
AmdtCenterLineStdANSI
  3
"Amdt_StdImp|Product Description: AutoCAD Mechanical|Company: Autodesk, Inc."
 90
     1024
 91
        1
280
     0
281
     0
  0
CLASS
  1
ACMTHREADLINESTANDARDANSI
  2
AmdtThreadLineStdANSI
  3
"Amdt_StdImp|Product Description: AutoCAD Mechanical|Company: Autodesk, Inc."
 90
     1024
 91
        1
280
     0
281
     0
  0
CLASS
  1
ACMNOTESTANDARDANSI
  2
AmdtNoteStdANSI
  3
"Amdt_StdImp|Product Description: AutoCAD Mechanical|Company: Autodesk, Inc."
 90
     1024
 91
        1
280
     0
281
     0
  0
CLASS
  1
ACMTAPERSTANDARDANSI
  2
AcmTaperStdANSI
  3
"Amdt_StdImp|Product Description: AutoCAD Mechanical|Company: Autodesk, Inc."
 90
     1024
 91
        1
280
     0
281
     0
  0
CLASS
  1
ACMANOOTATIONVIEWSTANDARDANSI
  2
AmdtAnViewStdANSI
  3
"Amdt_StdImp|Product Description: AutoCAD Mechanical|Company: Autodesk, Inc."
 90
     1024
 91
        1
280
     0
281
     0
  0
CLASS
  1
ACAMGLAYSTD
  2
AcAmgLayStd
  3
"AmgLay|Product Description: AutoCAD Mechanical|Company: Autodesk, Inc."
 90
     1024
 91
        1
280
     0
281
     0
  0
CLASS
  1
ACAMGDIMSTD
  2
AcAmgDimStd
  3
"AmgDim|Product Description: AutoCAD Mechanical|Company: Autodesk, Inc."
 90
     1024
 91
        1
280
     0
281
     0
  0
CLASS
  1
ACAMGHOLECHARTSTDANSI
  2
AcAmgHoleChartStdANSI
  3
AmgDim|Product Description: AutoCAD Mechanical|Company: Autodesk, Inc.
 90
     1024
 91
        1
280
     0
281
     0
  0
CLASS
  1
AMGOBJPROPCFG
  2
AmgObjPropCfg
  3
"AmgLay|Product Description: AutoCAD Mechanical|Company: Autodesk, Inc."
 90
     1025
 91
        1
280
     0
281
     0
  0
CLASS
  1
ACAMGTITLESTD
  2
AcAmgTitleStd
  3
"AmgTitle|Product Description: AutoCAD Mechanical|Company: Autodesk, Inc."
 90
     4095
 91
        1
280
     0
281
     0
  0
CLASS
  1
AMDTNOTETEMPLATEDB
  2
AmdtNoteTemplateDB
  3
AcmSymBB|Product Description: AutoCAD Mechanical|Company: Autodesk, Inc.
 90
     1024
 91
        6
280
     0
281
     0
  0
CLASS
  1
ACAMGFILTERDAT
  2
AcAmgFilterDat
  3
"AcadM|Product Description: AutoCAD Mechanical|Company: Autodesk, Inc."
 90
     1024
 91
        6
280
     0
281
     0
  0
CLASS
  1
LAYER_INDEX
  2
AcDbLayerIndex
  3
ObjectDBX Classes
 90
        0
 91
        1
280
     0
281
     0
  0
CLASS
  1
IDBUFFER
  2
AcDbIdBuffer
  3
ObjectDBX Classes
 90
        0
 91
       12
280
     0
281
     0
  0
CLASS
  1
DICTIONARYVAR
  2
AcDbDictionaryVar
  3
ObjectDBX Classes
 90
        0
 91
       10
280
     0
281
     0
  0
CLASS
  1
CELLSTYLEMAP
  2
AcDbCellStyleMap
  3
ObjectDBX Classes
 90
     1152
 91
        2
280
     0
281
     0
  0
CLASS
  1
SORTENTSTABLE
  2
AcDbSortentsTable
  3
ObjectDBX Classes
 90
        0
 91
        0
280
     0
281
     0
  0
ENDSEC
  0
SECTION
  2
TABLES
  0
TABLE
  2
VPORT
  5
30B7
330
0
100
AcDbSymbolTable
 70
     1
  0
VPORT
  5
3127
330
30B7
100
AcDbSymbolTableRecord
100
AcDbViewportTableRecord
  2
*ACTIVE
 70
     0
 10
0.0
 20
0.0
 11
1.0
 21
1.0
 12
-2081.769870963718
 22
0.0
 13
0.0
 23
0.0
 14
1.0
 24
1.0
 15
0.0
 25
0.0
 16
0.0
 26
0.0
 36
1.0
 17
2207.075823660436
 27
1409.111034368527
 37
0.0
 40
1254.192015470694
 41
1.720794392523364
 42
50.0
 43
0.0
 44
0.0
 50
0.0
 51
0.0
 71
     0
 72
   100
 73
     1
 74
     0
 75
     0
 76
     0
 77
     0
 78
     0
281
     0
 65
     0
110
0.0
120
0.0
130
0.0
111
1.0
121
0.0
131
0.0
112
0.0
122
1.0
132
0.0
 79
     0
146
0.0
348
30DE
 60
     3
 61
     5
292
     1
282
     1
141
0.0
142
0.0
 63
   250
421
  3355443
  0
ENDTAB
  0
TABLE
  2
LTYPE
  5
30B4
330
0
100
AcDbSymbolTable
 70
    20
  0
LTYPE
  5
3111
330
30B4
100
AcDbSymbolTableRecord
100
AcDbLinetypeTableRecord
  2
ByBlock
 70
     0
  3

 72
    65
 73
     0
 40
0.0
  0
LTYPE
  5
3112
330
30B4
100
AcDbSymbolTableRecord
100
AcDbLinetypeTableRecord
  2
ByLayer
 70
     0
  3

 72
    65
 73
     0
 40
0.0
  0
LTYPE
  5
3113
330
30B4
100
AcDbSymbolTableRecord
100
AcDbLinetypeTableRecord
  2
CONTINUOUS
 70
     0
  3
実線
 72
    65
 73
     0
 40
0.0
  0
LTYPE
  5
3128
330
30B4
100
AcDbSymbolTableRecord
100
AcDbLinetypeTableRecord
  2
DASHDOT
 70
     0
  3
____ _ ____ _ ____ _ ____ _ ____ _ ____ _ ____
 72
    65
 73
     4
 40
5.5
 49
4.0
 74
     0
 49
-0.6
 74
     0
 49
0.3
 74
     0
 49
-0.6
 74
     0
  0
LTYPE
  5
3129
330
30B4
100
AcDbSymbolTableRecord
100
AcDbLinetypeTableRecord
  2
HIDDEN
 70
     0
  3
Hidden __ __ __ __ __ __ __ __ __ __ __ __ __ _
 72
    65
 73
     2
 40
0.375
 49
0.25
 74
     0
 49
-0.125
 74
     0
  0
LTYPE
  5
312A
330
30B4
100
AcDbSymbolTableRecord
100
AcDbLinetypeTableRecord
  2
PHANTOM2
 70
     0
  3
Phantom (.5x) ___ _ _ ___ _ _ ___ _ _ ___ _ _
 72
    65
 73
     6
 40
1.25
 49
0.625
 74
     0
 49
-0.125
 74
     0
 49
0.125
 74
     0
 49
-0.125
 74
     0
 49
0.125
 74
     0
 49
-0.125
 74
     0
  0
LTYPE
  5
312B
330
30B4
100
AcDbSymbolTableRecord
100
AcDbLinetypeTableRecord
  2
CENTER
 70
     0
  3
Center ____ _ ____ _ ____ _ ____ _ ____ _ ____
 72
    65
 73
     4
 40
2.0
 49
1.25
 74
     0
 49
-0.25
 74
     0
 49
0.25
 74
     0
 49
-0.25
 74
     0
  0
LTYPE
  5
312C
330
30B4
100
AcDbSymbolTableRecord
100
AcDbLinetypeTableRecord
  2
ASULTYPE
 70
     0
  3
実線
 72
    65
 73
     2
 40
3.0
 49
2.5
 74
     0
 49
0.5
 74
     0
  0
LTYPE
  5
312D
330
30B4
100
AcDbSymbolTableRecord
100
AcDbLinetypeTableRecord
  2
ASVLTYPE
 70
     0
  3
__ __ __ __ __ __ __ __ __ __ __ __ __ __ __ __ __ __ __ __ __
 72
    65
 73
     2
 40
0.75
 49
0.5
 74
     0
 49
-0.25
 74
     0
  0
LTYPE
  5
312E
330
30B4
100
AcDbSymbolTableRecord
100
AcDbLinetypeTableRecord
  2
AM_ISO02W050
 70
     0
  3
__ __ __ __ __ __ __ __ __ __ __ __ __ __ __
 72
    65
 73
     2
 40
7.5
 49
6.0
 74
     0
 49
-1.5
 74
     0
  0
LTYPE
  5
312F
330
30B4
100
AcDbSymbolTableRecord
100
AcDbLinetypeTableRecord
  2
AM_ISO08W050
 70
     0
  3
____ . ____ . ____ . ____ . ____ . ____ . ____
 72
    65
 73
     4
 40
18.0
 49
12.0
 74
     0
 49
-1.5
 74
     0
 49
3.0
 74
     0
 49
-1.5
 74
     0
  0
LTYPE
  5
3130
330
30B4
100
AcDbSymbolTableRecord
100
AcDbLinetypeTableRecord
  2
AM_ISO09W050
 70
     0
  3
_____ . . _____ . . _____ . . ____ .. ____
 72
    65
 73
     6
 40
22.5
 49
12.0
 74
     0
 49
-1.5
 74
     0
 49
3.0
 74
     0
 49
-1.5
 74
     0
 49
3.0
 74
     0
 49
-1.5
 74
     0
  0
LTYPE
  5
3131
330
30B4
100
AcDbSymbolTableRecord
100
AcDbLinetypeTableRecord
  2
AMCONSTR
 70
     0
  3
_______________________
 72
    65
 73
     2
 40
9999.0
 49
9999.0
 74
     0
 49
0.0
 74
     0
  0
LTYPE
  5
3132
330
30B4
100
AcDbSymbolTableRecord
100
AcDbLinetypeTableRecord
  2
AM_ISO08W050X2
 70
     0
  3
__ . __ . __ . __ . __ . __
 72
    65
 73
     4
 40
9.0
 49
6.0
 74
     0
 49
-0.75
 74
     0
 49
1.5
 74
     0
 49
-0.75
 74
     0
  0
LTYPE
  5
3133
330
30B4
100
AcDbSymbolTableRecord
100
AcDbLinetypeTableRecord
  2
AM_ISO02W050X2
 70
     0
  3
 _ _ _ _ _ _ _ _ _ _ _ _
 72
    65
 73
     2
 40
3.75
 49
3.0
 74
     0
 49
-0.75
 74
     0
  0
LTYPE
  5
3134
330
30B4
100
AcDbSymbolTableRecord
100
AcDbLinetypeTableRecord
  2
AMZIGZAG
 70
     0
  3
/\/-/\/-/\/-/\/-/\/-/\/
 72
    65
 73
     2
 40
11.0001
 49
0.0001
 74
     0
 49
-11.0
 74
     0
  0
LTYPE
  5
3135
330
30B4
100
AcDbSymbolTableRecord
100
AcDbLinetypeTableRecord
  2
CENTER2
 70
     0
  3
Center (.5x) ___ _ ___ _ ___ _ ___ _ ___ _ ___
 72
    65
 73
     4
 40
1.125
 49
0.75
 74
     0
 49
-0.125
 74
     0
 49
0.125
 74
     0
 49
-0.125
 74
     0
  0
LTYPE
  5
3136
330
30B4
100
AcDbSymbolTableRecord
100
AcDbLinetypeTableRecord
  2
HIDDEN2
 70
     0
  3
Hidden (.5x) _ _ _ _ _ _ _ _ _ _ _ _ _ _ _ _ _
 72
    65
 73
     2
 40
0.1875
 49
0.125
 74
     0
 49
-0.0625
 74
     0
  0
LTYPE
  5
3137
330
30B4
100
AcDbSymbolTableRecord
100
AcDbLinetypeTableRecord
  2
AMZIGZAG2
 70
     0
  3
/\/-/\/-/\/-/\/-/\/-/\/
 72
    65
 73
     2
 40
0.4401
 49
0.0001
 74
     0
 49
-0.4400000000000003
 74
     0
  0
LTYPE
  5
3138
330
30B4
100
AcDbSymbolTableRecord
100
AcDbLinetypeTableRecord
  2
ACANSTGB
 70
     0
  3
__ . . __ . .
 72
    65
 73
     6
 40
0.35433070866
 49
0.15748031496
 74
     0
 49
-0.03937007874
 74
     0
 49
0.03937007874
 74
     0
 49
-0.03937007874
 74
     0
 49
0.03937007874
 74
     0
 49
-0.03937007874
 74
     0
  0
LTYPE
  5
3139
330
30B4
100
AcDbSymbolTableRecord
100
AcDbLinetypeTableRecord
  2
ACANSTGL
 70
     0
  3
_ _ _ _ _
 72
    65
 73
     2
 40
0.11811023622
 49
0.07874015748
 74
     0
 49
-0.03937007874
 74
     0
  0
ENDTAB
  0
TABLE
  2
LAYER
  5
30B1
102
{ACAD_XDICTIONARY
360
33FF
102
}
330
0
100
AcDbSymbolTable
 70
    12
  0
LAYER
  5
310B
102
{ACAD_XDICTIONARY
360
32DE
102
}
330
30B1
100
AcDbSymbolTableRecord
100
AcDbLayerTableRecord
  2
0
 70
     0
 62
     7
  6
CONTINUOUS
370
    -3
390
30BE
347
30D0
  0
LAYER
  5
313A
102
{ACAD_XDICTIONARY
360
32E0
102
}
330
30B1
100
AcDbSymbolTableRecord
100
AcDbLayerTableRecord
  2
OUTLINE
 70
     0
 62
     3
  6
CONTINUOUS
370
    -3
390
30BE
347
30D0
  0
LAYER
  5
313B
102
{ACAD_XDICTIONARY
360
32E2
102
}
330
30B1
100
AcDbSymbolTableRecord
100
AcDbLayerTableRecord
  2
SIZE
 70
     0
 62
    30
  6
CONTINUOUS
370
    -3
390
30BE
347
30D0
  0
LAYER
  5
313C
102
{ACAD_XDICTIONARY
360
32E4
102
}
330
30B1
100
AcDbSymbolTableRecord
100
AcDbLayerTableRecord
  2
BASIS
 70
     0
 62
     6
  6
DASHDOT
370
    -3
390
30BE
347
30D0
  0
LAYER
  5
313D
102
{ACAD_XDICTIONARY
360
32E6
102
}
330
30B1
100
AcDbSymbolTableRecord
100
AcDbLayerTableRecord
  2
DETAIL
 70
     0
 62
     5
  6
CONTINUOUS
370
    -3
390
30BE
347
30D0
  0
LAYER
  5
313E
102
{ACAD_XDICTIONARY
360
32E8
102
}
330
30B1
100
AcDbSymbolTableRecord
100
AcDbLayerTableRecord
  2
ARRANGE
 70
     0
 62
     1
  6
CONTINUOUS
370
    -3
390
30BE
347
30D0
  0
LAYER
  5
313F
330
30B1
100
AcDbSymbolTableRecord
100
AcDbLayerTableRecord
  2
DEFPOINTS
 70
     0
 62
     7
  6
CONTINUOUS
290
     0
370
    -3
390
30BE
347
30D0
  0
LAYER
  5
3140
102
{ACAD_XDICTIONARY
360
32EA
102
}
330
30B1
100
AcDbSymbolTableRecord
100
AcDbLayerTableRecord
  2
ETC
 70
     0
 62
    61
  6
CONTINUOUS
370
    -3
390
30BE
347
30D0
  0
LAYER
  5
3141
102
{ACAD_XDICTIONARY
360
32EC
102
}
330
30B1
100
AcDbSymbolTableRecord
100
AcDbLayerTableRecord
  2
FIX
 70
     0
 62
    11
  6
CONTINUOUS
370
    -3
390
30BE
347
30D0
  0
LAYER
  5
3142
102
{ACAD_XDICTIONARY
360
32EE
102
}
330
30B1
100
AcDbSymbolTableRecord
100
AcDbLayerTableRecord
  2
NOTE
 70
     0
 62
     4
  6
CONTINUOUS
370
    -3
390
30BE
347
30D0
  0
LAYER
  5
3143
102
{ACAD_XDICTIONARY
360
32F0
102
}
330
30B1
100
AcDbSymbolTableRecord
100
AcDbLayerTableRecord
  2
SERVICESPACE
 70
     0
 62
     2
  6
DASHDOT
370
    -3
390
30BE
347
30D0
  0
LAYER
  5
3144
102
{ACAD_XDICTIONARY
360
32F2
102
}
330
30B1
100
AcDbSymbolTableRecord
100
AcDbLayerTableRecord
  2
SYMBOLLINE
 70
     0
 62
    15
  6
CONTINUOUS
370
    -3
390
30BE
347
30D0
  0
ENDTAB
  0
TABLE
  2
STYLE
  5
30B2
330
0
100
AcDbSymbolTable
 70
     5
  0
STYLE
  5
310C
330
30B2
100
AcDbSymbolTableRecord
100
AcDbTextStyleTableRecord
  2
STANDARD
 70
     0
 40
64.0
 41
0.9
 50
0.0
 71
     0
 42
64.0
  3
SIMPLEX.shx
  4
BIGFONT.shx
  0
STYLE
  5
3110
330
30B2
100
AcDbSymbolTableRecord
100
AcDbTextStyleTableRecord
  2
ANNOTATIVE
 70
     0
 40
0.0
 41
1.0
 50
0.0
 71
     0
 42
0.2
  3
txt
  4

1001
ACADANNOTATIVE
1000
AnnotativeData
1002
{
1070
     1
1070
     1
1002
}
  0
STYLE
  5
3145
330
30B2
100
AcDbSymbolTableRecord
100
AcDbTextStyleTableRecord
  2

 70
     1
 40
0.0
 41
1.0
 50
0.0
 71
     0
 42
64.0
  3
genltshp.shx
  4

  0
STYLE
  5
3146
330
30B2
100
AcDbSymbolTableRecord
100
AcDbTextStyleTableRecord
  2
ACANSTS
 70
     0
 40
1.0
 41
1.0
 50
0.0
 71
     0
 42
64.0
  3
romans.shx
  4
extfont.shx
  0
STYLE
  5
3147
330
30B2
100
AcDbSymbolTableRecord
100
AcDbTextStyleTableRecord
  2
ACANSGDT
 70
     0
 40
0.0
 41
1.0
 50
0.0
 71
     0
 42
64.0
  3
amgdt.shx
  4

  0
ENDTAB
  0
TABLE
  2
VIEW
  5
30B5
330
0
100
AcDbSymbolTable
 70
     1
  0
VIEW
  5
3148
330
30B5
100
AcDbSymbolTableRecord
100
AcDbViewTableRecord
  2
ALL
 70
     0
 40
4282.619807999997
 10
0.0
 20
41.30990399999999
 41
5940.0
 11
0.0
 21
0.0
 31
1.0
 12
0.0
 22
0.0
 32
0.0
 42
50.0
 43
0.0
 44
0.0
 50
0.0
 71
     0
281
     0
 72
     1
110
0.0
120
0.0
130
0.0
111
1.0
121
0.0
131
0.0
112
0.0
122
1.0
132
0.0
 79
     0
146
0.0
 73
     0
348
30DE
  0
ENDTAB
  0
TABLE
  2
UCS
  5
30B6
330
0
100
AcDbSymbolTable
 70
     0
  0
ENDTAB
  0
TABLE
  2
APPID
  5
30B8
330
0
100
AcDbSymbolTable
 70
    33
  0
APPID
  5
310D
330
30B8
100
AcDbSymbolTableRecord
100
AcDbRegAppTableRecord
  2
ACAD
 70
     0
  0
APPID
  5
3114
330
30B8
100
AcDbSymbolTableRecord
100
AcDbRegAppTableRecord
  2
ACADANNOTATIVE
 70
     0
  0
APPID
  5
311E
330
30B8
100
AcDbSymbolTableRecord
100
AcDbRegAppTableRecord
  2
ACAD_MLEADERVER
 70
     0
  0
APPID
  5
3149
330
30B8
100
AcDbSymbolTableRecord
100
AcDbRegAppTableRecord
  2
GENIUS_GENDIM_13
 70
     0
  0
APPID
  5
314A
330
30B8
100
AcDbSymbolTableRecord
100
AcDbRegAppTableRecord
  2
GENIUS_GENDTOL_13
 70
     0
  0
APPID
  5
314B
330
30B8
100
AcDbSymbolTableRecord
100
AcDbRegAppTableRecord
  2
GENIUS_GE3DTOL_13
 70
     0
  0
APPID
  5
314C
330
30B8
100
AcDbSymbolTableRecord
100
AcDbRegAppTableRecord
  2
MCAD_NO_VIS
 70
     0
  0
APPID
  5
314D
330
30B8
100
AcDbSymbolTableRecord
100
AcDbRegAppTableRecord
  2
ACAD_TEMP_GRAPHIC
 70
     0
  0
APPID
  5
314E
330
30B8
100
AcDbSymbolTableRecord
100
AcDbRegAppTableRecord
  2
AD_DRAW
 70
     0
  0
APPID
  5
314F
330
30B8
100
AcDbSymbolTableRecord
100
AcDbRegAppTableRecord
  2
ACATTRIBSERVICES
 70
     0
  0
APPID
  5
3150
330
30B8
100
AcDbSymbolTableRecord
100
AcDbRegAppTableRecord
  2
ASURF_PCURVE_APPNAME
 70
     0
  0
APPID
  5
3151
330
30B8
100
AcDbSymbolTableRecord
100
AcDbRegAppTableRecord
  2
AMG_3D2D_5_0
 70
     0
  0
APPID
  5
3152
330
30B8
100
AcDbSymbolTableRecord
100
AcDbRegAppTableRecord
  2
DESIGNERASSEMBLIES
 70
     0
  0
APPID
  5
3153
330
30B8
100
AcDbSymbolTableRecord
100
AcDbRegAppTableRecord
  2
ACADM_DIM_EDIT
 70
     0
  0
APPID
  5
3154
330
30B8
100
AcDbSymbolTableRecord
100
AcDbRegAppTableRecord
  2
AMDT_DM_ADJ
 70
     0
  0
APPID
  5
3155
330
30B8
100
AcDbSymbolTableRecord
100
AcDbRegAppTableRecord
  2
ACAD_DSTYLE_DIMARC_LENGTH_
 70
     0
  0
APPID
  5
3156
330
30B8
100
AcDbSymbolTableRecord
100
AcDbRegAppTableRecord
  2
ACAD_DSTYLE_DIMJOGGED_JOGA
 70
     0
  0
APPID
  5
3157
330
30B8
100
AcDbSymbolTableRecord
100
AcDbRegAppTableRecord
  2
ACAD_PSEXT
 70
     0
  0
APPID
  5
3158
330
30B8
100
AcDbSymbolTableRecord
100
AcDbRegAppTableRecord
  2
ACAD_EXEMPT_FROM_CAD_STANDARDS
 70
     0
  0
APPID
  5
3159
330
30B8
100
AcDbSymbolTableRecord
100
AcDbRegAppTableRecord
  2
ACAD_DSTYLE_DIMJAG
 70
     0
  0
APPID
  5
315A
330
30B8
100
AcDbSymbolTableRecord
100
AcDbRegAppTableRecord
  2
ACAD_DSTYLE_DIMTALN
 70
     0
  0
APPID
  5
315B
330
30B8
100
AcDbSymbolTableRecord
100
AcDbRegAppTableRecord
  2
AMG_3D2D_5_00
 70
     0
  0
APPID
  5
315C
330
30B8
100
AcDbSymbolTableRecord
100
AcDbRegAppTableRecord
  2
AMG_3D2D_5_01
 70
     0
  0
APPID
  5
315D
330
30B8
100
AcDbSymbolTableRecord
100
AcDbRegAppTableRecord
  2
AMG_3D2D_5_02
 70
     0
  0
APPID
  5
315E
330
30B8
100
AcDbSymbolTableRecord
100
AcDbRegAppTableRecord
  2
AMG_3D2D_5_03
 70
     0
  0
APPID
  5
315F
330
30B8
100
AcDbSymbolTableRecord
100
AcDbRegAppTableRecord
  2
AMG_3D2D_5_04
 70
     0
  0
APPID
  5
3160
330
30B8
100
AcDbSymbolTableRecord
100
AcDbRegAppTableRecord
  2
AMG_3D2D_5_05
 70
     0
  0
APPID
  5
327E
330
30B8
100
AcDbSymbolTableRecord
100
AcDbRegAppTableRecord
  2
AMG_3D2D_5.0
 70
     0
  0
APPID
  5
331B
330
30B8
100
AcDbSymbolTableRecord
100
AcDbRegAppTableRecord
  2
ACAD_DSTYLE_DIMARC_LENGTH_SYMBOL
 70
     0
  0
APPID
  5
331C
330
30B8
100
AcDbSymbolTableRecord
100
AcDbRegAppTableRecord
  2
ACAD_DSTYLE_DIM_LINETYPE
 70
     0
  0
APPID
  5
331D
330
30B8
100
AcDbSymbolTableRecord
100
AcDbRegAppTableRecord
  2
ACAD_DSTYLE_DIM_EXT1_LINETYPE
 70
     0
  0
APPID
  5
331E
330
30B8
100
AcDbSymbolTableRecord
100
AcDbRegAppTableRecord
  2
ACAD_DSTYLE_DIM_EXT2_LINETYPE
 70
     0
  0
APPID
  5
33FE
330
30B8
100
AcDbSymbolTableRecord
100
AcDbRegAppTableRecord
  2
ACAD_DSTYLE_DIMJOGGED_JOGANGLE_SYMBOL
 70
     0
  0
ENDTAB
  0
TABLE
  2
DIMSTYLE
  5
30B9
330
0
100
AcDbSymbolTable
 70
    11
100
AcDbDimStyleTable
 71
     1
340
3161
  0
DIMSTYLE
105
310E
330
30B9
100
AcDbSymbolTableRecord
100
AcDbDimStyleTableRecord
  2
STANDARD
 70
     0
 41
12.0
 42
20.0
 44
20.0
 77
     1
 78
     8
140
64.0
141
0.0
147
10.0
275
     1
279
     2
284
     7
285
     7
286
     7
340
310C
  0
DIMSTYLE
105
310F
330
30B9
100
AcDbSymbolTableRecord
100
AcDbDimStyleTableRecord
  2
ANNOTATIVE
 70
     0
275
     1
279
     2
284
     7
285
     7
286
     7
340
310C
1001
ACADANNOTATIVE
1000
AnnotativeData
1002
{
1070
     1
1070
     1
1002
}
  0
DIMSTYLE
105
3161
330
30B9
100
AcDbSymbolTableRecord
100
AcDbDimStyleTableRecord
  2
AM_ANSI
 70
     0
  4
mm
 41
0.12
 42
0.05
 43
0.5
 44
0.1
 47
0.1
 48
0.1
 78
     7
 79
     2
 90
     1
140
0.12
141
0.0
146
0.71
147
0.06
176
   256
177
   256
178
     2
274
     4
284
     7
340
310C
345
3111
346
3111
347
3111
371
    -1
372
    -1
  0
DIMSTYLE
105
3162
330
30B9
100
AcDbSymbolTableRecord
100
AcDbDimStyleTableRecord
  2
AM_ANSI$3
 70
     0
  4
mm
 41
0.12
 42
0.05
 43
0.5
 44
0.1
 47
0.1
 48
0.1
 78
     7
 79
     2
 90
     1
140
0.12
141
0.0
146
0.71
147
0.06
176
   256
177
   256
178
     2
274
     4
284
     7
288
     1
289
     0
340
310C
345
3111
346
3111
347
3111
371
    -1
372
    -1
  0
DIMSTYLE
105
3163
330
30B9
100
AcDbSymbolTableRecord
100
AcDbDimStyleTableRecord
  2
AM_ANSI$4
 70
     0
  4
mm
 41
0.12
 42
0.05
 43
0.5
 44
0.1
 47
0.1
 48
0.1
 78
     7
 79
     2
 90
     1
140
0.12
141
0.0
146
0.71
147
0.06
176
   256
177
   256
178
     2
274
     4
284
     7
340
310C
345
3111
346
3111
347
3111
371
    -1
372
    -1
  0
DIMSTYLE
105
3164
330
30B9
100
AcDbSymbolTableRecord
100
AcDbDimStyleTableRecord
  2
AM_ANSI$7
 70
     0
  4
mm
 41
0.12
 42
0.05
 43
0.5
 44
0.1
 47
0.1
 48
0.1
 78
     7
 79
     2
 90
     1
140
0.12
141
0.0
146
0.71
147
0.06
176
   256
177
   256
178
     2
274
     4
284
     7
340
310C
345
3111
346
3111
347
3111
371
    -1
372
    -1
  0
DIMSTYLE
105
3165
330
30B9
100
AcDbSymbolTableRecord
100
AcDbDimStyleTableRecord
  2
AM_ANSI$SF
 70
     0
  4
mm
 41
0.12
 42
0.05
 43
0.5
 44
0.1
 47
0.1
 48
0.1
 75
     1
 76
     1
 78
     7
 79
     2
 90
     1
140
0.12
141
0.0
146
0.71
147
0.06
176
   256
177
   256
178
     2
274
     4
284
     7
340
310C
345
3111
346
3111
347
3111
371
    -1
372
    -1
  0
DIMSTYLE
105
3166
330
30B9
100
AcDbSymbolTableRecord
100
AcDbDimStyleTableRecord
  2
AM_ANSI$SH
 70
     0
  4
mm
 41
0.12
 42
0.05
 43
0.5
 44
0.1
 47
0.1
 48
0.1
 75
     1
 76
     1
 78
     7
 79
     2
 90
     1
140
0.12
141
0.0
146
0.71
147
0.06
173
     1
176
   256
177
   256
178
     2
274
     4
284
     7
340
310C
343
3186
345
3111
346
3111
347
3111
371
    -1
372
    -1
  0
DIMSTYLE
105
3167
330
30B9
100
AcDbSymbolTableRecord
100
AcDbDimStyleTableRecord
  2
STANDARD1
 70
     0
 40
6.0
 41
2.5
 42
0.625
 43
6.0
 44
1.25
 47
1.0
 48
0.5
 77
     1
 78
     8
140
2.5
141
0.0
146
0.6
147
1.0
173
     1
275
     1
279
     2
284
     7
285
     7
286
     7
340
310C
  0
DIMSTYLE
105
3168
330
30B9
100
AcDbSymbolTableRecord
100
AcDbDimStyleTableRecord
  2
STANDARD$0
 70
     0
 41
12.0
 42
20.0
 44
20.0
 73
     0
 74
     0
 77
     1
 78
     8
140
64.0
141
0.0
147
10.0
275
     1
279
     2
284
     7
285
     7
286
     7
340
310C
  0
ENDTAB
  0
TABLE
  2
BLOCK_RECORD
  5
30B0
330
0
100
AcDbSymbolTable
 70
    73
  0
BLOCK_RECORD
  5
3123
102
{ACAD_XDICTIONARY
360
32F4
102
}
330
30B0
100
AcDbSymbolTableRecord
100
AcDbBlockTableRecord
  2
*Model_Space
340
3126
 70
     0
280
     1
281
     0
  0
BLOCK_RECORD
  5
311F
330
30B0
100
AcDbSymbolTableRecord
100
AcDbBlockTableRecord
  2
*Paper_Space
340
3122
 70
     0
280
     1
281
     0
  0
BLOCK_RECORD
  5
3170
330
30B0
100
AcDbSymbolTableRecord
100
AcDbBlockTableRecord
  2
$MODEL_SPACE
340
0
 70
     0
280
     1
281
     0
  0
BLOCK_RECORD
  5
3172
330
30B0
100
AcDbSymbolTableRecord
100
AcDbBlockTableRecord
  2
$PAPER_SPACE
340
0
 70
     0
280
     1
281
     0
  0
BLOCK_RECORD
  5
3174
330
30B0
100
AcDbSymbolTableRecord
100
AcDbBlockTableRecord
  2
_ORIGIN
340
0
 70
     0
280
     1
281
     0
  0
BLOCK_RECORD
  5
3176
330
30B0
100
AcDbSymbolTableRecord
100
AcDbBlockTableRecord
  2
_DOTBLANK
340
0
102
{BLKREFS
331
1299
331
129A
331
11AA
331
11AB
331
E80
331
E81
331
1123
331
1124
331
11C2
331
11C3
331
11EC
331
11ED
331
11F9
331
11FA
331
1287
331
1288
331
1417
331
1418
331
1423
331
1424
331
142F
331
1430
331
143B
331
143C
331
166E
331
166F
331
1677
331
1678
331
1680
331
1681
331
1689
331
168A
331
1696
331
1697
331
16A3
331
16A4
331
16AF
331
16B0
331
16BB
331
16BC
331
16C7
331
16C8
331
16D3
331
16D4
331
1D86
331
1D87
331
1D8F
331
1D90
331
1D98
331
1D99
331
1DA1
331
1DA2
331
1DAB
331
1DAC
331
1DB5
331
1DB6
331
3466
331
3467
331
346C
331
346D
331
3472
331
3473
331
348E
331
348F
331
34AF
331
34B0
331
34B5
331
34B6
102
}
 70
     0
280
     1
281
     0
  0
BLOCK_RECORD
  5
3178
330
30B0
100
AcDbSymbolTableRecord
100
AcDbBlockTableRecord
  2
_OPEN30
340
0
102
{BLKREFS
331
2088
331
25A0
331
2880
331
3491
102
}
 70
     0
280
     1
281
     0
  0
BLOCK_RECORD
  5
317A
330
30B0
100
AcDbSymbolTableRecord
100
AcDbBlockTableRecord
  2
*D5
340
0
 70
     0
280
     1
281
     0
  0
BLOCK_RECORD
  5
317C
330
30B0
100
AcDbSymbolTableRecord
100
AcDbBlockTableRecord
  2
*U6
340
0
102
{BLKREFS
331
129B
102
}
 70
     0
280
     1
281
     0
  0
BLOCK_RECORD
  5
317E
330
30B0
100
AcDbSymbolTableRecord
100
AcDbBlockTableRecord
  2
*D7
340
0
 70
     0
280
     1
281
     0
  0
BLOCK_RECORD
  5
3180
330
30B0
100
AcDbSymbolTableRecord
100
AcDbBlockTableRecord
  2
*U8
340
0
102
{BLKREFS
331
11AC
102
}
 70
     0
280
     1
281
     0
  0
BLOCK_RECORD
  5
3182
330
30B0
100
AcDbSymbolTableRecord
100
AcDbBlockTableRecord
  2
*D9
340
0
 70
     0
280
     1
281
     0
  0
BLOCK_RECORD
  5
3184
330
30B0
100
AcDbSymbolTableRecord
100
AcDbBlockTableRecord
  2
*U10
340
0
102
{BLKREFS
331
E82
102
}
 70
     0
280
     1
281
     0
  0
BLOCK_RECORD
  5
3186
330
30B0
100
AcDbSymbolTableRecord
100
AcDbBlockTableRecord
  2
GENAXEH
340
0
 70
     0
280
     1
281
     0
  0
BLOCK_RECORD
  5
3188
330
30B0
100
AcDbSymbolTableRecord
100
AcDbBlockTableRecord
  2
*D12
340
0
 70
     0
280
     1
281
     0
  0
BLOCK_RECORD
  5
318A
330
30B0
100
AcDbSymbolTableRecord
100
AcDbBlockTableRecord
  2
*U13
340
0
102
{BLKREFS
331
1125
102
}
 70
     0
280
     1
281
     0
  0
BLOCK_RECORD
  5
318C
330
30B0
100
AcDbSymbolTableRecord
100
AcDbBlockTableRecord
  2
*D14
340
0
 70
     0
280
     1
281
     0
  0
BLOCK_RECORD
  5
318E
330
30B0
100
AcDbSymbolTableRecord
100
AcDbBlockTableRecord
  2
*U15
340
0
102
{BLKREFS
331
11C4
102
}
 70
     0
280
     1
281
     0
  0
BLOCK_RECORD
  5
3190
330
30B0
100
AcDbSymbolTableRecord
100
AcDbBlockTableRecord
  2
*D16
340
0
 70
     0
280
     1
281
     0
  0
BLOCK_RECORD
  5
3192
330
30B0
100
AcDbSymbolTableRecord
100
AcDbBlockTableRecord
  2
*U17
340
0
102
{BLKREFS
331
11EE
102
}
 70
     0
280
     1
281
     0
  0
BLOCK_RECORD
  5
3194
330
30B0
100
AcDbSymbolTableRecord
100
AcDbBlockTableRecord
  2
*D18
340
0
 70
     0
280
     1
281
     0
  0
BLOCK_RECORD
  5
3196
330
30B0
100
AcDbSymbolTableRecord
100
AcDbBlockTableRecord
  2
*U19
340
0
102
{BLKREFS
331
11FB
102
}
 70
     0
280
     1
281
     0
  0
BLOCK_RECORD
  5
3198
330
30B0
100
AcDbSymbolTableRecord
100
AcDbBlockTableRecord
  2
*D20
340
0
 70
     0
280
     1
281
     0
  0
BLOCK_RECORD
  5
319A
330
30B0
100
AcDbSymbolTableRecord
100
AcDbBlockTableRecord
  2
*U21
340
0
102
{BLKREFS
331
1289
102
}
 70
     0
280
     1
281
     0
  0
BLOCK_RECORD
  5
319C
330
30B0
100
AcDbSymbolTableRecord
100
AcDbBlockTableRecord
  2
*D22
340
0
 70
     0
280
     1
281
     0
  0
BLOCK_RECORD
  5
319E
330
30B0
100
AcDbSymbolTableRecord
100
AcDbBlockTableRecord
  2
*U23
340
0
102
{BLKREFS
331
1419
102
}
 70
     0
280
     1
281
     0
  0
BLOCK_RECORD
  5
31A0
330
30B0
100
AcDbSymbolTableRecord
100
AcDbBlockTableRecord
  2
*D24
340
0
 70
     0
280
     1
281
     0
  0
BLOCK_RECORD
  5
31A2
330
30B0
100
AcDbSymbolTableRecord
100
AcDbBlockTableRecord
  2
*U25
340
0
102
{BLKREFS
331
1425
102
}
 70
     0
280
     1
281
     0
  0
BLOCK_RECORD
  5
31A4
330
30B0
100
AcDbSymbolTableRecord
100
AcDbBlockTableRecord
  2
*D26
340
0
 70
     0
280
     1
281
     0
  0
BLOCK_RECORD
  5
31A6
330
30B0
100
AcDbSymbolTableRecord
100
AcDbBlockTableRecord
  2
*U27
340
0
102
{BLKREFS
331
1431
102
}
 70
     0
280
     1
281
     0
  0
BLOCK_RECORD
  5
31A8
330
30B0
100
AcDbSymbolTableRecord
100
AcDbBlockTableRecord
  2
*D28
340
0
 70
     0
280
     1
281
     0
  0
BLOCK_RECORD
  5
31AA
330
30B0
100
AcDbSymbolTableRecord
100
AcDbBlockTableRecord
  2
*U29
340
0
102
{BLKREFS
331
143D
102
}
 70
     0
280
     1
281
     0
  0
BLOCK_RECORD
  5
31AC
330
30B0
100
AcDbSymbolTableRecord
100
AcDbBlockTableRecord
  2
*D30
340
0
 70
     0
280
     1
281
     0
  0
BLOCK_RECORD
  5
31AE
330
30B0
100
AcDbSymbolTableRecord
100
AcDbBlockTableRecord
  2
*U31
340
0
102
{BLKREFS
331
1670
102
}
 70
     0
280
     1
281
     0
  0
BLOCK_RECORD
  5
31B0
330
30B0
100
AcDbSymbolTableRecord
100
AcDbBlockTableRecord
  2
*D32
340
0
 70
     0
280
     1
281
     0
  0
BLOCK_RECORD
  5
31B2
330
30B0
100
AcDbSymbolTableRecord
100
AcDbBlockTableRecord
  2
*U33
340
0
102
{BLKREFS
331
1679
102
}
 70
     0
280
     1
281
     0
  0
BLOCK_RECORD
  5
31B4
330
30B0
100
AcDbSymbolTableRecord
100
AcDbBlockTableRecord
  2
*D34
340
0
 70
     0
280
     1
281
     0
  0
BLOCK_RECORD
  5
31B6
330
30B0
100
AcDbSymbolTableRecord
100
AcDbBlockTableRecord
  2
*U35
340
0
102
{BLKREFS
331
1682
102
}
 70
     0
280
     1
281
     0
  0
BLOCK_RECORD
  5
31B8
330
30B0
100
AcDbSymbolTableRecord
100
AcDbBlockTableRecord
  2
*D36
340
0
 70
     0
280
     1
281
     0
  0
BLOCK_RECORD
  5
31BA
330
30B0
100
AcDbSymbolTableRecord
100
AcDbBlockTableRecord
  2
*U37
340
0
102
{BLKREFS
331
168B
102
}
 70
     0
280
     1
281
     0
  0
BLOCK_RECORD
  5
31BC
330
30B0
100
AcDbSymbolTableRecord
100
AcDbBlockTableRecord
  2
*U38
340
0
 70
     0
280
     1
281
     0
  0
BLOCK_RECORD
  5
31BE
330
30B0
100
AcDbSymbolTableRecord
100
AcDbBlockTableRecord
  2
*D39
340
0
 70
     0
280
     1
281
     0
  0
BLOCK_RECORD
  5
31C0
330
30B0
100
AcDbSymbolTableRecord
100
AcDbBlockTableRecord
  2
*U40
340
0
102
{BLKREFS
331
1698
102
}
 70
     0
280
     1
281
     0
  0
BLOCK_RECORD
  5
31C2
330
30B0
100
AcDbSymbolTableRecord
100
AcDbBlockTableRecord
  2
*D41
340
0
 70
     0
280
     1
281
     0
  0
BLOCK_RECORD
  5
31C4
330
30B0
100
AcDbSymbolTableRecord
100
AcDbBlockTableRecord
  2
*U42
340
0
102
{BLKREFS
331
16A5
102
}
 70
     0
280
     1
281
     0
  0
BLOCK_RECORD
  5
31C6
330
30B0
100
AcDbSymbolTableRecord
100
AcDbBlockTableRecord
  2
*D43
340
0
 70
     0
280
     1
281
     0
  0
BLOCK_RECORD
  5
31C8
330
30B0
100
AcDbSymbolTableRecord
100
AcDbBlockTableRecord
  2
*U44
340
0
102
{BLKREFS
331
16B1
102
}
 70
     0
280
     1
281
     0
  0
BLOCK_RECORD
  5
31CA
330
30B0
100
AcDbSymbolTableRecord
100
AcDbBlockTableRecord
  2
*D45
340
0
 70
     0
280
     1
281
     0
  0
BLOCK_RECORD
  5
31CC
330
30B0
100
AcDbSymbolTableRecord
100
AcDbBlockTableRecord
  2
*U46
340
0
102
{BLKREFS
331
16BD
102
}
 70
     0
280
     1
281
     0
  0
BLOCK_RECORD
  5
31CE
330
30B0
100
AcDbSymbolTableRecord
100
AcDbBlockTableRecord
  2
*D47
340
0
 70
     0
280
     1
281
     0
  0
BLOCK_RECORD
  5
31D0
330
30B0
100
AcDbSymbolTableRecord
100
AcDbBlockTableRecord
  2
*U48
340
0
102
{BLKREFS
331
16C9
102
}
 70
     0
280
     1
281
     0
  0
BLOCK_RECORD
  5
31D2
330
30B0
100
AcDbSymbolTableRecord
100
AcDbBlockTableRecord
  2
*D49
340
0
 70
     0
280
     1
281
     0
  0
BLOCK_RECORD
  5
31D4
330
30B0
100
AcDbSymbolTableRecord
100
AcDbBlockTableRecord
  2
*U50
340
0
102
{BLKREFS
331
16D5
102
}
 70
     0
280
     1
281
     0
  0
BLOCK_RECORD
  5
31D6
330
30B0
100
AcDbSymbolTableRecord
100
AcDbBlockTableRecord
  2
*D51
340
0
 70
     0
280
     1
281
     0
  0
BLOCK_RECORD
  5
31D8
330
30B0
100
AcDbSymbolTableRecord
100
AcDbBlockTableRecord
  2
*U52
340
0
102
{BLKREFS
331
1D88
102
}
 70
     0
280
     1
281
     0
  0
BLOCK_RECORD
  5
31DA
330
30B0
100
AcDbSymbolTableRecord
100
AcDbBlockTableRecord
  2
*D53
340
0
 70
     0
280
     1
281
     0
  0
BLOCK_RECORD
  5
31DC
330
30B0
100
AcDbSymbolTableRecord
100
AcDbBlockTableRecord
  2
*U54
340
0
102
{BLKREFS
331
1D91
102
}
 70
     0
280
     1
281
     0
  0
BLOCK_RECORD
  5
31DE
330
30B0
100
AcDbSymbolTableRecord
100
AcDbBlockTableRecord
  2
*D55
340
0
 70
     0
280
     1
281
     0
  0
BLOCK_RECORD
  5
31E0
330
30B0
100
AcDbSymbolTableRecord
100
AcDbBlockTableRecord
  2
*U56
340
0
102
{BLKREFS
331
1D9A
102
}
 70
     0
280
     1
281
     0
  0
BLOCK_RECORD
  5
31E2
330
30B0
100
AcDbSymbolTableRecord
100
AcDbBlockTableRecord
  2
*D57
340
0
 70
     0
280
     1
281
     0
  0
BLOCK_RECORD
  5
31E4
330
30B0
100
AcDbSymbolTableRecord
100
AcDbBlockTableRecord
  2
*U58
340
0
102
{BLKREFS
331
1DA3
102
}
 70
     0
280
     1
281
     0
  0
BLOCK_RECORD
  5
31E6
330
30B0
100
AcDbSymbolTableRecord
100
AcDbBlockTableRecord
  2
*D59
340
0
 70
     0
280
     1
281
     0
  0
BLOCK_RECORD
  5
31E8
330
30B0
100
AcDbSymbolTableRecord
100
AcDbBlockTableRecord
  2
*U60
340
0
102
{BLKREFS
331
1DAD
102
}
 70
     0
280
     1
281
     0
  0
BLOCK_RECORD
  5
31EA
330
30B0
100
AcDbSymbolTableRecord
100
AcDbBlockTableRecord
  2
*D61
340
0
 70
     0
280
     1
281
     0
  0
BLOCK_RECORD
  5
31EC
330
30B0
100
AcDbSymbolTableRecord
100
AcDbBlockTableRecord
  2
*U62
340
0
102
{BLKREFS
331
1DB7
102
}
 70
     0
280
     1
281
     0
  0
BLOCK_RECORD
  5
31EE
330
30B0
100
AcDbSymbolTableRecord
100
AcDbBlockTableRecord
  2
*U63
340
0
 70
     0
280
     1
281
     0
  0
BLOCK_RECORD
  5
31F0
330
30B0
100
AcDbSymbolTableRecord
100
AcDbBlockTableRecord
  2
*U64
340
0
 70
     0
280
     1
281
     0
  0
BLOCK_RECORD
  5
31F2
330
30B0
100
AcDbSymbolTableRecord
100
AcDbBlockTableRecord
  2
*U65
340
0
 70
     0
280
     1
281
     0
  0
BLOCK_RECORD
  5
31F4
330
30B0
100
AcDbSymbolTableRecord
100
AcDbBlockTableRecord
  2
*U66
340
0
 70
     0
280
     1
281
     0
  0
BLOCK_RECORD
  5
31F6
330
30B0
100
AcDbSymbolTableRecord
100
AcDbBlockTableRecord
  2
*U67
340
0
 70
     0
280
     1
281
     0
  0
BLOCK_RECORD
  5
31F8
330
30B0
100
AcDbSymbolTableRecord
100
AcDbBlockTableRecord
  2
*U68
340
0
 70
     0
280
     1
281
     0
  0
BLOCK_RECORD
  5
31FA
330
30B0
100
AcDbSymbolTableRecord
100
AcDbBlockTableRecord
  2
*U69
340
0
 70
     0
280
     1
281
     0
  0
BLOCK_RECORD
  5
33CE
330
30B0
100
AcDbSymbolTableRecord
100
AcDbBlockTableRecord
  2
*U70
340
0
 70
     0
280
     1
281
     0
  0
BLOCK_RECORD
  5
356D
330
30B0
100
AcDbSymbolTableRecord
100
AcDbBlockTableRecord
  2
*U71
340
0
 70
     0
280
     1
281
     0
  0
ENDTAB
  0
ENDSEC
  0
SECTION
  2
BLOCKS
  0
BLOCK
  5
3124
330
3123
100
AcDbEntity
  8
0
100
AcDbBlockBegin
  2
*Model_Space
 70
     0
 10
0.0
 20
0.0
 30
0.0
  3
*Model_Space
  1

  0
ENDBLK
  5
3125
330
3123
100
AcDbEntity
  8
0
100
AcDbBlockEnd
  0
BLOCK
  5
3120
330
311F
100
AcDbEntity
 67
     1
  8
0
100
AcDbBlockBegin
  2
*Paper_Space
 70
     0
 10
0.0
 20
0.0
 30
0.0
  3
*Paper_Space
  1

  0
ENDBLK
  5
3121
330
311F
100
AcDbEntity
 67
     1
  8
0
100
AcDbBlockEnd
  0
BLOCK
  5
3171
330
3170
100
AcDbEntity
  8
0
100
AcDbBlockBegin
  2
$MODEL_SPACE
 70
     0
 10
0.0
 20
0.0
 30
0.0
  3
$MODEL_SPACE
  1

  0
ENDBLK
  5
2EBC
330
3170
100
AcDbEntity
  8
0
100
AcDbBlockEnd
  0
BLOCK
  5
3173
330
3172
100
AcDbEntity
  8
0
100
AcDbBlockBegin
  2
$PAPER_SPACE
 70
     0
 10
0.0
 20
0.0
 30
0.0
  3
$PAPER_SPACE
  1

  0
ENDBLK
  5
2EB8
330
3172
100
AcDbEntity
  8
0
100
AcDbBlockEnd
  0
BLOCK
  5
3175
330
3174
100
AcDbEntity
  8
0
100
AcDbBlockBegin
  2
_ORIGIN
 70
     0
 10
0.0
 20
0.0
 30
0.0
  3
_ORIGIN
  1

  0
CIRCLE
  5
880
330
3174
100
AcDbEntity
  8
0
  6
Continuous
 62
     7
100
AcDbCircle
 10
0.0
 20
0.0
 30
0.0
 40
0.5
  0
LINE
  5
881
330
3174
100
AcDbEntity
  8
0
  6
Continuous
 62
     7
100
AcDbLine
 10
0.0
 20
0.0
 30
0.0
 11
-1.0
 21
0.0
 31
0.0
  0
ENDBLK
  5
882
330
3174
100
AcDbEntity
  8
0
100
AcDbBlockEnd
  0
BLOCK
  5
3177
330
3176
100
AcDbEntity
  8
0
 62
     1
100
AcDbBlockBegin
  2
_DOTBLANK
 70
     0
 10
0.0
 20
0.0
 30
0.0
  3
_DOTBLANK
  1

  0
CIRCLE
  5
AB3
330
3176
100
AcDbEntity
  8
0
  6
ByBlock
 62
     0
100
AcDbCircle
 10
0.0
 20
0.0
 30
0.0
 40
0.5
  0
LINE
  5
AB4
330
3176
100
AcDbEntity
  8
0
  6
ByBlock
 62
     0
100
AcDbLine
 10
-0.5
 20
0.0
 30
0.0
 11
-1.0
 21
0.0
 31
0.0
  0
ENDBLK
  5
AB6
330
3176
100
AcDbEntity
  8
0
 62
     1
100
AcDbBlockEnd
  0
BLOCK
  5
3179
330
3178
100
AcDbEntity
  8
0
 62
     1
100
AcDbBlockBegin
  2
_OPEN30
 70
     0
 10
0.0
 20
0.0
 30
0.0
  3
_OPEN30
  1

  0
LINE
  5
AB8
330
3178
100
AcDbEntity
  8
0
  6
ByBlock
 62
     0
100
AcDbLine
 10
-1.0
 20
0.26794919
 30
0.0
 11
0.0
 21
0.0
 31
0.0
  0
LINE
  5
AB9
330
3178
100
AcDbEntity
  8
0
  6
ByBlock
 62
     0
100
AcDbLine
 10
0.0
 20
0.0
 30
0.0
 11
-1.0
 21
-0.26794919
 31
0.0
  0
LINE
  5
ABA
330
3178
100
AcDbEntity
  8
0
  6
ByBlock
 62
     0
100
AcDbLine
 10
0.0
 20
0.0
 30
0.0
 11
-1.0
 21
0.0
 31
0.0
  0
ENDBLK
  5
ABC
330
3178
100
AcDbEntity
  8
0
 62
     1
100
AcDbBlockEnd
  0
BLOCK
  5
317B
330
317A
100
AcDbEntity
  8
0
100
AcDbBlockBegin
  2
*D5
 70
     1
 10
0.0
 20
0.0
 30
0.0
  3
*D5
  1

  0
LINE
  5
1296
330
317A
100
AcDbEntity
  8
SIZE
 62
     0
100
AcDbLine
 10
-134.5
 20
-320.0
 30
0.0
 11
-134.5
 21
-468.0173952306001
 31
0.0
  0
LINE
  5
1297
330
317A
100
AcDbEntity
  8
SIZE
 62
     0
100
AcDbLine
 10
134.5
 20
-320.0
 30
0.0
 11
134.5
 21
-468.0173952306001
 31
0.0
  0
LINE
  5
1298
330
317A
100
AcDbEntity
  8
SIZE
 62
     0
100
AcDbLine
 10
-122.5
 20
-448.0173952306
 30
0.0
 11
122.5
 21
-448.0173952306
 31
0.0
  0
INSERT
  5
1299
330
317A
100
AcDbEntity
  8
SIZE
 62
     0
100
AcDbBlockReference
  2
_DOTBLANK
 10
-134.5
 20
-448.0173952306
 30
0.0
 41
12.0
 42
12.0
 43
12.0
 50
180.0
  0
INSERT
  5
129A
330
317A
100
AcDbEntity
  8
SIZE
 62
     0
100
AcDbBlockReference
  2
_DOTBLANK
 10
134.5
 20
-448.0173952306
 30
0.0
 41
12.0
 42
12.0
 43
12.0
  0
INSERT
  5
129B
330
317A
100
AcDbEntity
  8
0
100
AcDbBlockReference
  2
*U6
 10
0.0
 20
0.0
 30
0.0
  0
POINT
  5
129C
330
317A
100
AcDbEntity
  8
DEFPOINTS
 62
     0
100
AcDbPoint
 10
-134.5
 20
-300.0
 30
0.0
  0
POINT
  5
129D
330
317A
100
AcDbEntity
  8
DEFPOINTS
 62
     0
100
AcDbPoint
 10
134.5
 20
-300.0
 30
0.0
  0
POINT
  5
129E
330
317A
100
AcDbEntity
  8
DEFPOINTS
 62
     0
100
AcDbPoint
 10
134.5
 20
-448.0173952306
 30
0.0
  0
ENDBLK
  5
D72
330
317A
100
AcDbEntity
  8
0
100
AcDbBlockEnd
  0
BLOCK
  5
317D
330
317C
100
AcDbEntity
  8
0
100
AcDbBlockBegin
  2
*U6
 70
     1
 10
0.0
 20
0.0
 30
0.0
  3
*U6
  1

  0
TEXT
  5
1EF5
330
317C
100
AcDbEntity
  8
SIZE
 62
     0
100
AcDbText
 10
-72.68571428571426
 20
-438.0173952305999
 30
0.0
 40
64.0
  1
269
 41
0.9
100
AcDbText
  0
ENDBLK
  5
1EF7
330
317C
100
AcDbEntity
  8
0
100
AcDbBlockEnd
  0
BLOCK
  5
317F
330
317E
100
AcDbEntity
  8
0
100
AcDbBlockBegin
  2
*D7
 70
     1
 10
0.0
 20
0.0
 30
0.0
  3
*D7
  1

  0
LINE
  5
11A7
330
317E
100
AcDbEntity
  8
SIZE
  6
Continuous
 62
     0
100
AcDbLine
 10
143.5
 20
-300.0
 30
0.0
 11
304.6432844803791
 21
-300.0
 31
0.0
  0
LINE
  5
11A8
330
317E
100
AcDbEntity
  8
SIZE
  6
Continuous
 62
     0
100
AcDbLine
 10
177.5
 20
-0.0000000000000057
 30
0.0
 11
304.6432844803792
 21
-0.0000000000000417
 31
0.0
  0
LINE
  5
11A9
330
317E
100
AcDbEntity
  8
SIZE
  6
Continuous
 62
     0
100
AcDbLine
 10
284.6432844803791
 20
-288.0000000000001
 30
0.0
 11
284.6432844803792
 21
-12.00000000000003
 31
0.0
  0
INSERT
  5
11AA
330
317E
100
AcDbEntity
  8
SIZE
  6
Continuous
 62
     0
100
AcDbBlockReference
  2
_DOTBLANK
 10
284.6432844803791
 20
-300.0
 30
0.0
 41
12.0
 42
12.0
 43
12.0
 50
270.0
  0
INSERT
  5
11AB
330
317E
100
AcDbEntity
  8
SIZE
  6
Continuous
 62
     0
100
AcDbBlockReference
  2
_DOTBLANK
 10
284.6432844803792
 20
-0.000000000000036
 30
0.0
 41
12.0
 42
12.0
 43
12.0
 50
90.0
  0
INSERT
  5
11AC
330
317E
100
AcDbEntity
  8
0
100
AcDbBlockReference
  2
*U8
 10
0.0
 20
0.0
 30
0.0
  0
POINT
  5
11AD
330
317E
100
AcDbEntity
  8
DEFPOINTS
  6
Continuous
 62
     0
100
AcDbPoint
 10
123.5
 20
-300.0
 30
0.0
  0
POINT
  5
11AE
330
317E
100
AcDbEntity
  8
DEFPOINTS
  6
Continuous
 62
     0
100
AcDbPoint
 10
157.5
 20
0.0
 30
0.0
  0
POINT
  5
11AF
330
317E
100
AcDbEntity
  8
DEFPOINTS
  6
Continuous
 62
     0
100
AcDbPoint
 10
284.6432844803792
 20
-0.000000000000036
 30
0.0
  0
ENDBLK
  5
E11
330
317E
100
AcDbEntity
  8
0
100
AcDbBlockEnd
  0
BLOCK
  5
3181
330
3180
100
AcDbEntity
  8
0
100
AcDbBlockBegin
  2
*U8
 70
     1
 10
0.0
 20
0.0
 30
0.0
  3
*U8
  1

  0
TEXT
  5
1EE1
330
3180
100
AcDbEntity
  8
SIZE
 62
     0
100
AcDbText
 10
274.6432844803792
 20
-224.0571428571429
 30
0.0
 40
64.0
  1
300
 50
90.0
 41
0.9
100
AcDbText
  0
ENDBLK
  5
1EE3
330
3180
100
AcDbEntity
  8
0
100
AcDbBlockEnd
  0
BLOCK
  5
3183
330
3182
100
AcDbEntity
  8
0
100
AcDbBlockBegin
  2
*D9
 70
     1
 10
0.0
 20
0.0
 30
0.0
  3
*D9
  1

  0
LINE
  5
E7D
330
3182
100
AcDbEntity
  8
SIZE
 62
     0
100
AcDbLine
 10
-139.9999999999998
 20
32.46448280219375
 30
0.0
 11
-139.9999999999998
 21
136.4516878685508
 31
0.0
  0
LINE
  5
E7E
330
3182
100
AcDbEntity
  8
SIZE
 62
     0
100
AcDbLine
 10
140.0
 20
32.46448280219375
 30
0.0
 11
140.0
 21
136.4516878685508
 31
0.0
  0
LINE
  5
E7F
330
3182
100
AcDbEntity
  8
SIZE
 62
     0
100
AcDbLine
 10
-128.0
 20
116.4516878685508
 30
0.0
 11
128.0
 21
116.4516878685508
 31
0.0
  0
INSERT
  5
E80
330
3182
100
AcDbEntity
  8
SIZE
 62
     0
100
AcDbBlockReference
  2
_DOTBLANK
 10
-139.9999999999998
 20
116.4516878685508
 30
0.0
 41
12.0
 42
12.0
 43
12.0
 50
180.0
  0
INSERT
  5
E81
330
3182
100
AcDbEntity
  8
SIZE
 62
     0
100
AcDbBlockReference
  2
_DOTBLANK
 10
140.0
 20
116.4516878685508
 30
0.0
 41
12.0
 42
12.0
 43
12.0
  0
INSERT
  5
E82
330
3182
100
AcDbEntity
  8
0
100
AcDbBlockReference
  2
*U10
 10
0.0
 20
0.0
 30
0.0
  0
POINT
  5
E83
330
3182
100
AcDbEntity
  8
DEFPOINTS
 62
     0
100
AcDbPoint
 10
-139.9999999999998
 20
12.46448280219374
 30
0.0
  0
POINT
  5
E84
330
3182
100
AcDbEntity
  8
DEFPOINTS
 62
     0
100
AcDbPoint
 10
140.0
 20
12.46448280219374
 30
0.0
  0
POINT
  5
E85
330
3182
100
AcDbEntity
  8
DEFPOINTS
 62
     0
100
AcDbPoint
 10
140.0
 20
116.4516878685508
 30
0.0
  0
ENDBLK
  5
E7C
330
3182
100
AcDbEntity
  8
0
100
AcDbBlockEnd
  0
BLOCK
  5
3185
330
3184
100
AcDbEntity
  8
0
100
AcDbBlockBegin
  2
*U10
 70
     1
 10
0.0
 20
0.0
 30
0.0
  3
*U10
  1

  0
TEXT
  5
1ED8
330
3184
100
AcDbEntity
  8
SIZE
 62
     0
100
AcDbText
 10
-74.05714285714281
 20
126.4516878685508
 30
0.0
 40
64.0
  1
280
 41
0.9
100
AcDbText
  0
ENDBLK
  5
1EDA
330
3184
100
AcDbEntity
  8
0
100
AcDbBlockEnd
  0
BLOCK
  5
3187
330
3186
100
AcDbEntity
  8
0
100
AcDbBlockBegin
  2
GENAXEH
 70
     0
 10
0.0
 20
0.0
 30
0.0
  3
GENAXEH
  1

  0
LINE
  5
FDB
330
3186
100
AcDbEntity
  8
0
100
AcDbLine
 10
-1.0
 20
0.0
 30
0.0
 11
1.0
 21
0.0
 31
0.0
  0
ENDBLK
  5
FDD
330
3186
100
AcDbEntity
  8
0
100
AcDbBlockEnd
  0
BLOCK
  5
3189
330
3188
100
AcDbEntity
  8
0
100
AcDbBlockBegin
  2
*D12
 70
     1
 10
0.0
 20
0.0
 30
0.0
  3
*D12
  1

  0
LINE
  5
1120
330
3188
100
AcDbEntity
  8
SIZE
 62
     0
100
AcDbLine
 10
-157.5
 20
20.0
 30
0.0
 11
-157.5
 21
245.5794621189598
 31
0.0
  0
LINE
  5
1121
330
3188
100
AcDbEntity
  8
SIZE
 62
     0
100
AcDbLine
 10
157.5
 20
20.0
 30
0.0
 11
157.5
 21
245.5794621189598
 31
0.0
  0
LINE
  5
1122
330
3188
100
AcDbEntity
  8
SIZE
 62
     0
100
AcDbLine
 10
-145.5
 20
225.5794621189598
 30
0.0
 11
145.5
 21
225.5794621189598
 31
0.0
  0
INSERT
  5
1123
330
3188
100
AcDbEntity
  8
SIZE
 62
     0
100
AcDbBlockReference
  2
_DOTBLANK
 10
-157.5
 20
225.5794621189598
 30
0.0
 41
12.0
 42
12.0
 43
12.0
 50
180.0
  0
INSERT
  5
1124
330
3188
100
AcDbEntity
  8
SIZE
 62
     0
100
AcDbBlockReference
  2
_DOTBLANK
 10
157.5
 20
225.5794621189598
 30
0.0
 41
12.0
 42
12.0
 43
12.0
  0
INSERT
  5
1125
330
3188
100
AcDbEntity
  8
0
100
AcDbBlockReference
  2
*U13
 10
0.0
 20
0.0
 30
0.0
  0
POINT
  5
1126
330
3188
100
AcDbEntity
  8
DEFPOINTS
 62
     0
100
AcDbPoint
 10
-157.5
 20
0.0
 30
0.0
  0
POINT
  5
1127
330
3188
100
AcDbEntity
  8
DEFPOINTS
 62
     0
100
AcDbPoint
 10
157.5
 20
0.0
 30
0.0
  0
POINT
  5
1128
330
3188
100
AcDbEntity
  8
DEFPOINTS
 62
     0
100
AcDbPoint
 10
157.5
 20
225.5794621189598
 30
0.0
  0
ENDBLK
  5
111F
330
3188
100
AcDbEntity
  8
0
100
AcDbBlockEnd
  0
BLOCK
  5
318B
330
318A
100
AcDbEntity
  8
0
100
AcDbBlockBegin
  2
*U13
 70
     1
 10
0.0
 20
0.0
 30
0.0
  3
*U13
  1

  0
TEXT
  5
1EDD
330
318A
100
AcDbEntity
  8
SIZE
 62
     0
100
AcDbText
 10
-68.57142857142857
 20
235.5794621189599
 30
0.0
 40
64.0
  1
315
 41
0.9
100
AcDbText
  0
ENDBLK
  5
1EDF
330
318A
100
AcDbEntity
  8
0
100
AcDbBlockEnd
  0
BLOCK
  5
318D
330
318C
100
AcDbEntity
  8
0
100
AcDbBlockBegin
  2
*D14
 70
     1
 10
0.0
 20
0.0
 30
0.0
  3
*D14
  1

  0
LINE
  5
11BD
330
318C
100
AcDbEntity
  8
NOTE
 62
     0
100
AcDbLine
 10
-123.4999999999999
 20
-320.0
 30
0.0
 11
-123.4999999999999
 21
-354.9529861856111
 31
0.0
  0
LINE
  5
11BE
330
318C
100
AcDbEntity
  8
NOTE
 62
     0
100
AcDbLine
 10
-133.4999999999998
 20
-331.2126909923287
 30
0.0
 11
-133.4999999999998
 21
-354.9529861856111
 31
0.0
  0
LINE
  5
11BF
330
318C
100
AcDbEntity
  8
NOTE
 62
     0
100
AcDbLine
 10
-111.4999999999999
 20
-334.9529861856112
 30
0.0
 11
-99.4999999999999
 21
-334.9529861856112
 31
0.0
  0
LINE
  5
11C0
330
318C
100
AcDbEntity
  8
NOTE
 62
     0
100
AcDbLine
 10
-145.4999999999998
 20
-334.9529861856112
 30
0.0
 11
-157.4999999999998
 21
-334.9529861856112
 31
0.0
  0
LINE
  5
11C1
330
318C
100
AcDbEntity
  8
NOTE
 62
     0
100
AcDbLine
 10
-123.4999999999999
 20
-334.9529861856112
 30
0.0
 11
-133.4999999999998
 21
-334.9529861856112
 31
0.0
  0
INSERT
  5
11C2
330
318C
100
AcDbEntity
  8
NOTE
 62
     0
100
AcDbBlockReference
  2
_DOTBLANK
 10
-123.4999999999999
 20
-334.9529861856112
 30
0.0
 41
12.0
 42
12.0
 43
12.0
 50
180.0
  0
INSERT
  5
11C3
330
318C
100
AcDbEntity
  8
NOTE
 62
     0
100
AcDbBlockReference
  2
_DOTBLANK
 10
-133.4999999999998
 20
-334.9529861856112
 30
0.0
 41
12.0
 42
12.0
 43
12.0
  0
INSERT
  5
11C4
330
318C
100
AcDbEntity
  8
0
100
AcDbBlockReference
  2
*U15
 10
0.0
 20
0.0
 30
0.0
  0
POINT
  5
11C5
330
318C
100
AcDbEntity
  8
DEFPOINTS
 62
     0
100
AcDbPoint
 10
-123.4999999999999
 20
-300.0
 30
0.0
  0
POINT
  5
11C6
330
318C
100
AcDbEntity
  8
DEFPOINTS
 62
     0
100
AcDbPoint
 10
-133.4999999999998
 20
-311.2126909923287
 30
0.0
  0
POINT
  5
11C7
330
318C
100
AcDbEntity
  8
DEFPOINTS
 62
     0
100
AcDbPoint
 10
-133.4999999999998
 20
-334.9529861856112
 30
0.0
  0
ENDBLK
  5
11BC
330
318C
100
AcDbEntity
  8
0
100
AcDbBlockEnd
  0
BLOCK
  5
318F
330
318E
100
AcDbEntity
  8
0
100
AcDbBlockBegin
  2
*U15
 70
     1
 10
0.0
 20
0.0
 30
0.0
  3
*U15
  1

  0
TEXT
  5
1EE5
330
318E
100
AcDbEntity
  8
NOTE
 62
     0
100
AcDbText
 10
-169.642857142857
 20
-324.9529861856112
 30
0.0
 40
64.0
  1
10
 41
0.9
100
AcDbText
  0
ENDBLK
  5
1EE7
330
318E
100
AcDbEntity
  8
0
100
AcDbBlockEnd
  0
BLOCK
  5
3191
330
3190
100
AcDbEntity
  8
0
100
AcDbBlockBegin
  2
*D16
 70
     1
 10
0.0
 20
0.0
 30
0.0
  3
*D16
  1

  0
LINE
  5
11E7
330
3190
100
AcDbEntity
  8
NOTE
 62
     0
100
AcDbLine
 10
-135.5
 20
-333.2126909923287
 30
0.0
 11
-135.5
 21
-386.2569421441843
 31
0.0
  0
LINE
  5
11E8
330
3190
100
AcDbEntity
  8
NOTE
 62
     0
100
AcDbLine
 10
-123.4999999999999
 20
-320.0
 30
0.0
 11
-123.4999999999999
 21
-386.2569421441843
 31
0.0
  0
LINE
  5
11E9
330
3190
100
AcDbEntity
  8
NOTE
 62
     0
100
AcDbLine
 10
-147.5
 20
-366.2569421441844
 30
0.0
 11
-159.5
 21
-366.2569421441844
 31
0.0
  0
LINE
  5
11EA
330
3190
100
AcDbEntity
  8
NOTE
 62
     0
100
AcDbLine
 10
-111.4999999999999
 20
-366.2569421441844
 30
0.0
 11
-99.4999999999999
 21
-366.2569421441844
 31
0.0
  0
LINE
  5
11EB
330
3190
100
AcDbEntity
  8
NOTE
 62
     0
100
AcDbLine
 10
-135.5
 20
-366.2569421441844
 30
0.0
 11
-123.4999999999999
 21
-366.2569421441844
 31
0.0
  0
INSERT
  5
11EC
330
3190
100
AcDbEntity
  8
NOTE
 62
     0
100
AcDbBlockReference
  2
_DOTBLANK
 10
-135.5
 20
-366.2569421441844
 30
0.0
 41
12.0
 42
12.0
 43
12.0
  0
INSERT
  5
11ED
330
3190
100
AcDbEntity
  8
NOTE
 62
     0
100
AcDbBlockReference
  2
_DOTBLANK
 10
-123.4999999999999
 20
-366.2569421441844
 30
0.0
 41
12.0
 42
12.0
 43
12.0
 50
180.0
  0
INSERT
  5
11EE
330
3190
100
AcDbEntity
  8
0
100
AcDbBlockReference
  2
*U17
 10
0.0
 20
0.0
 30
0.0
  0
POINT
  5
11EF
330
3190
100
AcDbEntity
  8
DEFPOINTS
 62
     0
100
AcDbPoint
 10
-135.5
 20
-313.2126909923287
 30
0.0
  0
POINT
  5
11F0
330
3190
100
AcDbEntity
  8
DEFPOINTS
 62
     0
100
AcDbPoint
 10
-123.4999999999999
 20
-300.0
 30
0.0
  0
POINT
  5
11F1
330
3190
100
AcDbEntity
  8
DEFPOINTS
 62
     0
100
AcDbPoint
 10
-123.4999999999999
 20
-366.2569421441844
 30
0.0
  0
ENDBLK
  5
11E6
330
3190
100
AcDbEntity
  8
0
100
AcDbBlockEnd
  0
BLOCK
  5
3193
330
3192
100
AcDbEntity
  8
0
100
AcDbBlockBegin
  2
*U17
 70
     1
 10
0.0
 20
0.0
 30
0.0
  3
*U17
  1

  0
TEXT
  5
1EE9
330
3192
100
AcDbEntity
  8
NOTE
 62
     0
100
AcDbText
 10
-170.642857142857
 20
-356.2569421441843
 30
0.0
 40
64.0
  1
12
 41
0.9
100
AcDbText
  0
ENDBLK
  5
1EEB
330
3192
100
AcDbEntity
  8
0
100
AcDbBlockEnd
  0
BLOCK
  5
3195
330
3194
100
AcDbEntity
  8
0
100
AcDbBlockBegin
  2
*D18
 70
     1
 10
0.0
 20
0.0
 30
0.0
  3
*D18
  1

  0
LINE
  5
11F6
330
3194
100
AcDbEntity
  8
NOTE
 62
     0
100
AcDbLine
 10
-123.4999999999999
 20
-320.0
 30
0.0
 11
-123.4999999999999
 21
-583.8286022818904
 31
0.0
  0
LINE
  5
11F7
330
3194
100
AcDbEntity
  8
NOTE
 62
     0
100
AcDbLine
 10
123.5
 20
-320.0
 30
0.0
 11
123.5
 21
-583.8286022818904
 31
0.0
  0
LINE
  5
11F8
330
3194
100
AcDbEntity
  8
NOTE
 62
     0
100
AcDbLine
 10
-111.4999999999999
 20
-563.8286022818904
 30
0.0
 11
111.5
 21
-563.8286022818904
 31
0.0
  0
INSERT
  5
11F9
330
3194
100
AcDbEntity
  8
NOTE
 62
     0
100
AcDbBlockReference
  2
_DOTBLANK
 10
-123.4999999999999
 20
-563.8286022818904
 30
0.0
 41
12.0
 42
12.0
 43
12.0
 50
180.0
  0
INSERT
  5
11FA
330
3194
100
AcDbEntity
  8
NOTE
 62
     0
100
AcDbBlockReference
  2
_DOTBLANK
 10
123.5
 20
-563.8286022818904
 30
0.0
 41
12.0
 42
12.0
 43
12.0
  0
INSERT
  5
11FB
330
3194
100
AcDbEntity
  8
0
100
AcDbBlockReference
  2
*U19
 10
0.0
 20
0.0
 30
0.0
  0
POINT
  5
11FC
330
3194
100
AcDbEntity
  8
DEFPOINTS
 62
     0
100
AcDbPoint
 10
-123.4999999999999
 20
-300.0
 30
0.0
  0
POINT
  5
11FD
330
3194
100
AcDbEntity
  8
DEFPOINTS
 62
     0
100
AcDbPoint
 10
123.5
 20
-300.0
 30
0.0
  0
POINT
  5
11FE
330
3194
100
AcDbEntity
  8
DEFPOINTS
 62
     0
100
AcDbPoint
 10
123.5
 20
-563.8286022818904
 30
0.0
  0
ENDBLK
  5
11F5
330
3194
100
AcDbEntity
  8
0
100
AcDbBlockEnd
  0
BLOCK
  5
3197
330
3196
100
AcDbEntity
  8
0
100
AcDbBlockBegin
  2
*U19
 70
     1
 10
0.0
 20
0.0
 30
0.0
  3
*U19
  1

  0
TEXT
  5
1EED
330
3196
100
AcDbEntity
  8
NOTE
 62
     0
100
AcDbText
 10
-74.05714285714281
 20
-553.8286022818904
 30
0.0
 40
64.0
  1
247
 41
0.9
100
AcDbText
  0
ENDBLK
  5
1EEF
330
3196
100
AcDbEntity
  8
0
100
AcDbBlockEnd
  0
BLOCK
  5
3199
330
3198
100
AcDbEntity
  8
0
100
AcDbBlockBegin
  2
*D20
 70
     1
 10
0.0
 20
0.0
 30
0.0
  3
*D20
  1

  0
LINE
  5
1284
330
3198
100
AcDbEntity
  8
NOTE
 62
     0
100
AcDbLine
 10
-123.5
 20
12.0
 30
0.0
 11
-123.5
 21
71.83630134534229
 31
0.0
  0
LINE
  5
1285
330
3198
100
AcDbEntity
  8
NOTE
 62
     0
100
AcDbLine
 10
123.5
 20
12.0
 30
0.0
 11
123.5
 21
71.83630134534229
 31
0.0
  0
LINE
  5
1286
330
3198
100
AcDbEntity
  8
NOTE
 62
     0
100
AcDbLine
 10
-111.5
 20
51.83630134534229
 30
0.0
 11
111.5
 21
51.83630134534229
 31
0.0
  0
INSERT
  5
1287
330
3198
100
AcDbEntity
  8
NOTE
 62
     0
100
AcDbBlockReference
  2
_DOTBLANK
 10
-123.5
 20
51.83630134534229
 30
0.0
 41
12.0
 42
12.0
 43
12.0
 50
180.0
  0
INSERT
  5
1288
330
3198
100
AcDbEntity
  8
NOTE
 62
     0
100
AcDbBlockReference
  2
_DOTBLANK
 10
123.5
 20
51.83630134534229
 30
0.0
 41
12.0
 42
12.0
 43
12.0
  0
INSERT
  5
1289
330
3198
100
AcDbEntity
  8
0
100
AcDbBlockReference
  2
*U21
 10
0.0
 20
0.0
 30
0.0
  0
POINT
  5
128A
330
3198
100
AcDbEntity
  8
DEFPOINTS
 62
     0
100
AcDbPoint
 10
-123.5
 20
-8.0
 30
0.0
  0
POINT
  5
128B
330
3198
100
AcDbEntity
  8
DEFPOINTS
 62
     0
100
AcDbPoint
 10
123.5
 20
-8.0
 30
0.0
  0
POINT
  5
128C
330
3198
100
AcDbEntity
  8
DEFPOINTS
 62
     0
100
AcDbPoint
 10
123.5
 20
51.83630134534229
 30
0.0
  0
ENDBLK
  5
1283
330
3198
100
AcDbEntity
  8
0
100
AcDbBlockEnd
  0
BLOCK
  5
319B
330
319A
100
AcDbEntity
  8
0
100
AcDbBlockBegin
  2
*U21
 70
     1
 10
0.0
 20
0.0
 30
0.0
  3
*U21
  1

  0
TEXT
  5
1EF1
330
319A
100
AcDbEntity
  8
NOTE
 62
     0
100
AcDbText
 10
-74.05714285714283
 20
61.83630134534229
 30
0.0
 40
64.0
  1
247
 41
0.9
100
AcDbText
  0
ENDBLK
  5
1EF3
330
319A
100
AcDbEntity
  8
0
100
AcDbBlockEnd
  0
BLOCK
  5
319D
330
319C
100
AcDbEntity
  8
0
100
AcDbBlockBegin
  2
*D22
 70
     1
 10
0.0
 20
0.0
 30
0.0
  3
*D22
  1

  0
LINE
  5
1414
330
319C
100
AcDbEntity
  8
SIZE
 62
     0
100
AcDbLine
 10
-22313.11521613997
 20
7365.702971374808
 30
0.0
 11
-22313.11521613997
 21
7217.685576144207
 31
0.0
  0
LINE
  5
1415
330
319C
100
AcDbEntity
  8
SIZE
 62
     0
100
AcDbLine
 10
-22044.11521613997
 20
7365.702971374808
 30
0.0
 11
-22044.11521613997
 21
7217.685576144207
 31
0.0
  0
LINE
  5
1416
330
319C
100
AcDbEntity
  8
SIZE
 62
     0
100
AcDbLine
 10
-22301.11521613997
 20
7237.685576144207
 30
0.0
 11
-22056.11521613997
 21
7237.685576144207
 31
0.0
  0
INSERT
  5
1417
330
319C
100
AcDbEntity
  8
SIZE
 62
     0
100
AcDbBlockReference
  2
_DOTBLANK
 10
-22313.11521613997
 20
7237.685576144207
 30
0.0
 41
12.0
 42
12.0
 43
12.0
 50
180.0
  0
INSERT
  5
1418
330
319C
100
AcDbEntity
  8
SIZE
 62
     0
100
AcDbBlockReference
  2
_DOTBLANK
 10
-22044.11521613997
 20
7237.685576144207
 30
0.0
 41
12.0
 42
12.0
 43
12.0
  0
INSERT
  5
1419
330
319C
100
AcDbEntity
  8
0
100
AcDbBlockReference
  2
*U23
 10
0.0
 20
0.0
 30
0.0
  0
POINT
  5
141A
330
319C
100
AcDbEntity
  8
DEFPOINTS
 62
     0
100
AcDbPoint
 10
-22313.11521613997
 20
7385.702971374808
 30
0.0
  0
POINT
  5
141B
330
319C
100
AcDbEntity
  8
DEFPOINTS
 62
     0
100
AcDbPoint
 10
-22044.11521613997
 20
7385.702971374808
 30
0.0
  0
POINT
  5
141C
330
319C
100
AcDbEntity
  8
DEFPOINTS
 62
     0
100
AcDbPoint
 10
-22044.11521613997
 20
7237.685576144207
 30
0.0
  0
ENDBLK
  5
141D
330
319C
100
AcDbEntity
  8
0
100
AcDbBlockEnd
  0
BLOCK
  5
319F
330
319E
100
AcDbEntity
  8
0
100
AcDbBlockBegin
  2
*U23
 70
     1
 10
0.0
 20
0.0
 30
0.0
  3
*U23
  1

  0
TEXT
  5
1EF9
330
319E
100
AcDbEntity
  8
SIZE
 62
     0
100
AcDbText
 10
-22251.30093042568
 20
7247.685576144205
 30
0.0
 40
64.0
  1
269
 41
0.9
100
AcDbText
  0
ENDBLK
  5
1EFB
330
319E
100
AcDbEntity
  8
0
100
AcDbBlockEnd
  0
BLOCK
  5
31A1
330
31A0
100
AcDbEntity
  8
0
100
AcDbBlockBegin
  2
*D24
 70
     1
 10
0.0
 20
0.0
 30
0.0
  3
*D24
  1

  0
LINE
  5
1420
330
31A0
100
AcDbEntity
  8
SIZE
  6
Continuous
 62
     0
100
AcDbLine
 10
-22035.11521613997
 20
7385.702971374808
 30
0.0
 11
-21873.97193165959
 21
7385.702971374808
 31
0.0
  0
LINE
  5
1421
330
31A0
100
AcDbEntity
  8
SIZE
  6
Continuous
 62
     0
100
AcDbLine
 10
-22001.11521613997
 20
7685.702971374808
 30
0.0
 11
-21873.97193165959
 21
7685.702971374808
 31
0.0
  0
LINE
  5
1422
330
31A0
100
AcDbEntity
  8
SIZE
  6
Continuous
 62
     0
100
AcDbLine
 10
-21893.97193165959
 20
7397.702971374808
 30
0.0
 11
-21893.97193165959
 21
7673.702971374808
 31
0.0
  0
INSERT
  5
1423
330
31A0
100
AcDbEntity
  8
SIZE
  6
Continuous
 62
     0
100
AcDbBlockReference
  2
_DOTBLANK
 10
-21893.97193165959
 20
7385.702971374808
 30
0.0
 41
12.0
 42
12.0
 43
12.0
 50
270.0
  0
INSERT
  5
1424
330
31A0
100
AcDbEntity
  8
SIZE
  6
Continuous
 62
     0
100
AcDbBlockReference
  2
_DOTBLANK
 10
-21893.97193165959
 20
7685.702971374808
 30
0.0
 41
12.0
 42
12.0
 43
12.0
 50
90.0
  0
INSERT
  5
1425
330
31A0
100
AcDbEntity
  8
0
100
AcDbBlockReference
  2
*U25
 10
0.0
 20
0.0
 30
0.0
  0
POINT
  5
1426
330
31A0
100
AcDbEntity
  8
DEFPOINTS
  6
Continuous
 62
     0
100
AcDbPoint
 10
-22055.11521613997
 20
7385.702971374808
 30
0.0
  0
POINT
  5
1427
330
31A0
100
AcDbEntity
  8
DEFPOINTS
  6
Continuous
 62
     0
100
AcDbPoint
 10
-22021.11521613997
 20
7685.702971374808
 30
0.0
  0
POINT
  5
1428
330
31A0
100
AcDbEntity
  8
DEFPOINTS
  6
Continuous
 62
     0
100
AcDbPoint
 10
-21893.97193165959
 20
7685.702971374808
 30
0.0
  0
ENDBLK
  5
1429
330
31A0
100
AcDbEntity
  8
0
100
AcDbBlockEnd
  0
BLOCK
  5
31A3
330
31A2
100
AcDbEntity
  8
0
100
AcDbBlockBegin
  2
*U25
 70
     1
 10
0.0
 20
0.0
 30
0.0
  3
*U25
  1

  0
TEXT
  5
1EFD
330
31A2
100
AcDbEntity
  8
SIZE
 62
     0
100
AcDbText
 10
-21903.97193165959
 20
7461.645828517662
 30
0.0
 40
64.0
  1
300
 50
90.0
 41
0.9
100
AcDbText
  0
ENDBLK
  5
1EFF
330
31A2
100
AcDbEntity
  8
0
100
AcDbBlockEnd
  0
BLOCK
  5
31A5
330
31A4
100
AcDbEntity
  8
0
100
AcDbBlockBegin
  2
*D26
 70
     1
 10
0.0
 20
0.0
 30
0.0
  3
*D26
  1

  0
LINE
  5
142C
330
31A4
100
AcDbEntity
  8
SIZE
 62
     0
100
AcDbLine
 10
-22318.61521613997
 20
7718.167454177002
 30
0.0
 11
-22318.61521613997
 21
7822.154659243358
 31
0.0
  0
LINE
  5
142D
330
31A4
100
AcDbEntity
  8
SIZE
 62
     0
100
AcDbLine
 10
-22038.61521613997
 20
7718.167454177002
 30
0.0
 11
-22038.61521613997
 21
7822.154659243358
 31
0.0
  0
LINE
  5
142E
330
31A4
100
AcDbEntity
  8
SIZE
 62
     0
100
AcDbLine
 10
-22306.61521613997
 20
7802.154659243358
 30
0.0
 11
-22050.61521613997
 21
7802.154659243358
 31
0.0
  0
INSERT
  5
142F
330
31A4
100
AcDbEntity
  8
SIZE
 62
     0
100
AcDbBlockReference
  2
_DOTBLANK
 10
-22318.61521613997
 20
7802.154659243358
 30
0.0
 41
12.0
 42
12.0
 43
12.0
 50
180.0
  0
INSERT
  5
1430
330
31A4
100
AcDbEntity
  8
SIZE
 62
     0
100
AcDbBlockReference
  2
_DOTBLANK
 10
-22038.61521613997
 20
7802.154659243358
 30
0.0
 41
12.0
 42
12.0
 43
12.0
  0
INSERT
  5
1431
330
31A4
100
AcDbEntity
  8
0
100
AcDbBlockReference
  2
*U27
 10
0.0
 20
0.0
 30
0.0
  0
POINT
  5
1432
330
31A4
100
AcDbEntity
  8
DEFPOINTS
 62
     0
100
AcDbPoint
 10
-22318.61521613997
 20
7698.167454177002
 30
0.0
  0
POINT
  5
1433
330
31A4
100
AcDbEntity
  8
DEFPOINTS
 62
     0
100
AcDbPoint
 10
-22038.61521613997
 20
7698.167454177002
 30
0.0
  0
POINT
  5
1434
330
31A4
100
AcDbEntity
  8
DEFPOINTS
 62
     0
100
AcDbPoint
 10
-22038.61521613997
 20
7802.154659243358
 30
0.0
  0
ENDBLK
  5
1435
330
31A4
100
AcDbEntity
  8
0
100
AcDbBlockEnd
  0
BLOCK
  5
31A7
330
31A6
100
AcDbEntity
  8
0
100
AcDbBlockBegin
  2
*U27
 70
     1
 10
0.0
 20
0.0
 30
0.0
  3
*U27
  1

  0
TEXT
  5
1F01
330
31A6
100
AcDbEntity
  8
SIZE
 62
     0
100
AcDbText
 10
-22252.6723589971
 20
7812.154659243358
 30
0.0
 40
64.0
  1
280
 41
0.9
100
AcDbText
  0
ENDBLK
  5
1F03
330
31A6
100
AcDbEntity
  8
0
100
AcDbBlockEnd
  0
BLOCK
  5
31A9
330
31A8
100
AcDbEntity
  8
0
100
AcDbBlockBegin
  2
*D28
 70
     1
 10
0.0
 20
0.0
 30
0.0
  3
*D28
  1

  0
LINE
  5
1438
330
31A8
100
AcDbEntity
  8
SIZE
 62
     0
100
AcDbLine
 10
-22336.11521613997
 20
7705.702971374808
 30
0.0
 11
-22336.11521613997
 21
7931.282433493766
 31
0.0
  0
LINE
  5
1439
330
31A8
100
AcDbEntity
  8
SIZE
 62
     0
100
AcDbLine
 10
-22021.11521613997
 20
7705.702971374808
 30
0.0
 11
-22021.11521613997
 21
7931.282433493766
 31
0.0
  0
LINE
  5
143A
330
31A8
100
AcDbEntity
  8
SIZE
 62
     0
100
AcDbLine
 10
-22324.11521613997
 20
7911.282433493766
 30
0.0
 11
-22033.11521613997
 21
7911.282433493766
 31
0.0
  0
INSERT
  5
143B
330
31A8
100
AcDbEntity
  8
SIZE
 62
     0
100
AcDbBlockReference
  2
_DOTBLANK
 10
-22336.11521613997
 20
7911.282433493766
 30
0.0
 41
12.0
 42
12.0
 43
12.0
 50
180.0
  0
INSERT
  5
143C
330
31A8
100
AcDbEntity
  8
SIZE
 62
     0
100
AcDbBlockReference
  2
_DOTBLANK
 10
-22021.11521613997
 20
7911.282433493766
 30
0.0
 41
12.0
 42
12.0
 43
12.0
  0
INSERT
  5
143D
330
31A8
100
AcDbEntity
  8
0
100
AcDbBlockReference
  2
*U29
 10
0.0
 20
0.0
 30
0.0
  0
POINT
  5
143E
330
31A8
100
AcDbEntity
  8
DEFPOINTS
 62
     0
100
AcDbPoint
 10
-22336.11521613997
 20
7685.702971374808
 30
0.0
  0
POINT
  5
143F
330
31A8
100
AcDbEntity
  8
DEFPOINTS
 62
     0
100
AcDbPoint
 10
-22021.11521613997
 20
7685.702971374808
 30
0.0
  0
POINT
  5
1440
330
31A8
100
AcDbEntity
  8
DEFPOINTS
 62
     0
100
AcDbPoint
 10
-22021.11521613997
 20
7911.282433493766
 30
0.0
  0
ENDBLK
  5
1441
330
31A8
100
AcDbEntity
  8
0
100
AcDbBlockEnd
  0
BLOCK
  5
31AB
330
31AA
100
AcDbEntity
  8
0
100
AcDbBlockBegin
  2
*U29
 70
     1
 10
0.0
 20
0.0
 30
0.0
  3
*U29
  1

  0
TEXT
  5
1F05
330
31AA
100
AcDbEntity
  8
SIZE
 62
     0
100
AcDbText
 10
-22247.18664471139
 20
7921.282433493766
 30
0.0
 40
64.0
  1
315
 41
0.9
100
AcDbText
  0
ENDBLK
  5
1F07
330
31AA
100
AcDbEntity
  8
0
100
AcDbBlockEnd
  0
BLOCK
  5
31AD
330
31AC
100
AcDbEntity
  8
0
100
AcDbBlockBegin
  2
*D30
 70
     1
 10
0.0
 20
0.0
 30
0.0
  3
*D30
  1

  0
LINE
  5
166B
330
31AC
100
AcDbEntity
  8
SIZE
 62
     0
100
AcDbLine
 10
-134.5
 20
-320.0
 30
0.0
 11
-134.5
 21
-468.0173952306001
 31
0.0
  0
LINE
  5
166C
330
31AC
100
AcDbEntity
  8
SIZE
 62
     0
100
AcDbLine
 10
134.5
 20
-320.0
 30
0.0
 11
134.5
 21
-468.0173952306001
 31
0.0
  0
LINE
  5
166D
330
31AC
100
AcDbEntity
  8
SIZE
 62
     0
100
AcDbLine
 10
-122.5
 20
-448.0173952306
 30
0.0
 11
122.5
 21
-448.0173952306
 31
0.0
  0
INSERT
  5
166E
330
31AC
100
AcDbEntity
  8
SIZE
 62
     0
100
AcDbBlockReference
  2
_DOTBLANK
 10
-134.5
 20
-448.0173952306
 30
0.0
 41
12.0
 42
12.0
 43
12.0
 50
180.0
  0
INSERT
  5
166F
330
31AC
100
AcDbEntity
  8
SIZE
 62
     0
100
AcDbBlockReference
  2
_DOTBLANK
 10
134.5
 20
-448.0173952306
 30
0.0
 41
12.0
 42
12.0
 43
12.0
  0
INSERT
  5
1670
330
31AC
100
AcDbEntity
  8
0
100
AcDbBlockReference
  2
*U31
 10
0.0
 20
0.0
 30
0.0
  0
POINT
  5
1671
330
31AC
100
AcDbEntity
  8
DEFPOINTS
 62
     0
100
AcDbPoint
 10
-134.5
 20
-300.0
 30
0.0
  0
POINT
  5
1672
330
31AC
100
AcDbEntity
  8
DEFPOINTS
 62
     0
100
AcDbPoint
 10
134.5
 20
-300.0
 30
0.0
  0
POINT
  5
1673
330
31AC
100
AcDbEntity
  8
DEFPOINTS
 62
     0
100
AcDbPoint
 10
134.5
 20
-448.0173952306
 30
0.0
  0
ENDBLK
  5
14A7
330
31AC
100
AcDbEntity
  8
0
100
AcDbBlockEnd
  0
BLOCK
  5
31AF
330
31AE
100
AcDbEntity
  8
0
100
AcDbBlockBegin
  2
*U31
 70
     1
 10
0.0
 20
0.0
 30
0.0
  3
*U31
  1

  0
TEXT
  5
1F09
330
31AE
100
AcDbEntity
  8
SIZE
 62
     0
100
AcDbText
 10
-72.68571428571426
 20
-438.0173952306002
 30
0.0
 40
64.0
  1
269
 41
0.9
100
AcDbText
  0
ENDBLK
  5
1F0B
330
31AE
100
AcDbEntity
  8
0
100
AcDbBlockEnd
  0
BLOCK
  5
31B1
330
31B0
100
AcDbEntity
  8
0
100
AcDbBlockBegin
  2
*D32
 70
     1
 10
0.0
 20
0.0
 30
0.0
  3
*D32
  1

  0
LINE
  5
1674
330
31B0
100
AcDbEntity
  8
SIZE
  6
Continuous
 62
     0
100
AcDbLine
 10
143.5
 20
-300.0
 30
0.0
 11
304.6432844803784
 21
-300.0
 31
0.0
  0
LINE
  5
1675
330
31B0
100
AcDbEntity
  8
SIZE
  6
Continuous
 62
     0
100
AcDbLine
 10
177.5
 20
-0.0000000000000057
 30
0.0
 11
304.6432844803785
 21
-0.0000000000000417
 31
0.0
  0
LINE
  5
1676
330
31B0
100
AcDbEntity
  8
SIZE
  6
Continuous
 62
     0
100
AcDbLine
 10
284.6432844803784
 20
-288.0000000000001
 30
0.0
 11
284.6432844803785
 21
-12.00000000000003
 31
0.0
  0
INSERT
  5
1677
330
31B0
100
AcDbEntity
  8
SIZE
  6
Continuous
 62
     0
100
AcDbBlockReference
  2
_DOTBLANK
 10
284.6432844803784
 20
-300.0
 30
0.0
 41
12.0
 42
12.0
 43
12.0
 50
270.0
  0
INSERT
  5
1678
330
31B0
100
AcDbEntity
  8
SIZE
  6
Continuous
 62
     0
100
AcDbBlockReference
  2
_DOTBLANK
 10
284.6432844803785
 20
-0.000000000000036
 30
0.0
 41
12.0
 42
12.0
 43
12.0
 50
90.0
  0
INSERT
  5
1679
330
31B0
100
AcDbEntity
  8
0
100
AcDbBlockReference
  2
*U33
 10
0.0
 20
0.0
 30
0.0
  0
POINT
  5
167A
330
31B0
100
AcDbEntity
  8
DEFPOINTS
  6
Continuous
 62
     0
100
AcDbPoint
 10
123.5
 20
-300.0
 30
0.0
  0
POINT
  5
167B
330
31B0
100
AcDbEntity
  8
DEFPOINTS
  6
Continuous
 62
     0
100
AcDbPoint
 10
157.5
 20
0.0
 30
0.0
  0
POINT
  5
167C
330
31B0
100
AcDbEntity
  8
DEFPOINTS
  6
Continuous
 62
     0
100
AcDbPoint
 10
284.6432844803785
 20
-0.000000000000036
 30
0.0
  0
ENDBLK
  5
14B3
330
31B0
100
AcDbEntity
  8
0
100
AcDbBlockEnd
  0
BLOCK
  5
31B3
330
31B2
100
AcDbEntity
  8
0
100
AcDbBlockBegin
  2
*U33
 70
     1
 10
0.0
 20
0.0
 30
0.0
  3
*U33
  1

  0
TEXT
  5
1F0D
330
31B2
100
AcDbEntity
  8
SIZE
 62
     0
100
AcDbText
 10
274.6432844803785
 20
-224.0571428571429
 30
0.0
 40
64.0
  1
300
 50
90.0
 41
0.9
100
AcDbText
  0
ENDBLK
  5
1F0F
330
31B2
100
AcDbEntity
  8
0
100
AcDbBlockEnd
  0
BLOCK
  5
31B5
330
31B4
100
AcDbEntity
  8
0
100
AcDbBlockBegin
  2
*D34
 70
     1
 10
0.0
 20
0.0
 30
0.0
  3
*D34
  1

  0
LINE
  5
167D
330
31B4
100
AcDbEntity
  8
SIZE
 62
     0
100
AcDbLine
 10
-140.0
 20
32.46448280219375
 30
0.0
 11
-140.0
 21
136.4516878685507
 31
0.0
  0
LINE
  5
167E
330
31B4
100
AcDbEntity
  8
SIZE
 62
     0
100
AcDbLine
 10
140.0
 20
32.46448280219375
 30
0.0
 11
140.0
 21
136.4516878685507
 31
0.0
  0
LINE
  5
167F
330
31B4
100
AcDbEntity
  8
SIZE
 62
     0
100
AcDbLine
 10
-128.0
 20
116.4516878685508
 30
0.0
 11
128.0
 21
116.4516878685508
 31
0.0
  0
INSERT
  5
1680
330
31B4
100
AcDbEntity
  8
SIZE
 62
     0
100
AcDbBlockReference
  2
_DOTBLANK
 10
-140.0
 20
116.4516878685508
 30
0.0
 41
12.0
 42
12.0
 43
12.0
 50
180.0
  0
INSERT
  5
1681
330
31B4
100
AcDbEntity
  8
SIZE
 62
     0
100
AcDbBlockReference
  2
_DOTBLANK
 10
140.0
 20
116.4516878685508
 30
0.0
 41
12.0
 42
12.0
 43
12.0
  0
INSERT
  5
1682
330
31B4
100
AcDbEntity
  8
0
100
AcDbBlockReference
  2
*U35
 10
0.0
 20
0.0
 30
0.0
  0
POINT
  5
1683
330
31B4
100
AcDbEntity
  8
DEFPOINTS
 62
     0
100
AcDbPoint
 10
-140.0
 20
12.46448280219374
 30
0.0
  0
POINT
  5
1684
330
31B4
100
AcDbEntity
  8
DEFPOINTS
 62
     0
100
AcDbPoint
 10
140.0
 20
12.46448280219374
 30
0.0
  0
POINT
  5
1685
330
31B4
100
AcDbEntity
  8
DEFPOINTS
 62
     0
100
AcDbPoint
 10
140.0
 20
116.4516878685508
 30
0.0
  0
ENDBLK
  5
14BF
330
31B4
100
AcDbEntity
  8
0
100
AcDbBlockEnd
  0
BLOCK
  5
31B7
330
31B6
100
AcDbEntity
  8
0
100
AcDbBlockBegin
  2
*U35
 70
     1
 10
0.0
 20
0.0
 30
0.0
  3
*U35
  1

  0
TEXT
  5
1F11
330
31B6
100
AcDbEntity
  8
SIZE
 62
     0
100
AcDbText
 10
-74.05714285714283
 20
126.4516878685507
 30
0.0
 40
64.0
  1
280
 41
0.9
100
AcDbText
  0
ENDBLK
  5
1F13
330
31B6
100
AcDbEntity
  8
0
100
AcDbBlockEnd
  0
BLOCK
  5
31B9
330
31B8
100
AcDbEntity
  8
0
100
AcDbBlockBegin
  2
*D36
 70
     1
 10
0.0
 20
0.0
 30
0.0
  3
*D36
  1

  0
LINE
  5
1686
330
31B8
100
AcDbEntity
  8
SIZE
 62
     0
100
AcDbLine
 10
-157.5
 20
20.0
 30
0.0
 11
-157.5
 21
245.5794621189598
 31
0.0
  0
LINE
  5
1687
330
31B8
100
AcDbEntity
  8
SIZE
 62
     0
100
AcDbLine
 10
157.5
 20
20.0
 30
0.0
 11
157.5
 21
245.5794621189598
 31
0.0
  0
LINE
  5
1688
330
31B8
100
AcDbEntity
  8
SIZE
 62
     0
100
AcDbLine
 10
-145.5
 20
225.5794621189598
 30
0.0
 11
145.5
 21
225.5794621189598
 31
0.0
  0
INSERT
  5
1689
330
31B8
100
AcDbEntity
  8
SIZE
 62
     0
100
AcDbBlockReference
  2
_DOTBLANK
 10
-157.5
 20
225.5794621189598
 30
0.0
 41
12.0
 42
12.0
 43
12.0
 50
180.0
  0
INSERT
  5
168A
330
31B8
100
AcDbEntity
  8
SIZE
 62
     0
100
AcDbBlockReference
  2
_DOTBLANK
 10
157.5
 20
225.5794621189598
 30
0.0
 41
12.0
 42
12.0
 43
12.0
  0
INSERT
  5
168B
330
31B8
100
AcDbEntity
  8
0
100
AcDbBlockReference
  2
*U37
 10
0.0
 20
0.0
 30
0.0
  0
POINT
  5
168C
330
31B8
100
AcDbEntity
  8
DEFPOINTS
 62
     0
100
AcDbPoint
 10
-157.5
 20
0.0
 30
0.0
  0
POINT
  5
168D
330
31B8
100
AcDbEntity
  8
DEFPOINTS
 62
     0
100
AcDbPoint
 10
157.5
 20
0.0
 30
0.0
  0
POINT
  5
168E
330
31B8
100
AcDbEntity
  8
DEFPOINTS
 62
     0
100
AcDbPoint
 10
157.5
 20
225.5794621189598
 30
0.0
  0
ENDBLK
  5
14CB
330
31B8
100
AcDbEntity
  8
0
100
AcDbBlockEnd
  0
BLOCK
  5
31BB
330
31BA
100
AcDbEntity
  8
0
100
AcDbBlockBegin
  2
*U37
 70
     1
 10
0.0
 20
0.0
 30
0.0
  3
*U37
  1

  0
TEXT
  5
1F15
330
31BA
100
AcDbEntity
  8
SIZE
 62
     0
100
AcDbText
 10
-68.57142857142857
 20
235.5794621189598
 30
0.0
 40
64.0
  1
315
 41
0.9
100
AcDbText
  0
ENDBLK
  5
1F17
330
31BA
100
AcDbEntity
  8
0
100
AcDbBlockEnd
  0
BLOCK
  5
31BD
330
31BC
100
AcDbEntity
  8
0
100
AcDbBlockBegin
  2
*U38
 70
     1
 10
0.0
 20
0.0
 30
0.0
  3
*U38
  1

  0
ENDBLK
  5
15CF
330
31BC
100
AcDbEntity
  8
0
100
AcDbBlockEnd
  0
BLOCK
  5
31BF
330
31BE
100
AcDbEntity
  8
0
100
AcDbBlockBegin
  2
*D39
 70
     1
 10
0.0
 20
0.0
 30
0.0
  3
*D39
  1

  0
LINE
  5
1692
330
31BE
100
AcDbEntity
  8
SIZE
 62
     0
100
AcDbLine
 10
-25844.51823276502
 20
7685.702971374808
 30
0.0
 11
-25981.04465488371
 21
7685.702971374808
 31
0.0
  0
LINE
  5
1693
330
31BE
100
AcDbEntity
  8
SIZE
 62
     0
100
AcDbLine
 10
-25844.51823276502
 20
7677.702971374808
 30
0.0
 11
-25981.04465488371
 21
7677.702971374808
 31
0.0
  0
LINE
  5
1694
330
31BE
100
AcDbEntity
  8
SIZE
 62
     0
100
AcDbLine
 10
-25961.04465488371
 20
7697.702971374808
 30
0.0
 11
-25961.04465488371
 21
7709.702971374809
 31
0.0
  0
LINE
  5
1695
330
31BE
100
AcDbEntity
  8
SIZE
 62
     0
100
AcDbLine
 10
-25961.04465488371
 20
7665.70297137481
 30
0.0
 11
-25961.04465488371
 21
7595.302971374808
 31
0.0
  0
INSERT
  5
1696
330
31BE
100
AcDbEntity
  8
SIZE
 62
     0
100
AcDbBlockReference
  2
_DOTBLANK
 10
-25961.04465488371
 20
7685.702971374808
 30
0.0
 41
12.0
 42
12.0
 43
12.0
 50
270.0
  0
INSERT
  5
1697
330
31BE
100
AcDbEntity
  8
SIZE
 62
     0
100
AcDbBlockReference
  2
_DOTBLANK
 10
-25961.04465488371
 20
7677.702971374808
 30
0.0
 41
12.0
 42
12.0
 43
12.0
 50
90.0
  0
INSERT
  5
1698
330
31BE
100
AcDbEntity
  8
0
100
AcDbBlockReference
  2
*U40
 10
0.0
 20
0.0
 30
0.0
  0
POINT
  5
1699
330
31BE
100
AcDbEntity
  8
DEFPOINTS
 62
     0
100
AcDbPoint
 10
-25824.51823276501
 20
7685.702971374808
 30
0.0
  0
POINT
  5
169A
330
31BE
100
AcDbEntity
  8
DEFPOINTS
 62
     0
100
AcDbPoint
 10
-25824.51823276501
 20
7677.702971374808
 30
0.0
  0
POINT
  5
169B
330
31BE
100
AcDbEntity
  8
DEFPOINTS
 62
     0
100
AcDbPoint
 10
-25961.04465488371
 20
7677.702971374808
 30
0.0
  0
ENDBLK
  5
169C
330
31BE
100
AcDbEntity
  8
0
100
AcDbBlockEnd
  0
BLOCK
  5
31C1
330
31C0
100
AcDbEntity
  8
0
100
AcDbBlockBegin
  2
*U40
 70
     1
 10
0.0
 20
0.0
 30
0.0
  3
*U40
  1

  0
TEXT
  5
1F19
330
31C0
100
AcDbEntity
  8
SIZE
 62
     0
100
AcDbText
 10
-25971.04465488371
 20
7605.302971374804
 30
0.0
 40
64.0
  1
8
 50
90.0
 41
0.9
100
AcDbText
  0
ENDBLK
  5
1F1B
330
31C0
100
AcDbEntity
  8
0
100
AcDbBlockEnd
  0
BLOCK
  5
31C3
330
31C2
100
AcDbEntity
  8
0
100
AcDbBlockBegin
  2
*D41
 70
     1
 10
0.0
 20
0.0
 30
0.0
  3
*D41
  1

  0
LINE
  5
169F
330
31C2
100
AcDbEntity
  8
SIZE
 62
     0
100
AcDbLine
 10
-25512.51823276502
 20
7385.702971374808
 30
0.0
 11
-25362.37494828464
 21
7385.702971374808
 31
0.0
  0
LINE
  5
16A0
330
31C2
100
AcDbEntity
  8
SIZE
 62
     0
100
AcDbLine
 10
-25523.51823276501
 20
7373.702971374808
 30
0.0
 11
-25362.37494828464
 21
7373.702971374808
 31
0.0
  0
LINE
  5
16A1
330
31C2
100
AcDbEntity
  8
SIZE
 62
     0
100
AcDbLine
 10
-25382.37494828464
 20
7397.702971374808
 30
0.0
 11
-25382.37494828464
 21
7409.70297137481
 31
0.0
  0
LINE
  5
16A2
330
31C2
100
AcDbEntity
  8
SIZE
 62
     0
100
AcDbLine
 10
-25382.37494828464
 20
7361.702971374808
 30
0.0
 11
-25382.37494828464
 21
7244.674399946237
 31
0.0
  0
INSERT
  5
16A3
330
31C2
100
AcDbEntity
  8
SIZE
 62
     0
100
AcDbBlockReference
  2
_DOTBLANK
 10
-25382.37494828464
 20
7385.702971374808
 30
0.0
 41
12.0
 42
12.0
 43
12.0
 50
270.0
  0
INSERT
  5
16A4
330
31C2
100
AcDbEntity
  8
SIZE
 62
     0
100
AcDbBlockReference
  2
_DOTBLANK
 10
-25382.37494828464
 20
7373.702971374808
 30
0.0
 41
12.0
 42
12.0
 43
12.0
 50
90.0
  0
INSERT
  5
16A5
330
31C2
100
AcDbEntity
  8
0
100
AcDbBlockReference
  2
*U42
 10
0.0
 20
0.0
 30
0.0
  0
POINT
  5
16A6
330
31C2
100
AcDbEntity
  8
DEFPOINTS
 62
     0
100
AcDbPoint
 10
-25532.51823276502
 20
7385.702971374808
 30
0.0
  0
POINT
  5
16A7
330
31C2
100
AcDbEntity
  8
DEFPOINTS
 62
     0
100
AcDbPoint
 10
-25543.51823276502
 20
7373.702971374808
 30
0.0
  0
POINT
  5
16A8
330
31C2
100
AcDbEntity
  8
DEFPOINTS
 62
     0
100
AcDbPoint
 10
-25382.37494828464
 20
7373.702971374808
 30
0.0
  0
ENDBLK
  5
16A9
330
31C2
100
AcDbEntity
  8
0
100
AcDbBlockEnd
  0
BLOCK
  5
31C5
330
31C4
100
AcDbEntity
  8
0
100
AcDbBlockBegin
  2
*U42
 70
     1
 10
0.0
 20
0.0
 30
0.0
  3
*U42
  1

  0
TEXT
  5
1F1D
330
31C4
100
AcDbEntity
  8
SIZE
 62
     0
100
AcDbText
 10
-25392.37494828464
 20
7256.045828517662
 30
0.0
 40
64.0
  1
12
 50
90.0
 41
0.9
100
AcDbText
  0
ENDBLK
  5
1F1F
330
31C4
100
AcDbEntity
  8
0
100
AcDbBlockEnd
  0
BLOCK
  5
31C7
330
31C6
100
AcDbEntity
  8
0
100
AcDbBlockBegin
  2
*D43
 70
     1
 10
0.0
 20
0.0
 30
0.0
  3
*D43
  1

  0
LINE
  5
16AC
330
31C6
100
AcDbEntity
  8
SIZE
 62
     0
100
AcDbLine
 10
-25801.51823276501
 20
7365.702971374808
 30
0.0
 11
-25801.51823276501
 21
7217.685576144207
 31
0.0
  0
LINE
  5
16AD
330
31C6
100
AcDbEntity
  8
SIZE
 62
     0
100
AcDbLine
 10
-25532.51823276502
 20
7365.702971374808
 30
0.0
 11
-25532.51823276502
 21
7217.685576144207
 31
0.0
  0
LINE
  5
16AE
330
31C6
100
AcDbEntity
  8
SIZE
 62
     0
100
AcDbLine
 10
-25789.51823276502
 20
7237.685576144207
 30
0.0
 11
-25544.51823276501
 21
7237.685576144207
 31
0.0
  0
INSERT
  5
16AF
330
31C6
100
AcDbEntity
  8
SIZE
 62
     0
100
AcDbBlockReference
  2
_DOTBLANK
 10
-25801.51823276501
 20
7237.685576144207
 30
0.0
 41
12.0
 42
12.0
 43
12.0
 50
180.0
  0
INSERT
  5
16B0
330
31C6
100
AcDbEntity
  8
SIZE
 62
     0
100
AcDbBlockReference
  2
_DOTBLANK
 10
-25532.51823276502
 20
7237.685576144207
 30
0.0
 41
12.0
 42
12.0
 43
12.0
  0
INSERT
  5
16B1
330
31C6
100
AcDbEntity
  8
0
100
AcDbBlockReference
  2
*U44
 10
0.0
 20
0.0
 30
0.0
  0
POINT
  5
16B2
330
31C6
100
AcDbEntity
  8
DEFPOINTS
 62
     0
100
AcDbPoint
 10
-25801.51823276501
 20
7385.702971374808
 30
0.0
  0
POINT
  5
16B3
330
31C6
100
AcDbEntity
  8
DEFPOINTS
 62
     0
100
AcDbPoint
 10
-25532.51823276502
 20
7385.702971374808
 30
0.0
  0
POINT
  5
16B4
330
31C6
100
AcDbEntity
  8
DEFPOINTS
 62
     0
100
AcDbPoint
 10
-25532.51823276502
 20
7237.685576144207
 30
0.0
  0
ENDBLK
  5
16B5
330
31C6
100
AcDbEntity
  8
0
100
AcDbBlockEnd
  0
BLOCK
  5
31C9
330
31C8
100
AcDbEntity
  8
0
100
AcDbBlockBegin
  2
*U44
 70
     1
 10
0.0
 20
0.0
 30
0.0
  3
*U44
  1

  0
TEXT
  5
1F21
330
31C8
100
AcDbEntity
  8
SIZE
 62
     0
100
AcDbText
 10
-25739.70394705074
 20
7247.685576144205
 30
0.0
 40
64.0
  1
269
 41
0.9
100
AcDbText
  0
ENDBLK
  5
1F23
330
31C8
100
AcDbEntity
  8
0
100
AcDbBlockEnd
  0
BLOCK
  5
31CB
330
31CA
100
AcDbEntity
  8
0
100
AcDbBlockBegin
  2
*D45
 70
     1
 10
0.0
 20
0.0
 30
0.0
  3
*D45
  1

  0
LINE
  5
16B8
330
31CA
100
AcDbEntity
  8
SIZE
 62
     0
100
AcDbLine
 10
-25512.51823276502
 20
7385.702971374808
 30
0.0
 11
-25362.37494828464
 21
7385.702971374808
 31
0.0
  0
LINE
  5
16B9
330
31CA
100
AcDbEntity
  8
SIZE
 62
     0
100
AcDbLine
 10
-25489.51823276501
 20
7685.702971374808
 30
0.0
 11
-25362.37494828464
 21
7685.702971374808
 31
0.0
  0
LINE
  5
16BA
330
31CA
100
AcDbEntity
  8
SIZE
 62
     0
100
AcDbLine
 10
-25382.37494828464
 20
7397.702971374808
 30
0.0
 11
-25382.37494828464
 21
7673.702971374808
 31
0.0
  0
INSERT
  5
16BB
330
31CA
100
AcDbEntity
  8
SIZE
 62
     0
100
AcDbBlockReference
  2
_DOTBLANK
 10
-25382.37494828464
 20
7385.702971374808
 30
0.0
 41
12.0
 42
12.0
 43
12.0
 50
270.0
  0
INSERT
  5
16BC
330
31CA
100
AcDbEntity
  8
SIZE
 62
     0
100
AcDbBlockReference
  2
_DOTBLANK
 10
-25382.37494828464
 20
7685.702971374808
 30
0.0
 41
12.0
 42
12.0
 43
12.0
 50
90.0
  0
INSERT
  5
16BD
330
31CA
100
AcDbEntity
  8
0
100
AcDbBlockReference
  2
*U46
 10
0.0
 20
0.0
 30
0.0
  0
POINT
  5
16BE
330
31CA
100
AcDbEntity
  8
DEFPOINTS
 62
     0
100
AcDbPoint
 10
-25532.51823276502
 20
7385.702971374808
 30
0.0
  0
POINT
  5
16BF
330
31CA
100
AcDbEntity
  8
DEFPOINTS
 62
     0
100
AcDbPoint
 10
-25509.51823276502
 20
7685.702971374808
 30
0.0
  0
POINT
  5
16C0
330
31CA
100
AcDbEntity
  8
DEFPOINTS
 62
     0
100
AcDbPoint
 10
-25382.37494828464
 20
7685.702971374808
 30
0.0
  0
ENDBLK
  5
16C1
330
31CA
100
AcDbEntity
  8
0
100
AcDbBlockEnd
  0
BLOCK
  5
31CD
330
31CC
100
AcDbEntity
  8
0
100
AcDbBlockBegin
  2
*U46
 70
     1
 10
0.0
 20
0.0
 30
0.0
  3
*U46
  1

  0
TEXT
  5
1F25
330
31CC
100
AcDbEntity
  8
SIZE
 62
     0
100
AcDbText
 10
-25392.37494828464
 20
7461.645828517662
 30
0.0
 40
64.0
  1
300
 50
90.0
 41
0.9
100
AcDbText
  0
ENDBLK
  5
1F27
330
31CC
100
AcDbEntity
  8
0
100
AcDbBlockEnd
  0
BLOCK
  5
31CF
330
31CE
100
AcDbEntity
  8
0
100
AcDbBlockBegin
  2
*D47
 70
     1
 10
0.0
 20
0.0
 30
0.0
  3
*D47
  1

  0
LINE
  5
16C4
330
31CE
100
AcDbEntity
  8
SIZE
 62
     0
100
AcDbLine
 10
-25807.01823276501
 20
7718.167454177002
 30
0.0
 11
-25807.01823276501
 21
7822.154659243358
 31
0.0
  0
LINE
  5
16C5
330
31CE
100
AcDbEntity
  8
SIZE
 62
     0
100
AcDbLine
 10
-25527.01823276501
 20
7718.167454177002
 30
0.0
 11
-25527.01823276501
 21
7822.154659243358
 31
0.0
  0
LINE
  5
16C6
330
31CE
100
AcDbEntity
  8
SIZE
 62
     0
100
AcDbLine
 10
-25795.01823276502
 20
7802.154659243358
 30
0.0
 11
-25539.01823276501
 21
7802.154659243358
 31
0.0
  0
INSERT
  5
16C7
330
31CE
100
AcDbEntity
  8
SIZE
 62
     0
100
AcDbBlockReference
  2
_DOTBLANK
 10
-25807.01823276501
 20
7802.154659243358
 30
0.0
 41
12.0
 42
12.0
 43
12.0
 50
180.0
  0
INSERT
  5
16C8
330
31CE
100
AcDbEntity
  8
SIZE
 62
     0
100
AcDbBlockReference
  2
_DOTBLANK
 10
-25527.01823276501
 20
7802.154659243358
 30
0.0
 41
12.0
 42
12.0
 43
12.0
  0
INSERT
  5
16C9
330
31CE
100
AcDbEntity
  8
0
100
AcDbBlockReference
  2
*U48
 10
0.0
 20
0.0
 30
0.0
  0
POINT
  5
16CA
330
31CE
100
AcDbEntity
  8
DEFPOINTS
 62
     0
100
AcDbPoint
 10
-25807.01823276501
 20
7698.167454177002
 30
0.0
  0
POINT
  5
16CB
330
31CE
100
AcDbEntity
  8
DEFPOINTS
 62
     0
100
AcDbPoint
 10
-25527.01823276501
 20
7698.167454177002
 30
0.0
  0
POINT
  5
16CC
330
31CE
100
AcDbEntity
  8
DEFPOINTS
 62
     0
100
AcDbPoint
 10
-25527.01823276501
 20
7802.154659243358
 30
0.0
  0
ENDBLK
  5
16CD
330
31CE
100
AcDbEntity
  8
0
100
AcDbBlockEnd
  0
BLOCK
  5
31D1
330
31D0
100
AcDbEntity
  8
0
100
AcDbBlockBegin
  2
*U48
 70
     1
 10
0.0
 20
0.0
 30
0.0
  3
*U48
  1

  0
TEXT
  5
1F29
330
31D0
100
AcDbEntity
  8
SIZE
 62
     0
100
AcDbText
 10
-25741.07537562216
 20
7812.154659243358
 30
0.0
 40
64.0
  1
280
 41
0.9
100
AcDbText
  0
ENDBLK
  5
1F2B
330
31D0
100
AcDbEntity
  8
0
100
AcDbBlockEnd
  0
BLOCK
  5
31D3
330
31D2
100
AcDbEntity
  8
0
100
AcDbBlockBegin
  2
*D49
 70
     1
 10
0.0
 20
0.0
 30
0.0
  3
*D49
  1

  0
LINE
  5
16D0
330
31D2
100
AcDbEntity
  8
SIZE
 62
     0
100
AcDbLine
 10
-25824.51823276501
 20
7705.702971374808
 30
0.0
 11
-25824.51823276501
 21
7931.282433493766
 31
0.0
  0
LINE
  5
16D1
330
31D2
100
AcDbEntity
  8
SIZE
 62
     0
100
AcDbLine
 10
-25509.51823276502
 20
7705.702971374808
 30
0.0
 11
-25509.51823276502
 21
7931.282433493766
 31
0.0
  0
LINE
  5
16D2
330
31D2
100
AcDbEntity
  8
SIZE
 62
     0
100
AcDbLine
 10
-25812.51823276502
 20
7911.282433493766
 30
0.0
 11
-25521.51823276501
 21
7911.282433493766
 31
0.0
  0
INSERT
  5
16D3
330
31D2
100
AcDbEntity
  8
SIZE
 62
     0
100
AcDbBlockReference
  2
_DOTBLANK
 10
-25824.51823276501
 20
7911.282433493766
 30
0.0
 41
12.0
 42
12.0
 43
12.0
 50
180.0
  0
INSERT
  5
16D4
330
31D2
100
AcDbEntity
  8
SIZE
 62
     0
100
AcDbBlockReference
  2
_DOTBLANK
 10
-25509.51823276502
 20
7911.282433493766
 30
0.0
 41
12.0
 42
12.0
 43
12.0
  0
INSERT
  5
16D5
330
31D2
100
AcDbEntity
  8
0
100
AcDbBlockReference
  2
*U50
 10
0.0
 20
0.0
 30
0.0
  0
POINT
  5
16D6
330
31D2
100
AcDbEntity
  8
DEFPOINTS
 62
     0
100
AcDbPoint
 10
-25824.51823276501
 20
7685.702971374808
 30
0.0
  0
POINT
  5
16D7
330
31D2
100
AcDbEntity
  8
DEFPOINTS
 62
     0
100
AcDbPoint
 10
-25509.51823276502
 20
7685.702971374808
 30
0.0
  0
POINT
  5
16D8
330
31D2
100
AcDbEntity
  8
DEFPOINTS
 62
     0
100
AcDbPoint
 10
-25509.51823276502
 20
7911.282433493766
 30
0.0
  0
ENDBLK
  5
16D9
330
31D2
100
AcDbEntity
  8
0
100
AcDbBlockEnd
  0
BLOCK
  5
31D5
330
31D4
100
AcDbEntity
  8
0
100
AcDbBlockBegin
  2
*U50
 70
     1
 10
0.0
 20
0.0
 30
0.0
  3
*U50
  1

  0
TEXT
  5
1F2D
330
31D4
100
AcDbEntity
  8
SIZE
 62
     0
100
AcDbText
 10
-25735.58966133645
 20
7921.282433493766
 30
0.0
 40
64.0
  1
315
 41
0.9
100
AcDbText
  0
ENDBLK
  5
1F2F
330
31D4
100
AcDbEntity
  8
0
100
AcDbBlockEnd
  0
BLOCK
  5
31D7
330
31D6
100
AcDbEntity
  8
0
100
AcDbBlockBegin
  2
*D51
 70
     1
 10
0.0
 20
0.0
 30
0.0
  3
*D51
  1

  0
LINE
  5
1D83
330
31D6
100
AcDbEntity
  8
SIZE
 62
     0
100
AcDbLine
 10
-134.5
 20
-320.0
 30
0.0
 11
-134.5
 21
-468.0173952306001
 31
0.0
  0
LINE
  5
1D84
330
31D6
100
AcDbEntity
  8
SIZE
 62
     0
100
AcDbLine
 10
134.5
 20
-320.0
 30
0.0
 11
134.5
 21
-468.0173952306001
 31
0.0
  0
LINE
  5
1D85
330
31D6
100
AcDbEntity
  8
SIZE
 62
     0
100
AcDbLine
 10
-122.5
 20
-448.0173952306
 30
0.0
 11
122.5
 21
-448.0173952306
 31
0.0
  0
INSERT
  5
1D86
330
31D6
100
AcDbEntity
  8
SIZE
 62
     0
100
AcDbBlockReference
  2
_DOTBLANK
 10
-134.5
 20
-448.0173952306
 30
0.0
 41
12.0
 42
12.0
 43
12.0
 50
180.0
  0
INSERT
  5
1D87
330
31D6
100
AcDbEntity
  8
SIZE
 62
     0
100
AcDbBlockReference
  2
_DOTBLANK
 10
134.5
 20
-448.0173952306
 30
0.0
 41
12.0
 42
12.0
 43
12.0
  0
INSERT
  5
1D88
330
31D6
100
AcDbEntity
  8
0
100
AcDbBlockReference
  2
*U52
 10
0.0
 20
0.0
 30
0.0
  0
POINT
  5
1D89
330
31D6
100
AcDbEntity
  8
DEFPOINTS
 62
     0
100
AcDbPoint
 10
-134.5
 20
-300.0
 30
0.0
  0
POINT
  5
1D8A
330
31D6
100
AcDbEntity
  8
DEFPOINTS
 62
     0
100
AcDbPoint
 10
134.5
 20
-300.0
 30
0.0
  0
POINT
  5
1D8B
330
31D6
100
AcDbEntity
  8
DEFPOINTS
 62
     0
100
AcDbPoint
 10
134.5
 20
-448.0173952306
 30
0.0
  0
ENDBLK
  5
173D
330
31D6
100
AcDbEntity
  8
0
100
AcDbBlockEnd
  0
BLOCK
  5
31D9
330
31D8
100
AcDbEntity
  8
0
100
AcDbBlockBegin
  2
*U52
 70
     1
 10
0.0
 20
0.0
 30
0.0
  3
*U52
  1

  0
TEXT
  5
1F31
330
31D8
100
AcDbEntity
  8
SIZE
 62
     0
100
AcDbText
 10
-72.68571428571426
 20
-438.0173952306003
 30
0.0
 40
64.0
  1
269
 41
0.9
100
AcDbText
  0
ENDBLK
  5
1F33
330
31D8
100
AcDbEntity
  8
0
100
AcDbBlockEnd
  0
BLOCK
  5
31DB
330
31DA
100
AcDbEntity
  8
0
100
AcDbBlockBegin
  2
*D53
 70
     1
 10
0.0
 20
0.0
 30
0.0
  3
*D53
  1

  0
LINE
  5
1D8C
330
31DA
100
AcDbEntity
  8
SIZE
 62
     0
100
AcDbLine
 10
154.5
 20
-300.0
 30
0.0
 11
304.6432844803784
 21
-300.0
 31
0.0
  0
LINE
  5
1D8D
330
31DA
100
AcDbEntity
  8
SIZE
 62
     0
100
AcDbLine
 10
177.5
 20
-0.0000000000000057
 30
0.0
 11
304.6432844803785
 21
-0.0000000000000417
 31
0.0
  0
LINE
  5
1D8E
330
31DA
100
AcDbEntity
  8
SIZE
 62
     0
100
AcDbLine
 10
284.6432844803784
 20
-288.0
 30
0.0
 11
284.6432844803785
 21
-12.00000000000003
 31
0.0
  0
INSERT
  5
1D8F
330
31DA
100
AcDbEntity
  8
SIZE
 62
     0
100
AcDbBlockReference
  2
_DOTBLANK
 10
284.6432844803784
 20
-300.0
 30
0.0
 41
12.0
 42
12.0
 43
12.0
 50
270.0
  0
INSERT
  5
1D90
330
31DA
100
AcDbEntity
  8
SIZE
 62
     0
100
AcDbBlockReference
  2
_DOTBLANK
 10
284.6432844803785
 20
-0.000000000000036
 30
0.0
 41
12.0
 42
12.0
 43
12.0
 50
90.0
  0
INSERT
  5
1D91
330
31DA
100
AcDbEntity
  8
0
100
AcDbBlockReference
  2
*U54
 10
0.0
 20
0.0
 30
0.0
  0
POINT
  5
1D92
330
31DA
100
AcDbEntity
  8
DEFPOINTS
 62
     0
100
AcDbPoint
 10
134.5
 20
-300.0
 30
0.0
  0
POINT
  5
1D93
330
31DA
100
AcDbEntity
  8
DEFPOINTS
 62
     0
100
AcDbPoint
 10
157.5
 20
0.0
 30
0.0
  0
POINT
  5
1D94
330
31DA
100
AcDbEntity
  8
DEFPOINTS
 62
     0
100
AcDbPoint
 10
284.6432844803785
 20
-0.000000000000036
 30
0.0
  0
ENDBLK
  5
1749
330
31DA
100
AcDbEntity
  8
0
100
AcDbBlockEnd
  0
BLOCK
  5
31DD
330
31DC
100
AcDbEntity
  8
0
100
AcDbBlockBegin
  2
*U54
 70
     1
 10
0.0
 20
0.0
 30
0.0
  3
*U54
  1

  0
TEXT
  5
1F35
330
31DC
100
AcDbEntity
  8
SIZE
 62
     0
100
AcDbText
 10
274.6432844803785
 20
-224.0571428571429
 30
0.0
 40
64.0
  1
300
 50
90.0
 41
0.9
100
AcDbText
  0
ENDBLK
  5
1F37
330
31DC
100
AcDbEntity
  8
0
100
AcDbBlockEnd
  0
BLOCK
  5
31DF
330
31DE
100
AcDbEntity
  8
0
100
AcDbBlockBegin
  2
*D55
 70
     1
 10
0.0
 20
0.0
 30
0.0
  3
*D55
  1

  0
LINE
  5
1D95
330
31DE
100
AcDbEntity
  8
SIZE
 62
     0
100
AcDbLine
 10
-140.0
 20
32.46448280219375
 30
0.0
 11
-140.0
 21
136.4516878685508
 31
0.0
  0
LINE
  5
1D96
330
31DE
100
AcDbEntity
  8
SIZE
 62
     0
100
AcDbLine
 10
140.0
 20
32.46448280219375
 30
0.0
 11
140.0
 21
136.4516878685508
 31
0.0
  0
LINE
  5
1D97
330
31DE
100
AcDbEntity
  8
SIZE
 62
     0
100
AcDbLine
 10
-128.0
 20
116.4516878685508
 30
0.0
 11
128.0
 21
116.4516878685508
 31
0.0
  0
INSERT
  5
1D98
330
31DE
100
AcDbEntity
  8
SIZE
 62
     0
100
AcDbBlockReference
  2
_DOTBLANK
 10
-140.0
 20
116.4516878685508
 30
0.0
 41
12.0
 42
12.0
 43
12.0
 50
180.0
  0
INSERT
  5
1D99
330
31DE
100
AcDbEntity
  8
SIZE
 62
     0
100
AcDbBlockReference
  2
_DOTBLANK
 10
140.0
 20
116.4516878685508
 30
0.0
 41
12.0
 42
12.0
 43
12.0
  0
INSERT
  5
1D9A
330
31DE
100
AcDbEntity
  8
0
100
AcDbBlockReference
  2
*U56
 10
0.0
 20
0.0
 30
0.0
  0
POINT
  5
1D9B
330
31DE
100
AcDbEntity
  8
DEFPOINTS
 62
     0
100
AcDbPoint
 10
-140.0
 20
12.46448280219374
 30
0.0
  0
POINT
  5
1D9C
330
31DE
100
AcDbEntity
  8
DEFPOINTS
 62
     0
100
AcDbPoint
 10
140.0
 20
12.46448280219374
 30
0.0
  0
POINT
  5
1D9D
330
31DE
100
AcDbEntity
  8
DEFPOINTS
 62
     0
100
AcDbPoint
 10
140.0
 20
116.4516878685508
 30
0.0
  0
ENDBLK
  5
1755
330
31DE
100
AcDbEntity
  8
0
100
AcDbBlockEnd
  0
BLOCK
  5
31E1
330
31E0
100
AcDbEntity
  8
0
100
AcDbBlockBegin
  2
*U56
 70
     1
 10
0.0
 20
0.0
 30
0.0
  3
*U56
  1

  0
TEXT
  5
1F39
330
31E0
100
AcDbEntity
  8
SIZE
 62
     0
100
AcDbText
 10
-74.05714285714283
 20
126.4516878685508
 30
0.0
 40
64.0
  1
280
 41
0.9
100
AcDbText
  0
ENDBLK
  5
1F3B
330
31E0
100
AcDbEntity
  8
0
100
AcDbBlockEnd
  0
BLOCK
  5
31E3
330
31E2
100
AcDbEntity
  8
0
100
AcDbBlockBegin
  2
*D57
 70
     1
 10
0.0
 20
0.0
 30
0.0
  3
*D57
  1

  0
LINE
  5
1D9E
330
31E2
100
AcDbEntity
  8
SIZE
 62
     0
100
AcDbLine
 10
-157.5
 20
20.0
 30
0.0
 11
-157.5
 21
245.5794621189598
 31
0.0
  0
LINE
  5
1D9F
330
31E2
100
AcDbEntity
  8
SIZE
 62
     0
100
AcDbLine
 10
157.5
 20
20.0
 30
0.0
 11
157.5
 21
245.5794621189598
 31
0.0
  0
LINE
  5
1DA0
330
31E2
100
AcDbEntity
  8
SIZE
 62
     0
100
AcDbLine
 10
-145.5
 20
225.5794621189598
 30
0.0
 11
145.5
 21
225.5794621189598
 31
0.0
  0
INSERT
  5
1DA1
330
31E2
100
AcDbEntity
  8
SIZE
 62
     0
100
AcDbBlockReference
  2
_DOTBLANK
 10
-157.5
 20
225.5794621189598
 30
0.0
 41
12.0
 42
12.0
 43
12.0
 50
180.0
  0
INSERT
  5
1DA2
330
31E2
100
AcDbEntity
  8
SIZE
 62
     0
100
AcDbBlockReference
  2
_DOTBLANK
 10
157.5
 20
225.5794621189598
 30
0.0
 41
12.0
 42
12.0
 43
12.0
  0
INSERT
  5
1DA3
330
31E2
100
AcDbEntity
  8
0
100
AcDbBlockReference
  2
*U58
 10
0.0
 20
0.0
 30
0.0
  0
POINT
  5
1DA4
330
31E2
100
AcDbEntity
  8
DEFPOINTS
 62
     0
100
AcDbPoint
 10
-157.5
 20
0.0
 30
0.0
  0
POINT
  5
1DA5
330
31E2
100
AcDbEntity
  8
DEFPOINTS
 62
     0
100
AcDbPoint
 10
157.5
 20
0.0
 30
0.0
  0
POINT
  5
1DA6
330
31E2
100
AcDbEntity
  8
DEFPOINTS
 62
     0
100
AcDbPoint
 10
157.5
 20
225.5794621189598
 30
0.0
  0
ENDBLK
  5
1761
330
31E2
100
AcDbEntity
  8
0
100
AcDbBlockEnd
  0
BLOCK
  5
31E5
330
31E4
100
AcDbEntity
  8
0
100
AcDbBlockBegin
  2
*U58
 70
     1
 10
0.0
 20
0.0
 30
0.0
  3
*U58
  1

  0
TEXT
  5
1F3D
330
31E4
100
AcDbEntity
  8
SIZE
 62
     0
100
AcDbText
 10
-68.57142857142857
 20
235.5794621189599
 30
0.0
 40
64.0
  1
315
 41
0.9
100
AcDbText
  0
ENDBLK
  5
1F3F
330
31E4
100
AcDbEntity
  8
0
100
AcDbBlockEnd
  0
BLOCK
  5
31E7
330
31E6
100
AcDbEntity
  8
0
100
AcDbBlockBegin
  2
*D59
 70
     1
 10
0.0
 20
0.0
 30
0.0
  3
*D59
  1

  0
LINE
  5
1DA7
330
31E6
100
AcDbEntity
  8
SIZE
 62
     0
100
AcDbLine
 10
-177.5
 20
0.0000000000000057
 30
0.0
 11
-314.0264221186908
 21
0.0000000000000443
 31
0.0
  0
LINE
  5
1DA8
330
31E6
100
AcDbEntity
  8
SIZE
 62
     0
100
AcDbLine
 10
-177.5
 20
-7.999999999999992
 30
0.0
 11
-314.0264221186908
 21
-7.999999999999957
 31
0.0
  0
LINE
  5
1DA9
330
31E6
100
AcDbEntity
  8
SIZE
 62
     0
100
AcDbLine
 10
-294.0264221186908
 20
12.00000000000003
 30
0.0
 11
-294.0264221186908
 21
24.00000000000004
 31
0.0
  0
LINE
  5
1DAA
330
31E6
100
AcDbEntity
  8
SIZE
 62
     0
100
AcDbLine
 10
-294.0264221186908
 20
-19.99999999999996
 30
0.0
 11
-294.0264221186908
 21
-90.39999999999997
 31
0.0
  0
INSERT
  5
1DAB
330
31E6
100
AcDbEntity
  8
SIZE
 62
     0
100
AcDbBlockReference
  2
_DOTBLANK
 10
-294.0264221186908
 20
0.0000000000000387
 30
0.0
 41
12.0
 42
12.0
 43
12.0
 50
270.0
  0
INSERT
  5
1DAC
330
31E6
100
AcDbEntity
  8
SIZE
 62
     0
100
AcDbBlockReference
  2
_DOTBLANK
 10
-294.0264221186908
 20
-7.999999999999959
 30
0.0
 41
12.0
 42
12.0
 43
12.0
 50
90.0
  0
INSERT
  5
1DAD
330
31E6
100
AcDbEntity
  8
0
100
AcDbBlockReference
  2
*U60
 10
0.0
 20
0.0
 30
0.0
  0
POINT
  5
1DAE
330
31E6
100
AcDbEntity
  8
DEFPOINTS
 62
     0
100
AcDbPoint
 10
-157.5
 20
0.0
 30
0.0
  0
POINT
  5
1DAF
330
31E6
100
AcDbEntity
  8
DEFPOINTS
 62
     0
100
AcDbPoint
 10
-157.5
 20
-8.000000000000001
 30
0.0
  0
POINT
  5
1DB0
330
31E6
100
AcDbEntity
  8
DEFPOINTS
 62
     0
100
AcDbPoint
 10
-294.0264221186908
 20
-7.999999999999959
 30
0.0
  0
ENDBLK
  5
176D
330
31E6
100
AcDbEntity
  8
0
100
AcDbBlockEnd
  0
BLOCK
  5
31E9
330
31E8
100
AcDbEntity
  8
0
100
AcDbBlockBegin
  2
*U60
 70
     1
 10
0.0
 20
0.0
 30
0.0
  3
*U60
  1

  0
TEXT
  5
1F41
330
31E8
100
AcDbEntity
  8
SIZE
 62
     0
100
AcDbText
 10
-304.0264221186908
 20
-80.4
 30
0.0
 40
64.0
  1
8
 50
90.0
 41
0.9
100
AcDbText
  0
ENDBLK
  5
1F43
330
31E8
100
AcDbEntity
  8
0
100
AcDbBlockEnd
  0
BLOCK
  5
31EB
330
31EA
100
AcDbEntity
  8
0
100
AcDbBlockBegin
  2
*D61
 70
     1
 10
0.0
 20
0.0
 30
0.0
  3
*D61
  1

  0
LINE
  5
1DB1
330
31EA
100
AcDbEntity
  8
SIZE
 62
     0
100
AcDbLine
 10
154.5
 20
-300.0
 30
0.0
 11
304.6432844803785
 21
-300.0
 31
0.0
  0
LINE
  5
1DB2
330
31EA
100
AcDbEntity
  8
SIZE
 62
     0
100
AcDbLine
 10
143.5
 20
-312.0
 30
0.0
 11
304.6432844803785
 21
-312.0
 31
0.0
  0
LINE
  5
1DB3
330
31EA
100
AcDbEntity
  8
SIZE
 62
     0
100
AcDbLine
 10
284.6432844803785
 20
-288.0
 30
0.0
 11
284.6432844803785
 21
-276.0
 31
0.0
  0
LINE
  5
1DB4
330
31EA
100
AcDbEntity
  8
SIZE
 62
     0
100
AcDbLine
 10
284.6432844803785
 20
-324.0000000000001
 30
0.0
 11
284.6432844803784
 21
-438.2857142857143
 31
0.0
  0
INSERT
  5
1DB5
330
31EA
100
AcDbEntity
  8
SIZE
 62
     0
100
AcDbBlockReference
  2
_DOTBLANK
 10
284.6432844803785
 20
-300.0
 30
0.0
 41
12.0
 42
12.0
 43
12.0
 50
270.0
  0
INSERT
  5
1DB6
330
31EA
100
AcDbEntity
  8
SIZE
 62
     0
100
AcDbBlockReference
  2
_DOTBLANK
 10
284.6432844803785
 20
-312.0
 30
0.0
 41
12.0
 42
12.0
 43
12.0
 50
90.0
  0
INSERT
  5
1DB7
330
31EA
100
AcDbEntity
  8
0
100
AcDbBlockReference
  2
*U62
 10
0.0
 20
0.0
 30
0.0
  0
POINT
  5
1DB8
330
31EA
100
AcDbEntity
  8
DEFPOINTS
 62
     0
100
AcDbPoint
 10
134.5
 20
-300.0
 30
0.0
  0
POINT
  5
1DB9
330
31EA
100
AcDbEntity
  8
DEFPOINTS
 62
     0
100
AcDbPoint
 10
123.5
 20
-312.0
 30
0.0
  0
POINT
  5
1DBA
330
31EA
100
AcDbEntity
  8
DEFPOINTS
 62
     0
100
AcDbPoint
 10
284.6432844803785
 20
-312.0
 30
0.0
  0
ENDBLK
  5
177B
330
31EA
100
AcDbEntity
  8
0
100
AcDbBlockEnd
  0
BLOCK
  5
31ED
330
31EC
100
AcDbEntity
  8
0
100
AcDbBlockBegin
  2
*U62
 70
     1
 10
0.0
 20
0.0
 30
0.0
  3
*U62
  1

  0
TEXT
  5
1F45
330
31EC
100
AcDbEntity
  8
SIZE
 62
     0
100
AcDbText
 10
274.6432844803785
 20
-428.2857142857142
 30
0.0
 40
64.0
  1
12
 50
90.0
 41
0.9
100
AcDbText
  0
ENDBLK
  5
1F47
330
31EC
100
AcDbEntity
  8
0
100
AcDbBlockEnd
  0
BLOCK
  5
31EF
330
31EE
100
AcDbEntity
  8
0
100
AcDbBlockBegin
  2
*U63
 70
     1
 10
0.0
 20
0.0
 30
0.0
  3
*U63
  1

  0
ENDBLK
  5
1D57
330
31EE
100
AcDbEntity
  8
0
100
AcDbBlockEnd
  0
BLOCK
  5
31F1
330
31F0
100
AcDbEntity
  8
0
100
AcDbBlockBegin
  2
*U64
 70
     1
 10
0.0
 20
0.0
 30
0.0
  3
*U64
  1

  0
INSERT
  5
2088
330
31F0
100
AcDbEntity
  8
NOTE
100
AcDbBlockReference
  2
_OPEN30
 10
-140.0
 20
0.0
 30
0.0
 41
12.0
 42
12.0
 43
12.0
 50
312.6090116116894
  0
POLYLINE
  5
2089
330
31F0
100
AcDbEntity
  8
NOTE
100
AcDb2dPolyline
 66
     1
 10
0.0
 20
0.0
 30
0.0
  0
VERTEX
  5
2124
330
2089
100
AcDbEntity
  8
NOTE
100
AcDbVertex
100
AcDb2dVertex
 10
-148.1239008361894
 20
8.831887408915473
 30
0.0
  0
VERTEX
  5
2125
330
2089
100
AcDbEntity
  8
NOTE
100
AcDbVertex
100
AcDb2dVertex
 10
-227.8693999922543
 20
95.52709505801338
 30
0.0
  0
VERTEX
  5
2126
330
2089
100
AcDbEntity
  8
NOTE
100
AcDbVertex
100
AcDb2dVertex
 10
-773.7093999922541
 20
95.52709505801338
 30
0.0
  0
SEQEND
  5
2127
330
2089
100
AcDbEntity
  8
NOTE
  0
ENDBLK
  5
208A
330
31F0
100
AcDbEntity
  8
0
100
AcDbBlockEnd
  0
BLOCK
  5
31F3
330
31F2
100
AcDbEntity
  8
0
100
AcDbBlockBegin
  2
*U65
 70
     1
 10
0.0
 20
0.0
 30
0.0
  3
*U65
  1

  0
TEXT
  5
208D
330
31F2
100
AcDbEntity
  8
NOTE
100
AcDbText
 10
-773.7093999922541
 20
113.5270950580134
 30
0.0
 40
64.0
  1
4×φ10取付穴
 41
0.9
100
AcDbText
  0
ENDBLK
  5
208E
330
31F2
100
AcDbEntity
  8
0
100
AcDbBlockEnd
  0
BLOCK
  5
31F5
330
31F4
100
AcDbEntity
  8
0
100
AcDbBlockBegin
  2
*U66
 70
     1
 10
0.0
 20
0.0
 30
0.0
  3
*U66
  1

  0
INSERT
  5
25A0
330
31F4
100
AcDbEntity
  8
NOTE
100
AcDbBlockReference
  2
_OPEN30
 10
-325.0
 20
0.0
 30
0.0
 41
12.0
 42
12.0
 43
12.0
 50
312.6090116116894
  0
POLYLINE
  5
25A1
330
31F4
100
AcDbEntity
  8
NOTE
100
AcDb2dPolyline
 66
     1
 10
0.0
 20
0.0
 30
0.0
  0
VERTEX
  5
25A2
330
25A1
100
AcDbEntity
  8
NOTE
100
AcDbVertex
100
AcDb2dVertex
 10
-333.1239008361895
 20
8.831887408915473
 30
0.0
  0
VERTEX
  5
25A3
330
25A1
100
AcDbEntity
  8
NOTE
100
AcDbVertex
100
AcDb2dVertex
 10
-412.8693999922543
 20
95.52709505801338
 30
0.0
  0
VERTEX
  5
25A4
330
25A1
100
AcDbEntity
  8
NOTE
100
AcDbVertex
100
AcDb2dVertex
 10
-958.7093999922544
 20
95.52709505801338
 30
0.0
  0
SEQEND
  5
25A5
330
25A1
100
AcDbEntity
  8
NOTE
  0
ENDBLK
  5
25A6
330
31F4
100
AcDbEntity
  8
0
100
AcDbBlockEnd
  0
BLOCK
  5
31F7
330
31F6
100
AcDbEntity
  8
0
100
AcDbBlockBegin
  2
*U67
 70
     1
 10
0.0
 20
0.0
 30
0.0
  3
*U67
  1

  0
TEXT
  5
25A9
330
31F6
100
AcDbEntity
  8
NOTE
100
AcDbText
 10
-958.7093999922544
 20
113.5270950580134
 30
0.0
 40
64.0
  1
4×φ15取付穴
 41
0.9
100
AcDbText
  0
ENDBLK
  5
25AA
330
31F6
100
AcDbEntity
  8
0
100
AcDbBlockEnd
  0
BLOCK
  5
31F9
330
31F8
100
AcDbEntity
  8
0
100
AcDbBlockBegin
  2
*U68
 70
     1
 10
0.0
 20
0.0
 30
0.0
  3
*U68
  1

  0
INSERT
  5
2880
330
31F8
100
AcDbEntity
  8
NOTE
100
AcDbBlockReference
  2
_OPEN30
 10
325.0
 20
324.9999999999996
 30
0.0
 41
12.0
 42
12.0
 43
12.0
 50
232.3258907693334
  0
POLYLINE
  5
2881
330
31F8
100
AcDbEntity
  8
NOTE
100
AcDb2dPolyline
 66
     1
 10
0.0
 20
0.0
 30
0.0
  0
VERTEX
  5
2882
330
2881
100
AcDbEntity
  8
NOTE
100
AcDbVertex
100
AcDb2dVertex
 10
332.3340332839448
 20
334.497997462096
 30
0.0
  0
VERTEX
  5
2883
330
2881
100
AcDbEntity
  8
NOTE
100
AcDbVertex
100
AcDb2dVertex
 10
398.7628007872081
 20
420.527095058012
 30
0.0
  0
VERTEX
  5
2884
330
2881
100
AcDbEntity
  8
NOTE
100
AcDbVertex
100
AcDb2dVertex
 10
944.6028007872079
 20
420.527095058012
 30
0.0
  0
SEQEND
  5
2885
330
2881
100
AcDbEntity
  8
NOTE
  0
ENDBLK
  5
2886
330
31F8
100
AcDbEntity
  8
0
100
AcDbBlockEnd
  0
BLOCK
  5
31FB
330
31FA
100
AcDbEntity
  8
0
100
AcDbBlockBegin
  2
*U69
 70
     1
 10
0.0
 20
0.0
 30
0.0
  3
*U69
  1

  0
TEXT
  5
2889
330
31FA
100
AcDbEntity
  8
NOTE
100
AcDbText
 10
460.762800787208
 20
438.527095058012
 30
0.0
 40
64.0
  1
4×φ15取付穴
 41
0.9
100
AcDbText
  0
ENDBLK
  5
288A
330
31FA
100
AcDbEntity
  8
0
100
AcDbBlockEnd
  0
BLOCK
  5
33CF
330
33CE
100
AcDbEntity
  8
0
100
AcDbBlockBegin
  2
*U70
 70
     1
 10
0.0
 20
0.0
 30
0.0
  3
*U70
  1

  0
ENDBLK
  5
33D0
330
33CE
100
AcDbEntity
  8
0
100
AcDbBlockEnd
  0
BLOCK
  5
356E
330
356D
100
AcDbEntity
  8
0
100
AcDbBlockBegin
  2
*U71
 70
     1
 10
0.0
 20
0.0
 30
0.0
  3
*U71
  1

  0
ENDBLK
  5
356F
330
356D
100
AcDbEntity
  8
0
100
AcDbBlockEnd
  0
ENDSEC
  0
SECTION
  2
ENTITIES
  0
TEXT
  5
953
330
3123
100
AcDbEntity
  8
OUTLINE
  6
Continuous
 62
     3
100
AcDbText
 10
-418.231467
 20
13.715189
 30
0.0
 40
64.0
  1
 
 41
0.9
100
AcDbText
  0
TEXT
  5
954
330
3123
100
AcDbEntity
  8
OUTLINE
  6
Continuous
 62
     3
100
AcDbText
 10
-418.231467
 20
13.715189
 30
0.0
 40
64.0
  1
 
 41
0.9
100
AcDbText
  0
TEXT
  5
955
330
3123
100
AcDbEntity
  8
OUTLINE
  6
Continuous
 62
     3
100
AcDbText
 10
1341.41903
 20
-706.0588199999997
 30
0.0
 40
64.0
  1
 
 41
0.9
100
AcDbText
  0
TEXT
  5
956
330
3123
100
AcDbEntity
  8
OUTLINE
  6
Continuous
 62
     3
100
AcDbText
 10
1341.41903
 20
-706.0588199999997
 30
0.0
 40
64.0
  1
 
 41
0.9
100
AcDbText
  0
TEXT
  5
957
330
3123
100
AcDbEntity
  8
OUTLINE
  6
Continuous
 62
     3
100
AcDbText
 10
1341.41903
 20
-706.0588199999997
 30
0.0
 40
64.0
  1
 
 41
0.9
100
AcDbText
  0
TEXT
  5
958
330
3123
100
AcDbEntity
  8
OUTLINE
  6
Continuous
 62
     3
100
AcDbText
 10
1341.41903
 20
-706.0588199999997
 30
0.0
 40
64.0
  1
 
 41
0.9
100
AcDbText
  0
TEXT
  5
3460
330
3123
100
AcDbEntity
  8
ETC
100
AcDbText
 10
606.8291738085878
 20
1861.242028621621
 30
0.0
 40
64.0
  1
システム部材
 41
0.9
100
AcDbText
  0
TEXT
  5
3461
330
3123
100
AcDbEntity
  8
ETC
100
AcDbText
 10
613.0371718085877
 20
1962.125354621622
 30
0.0
 40
64.0
  1
W-60SDBM_3
 41
0.9
100
AcDbText
  0
TEXT
  5
3462
330
3123
100
AcDbEntity
  8
ETC
100
AcDbText
 10
606.8291738085878
 20
1761.242028621621
 30
0.0
 40
64.0
  1
W-60SDBM
 41
0.9
100
AcDbText
  0
LINE
  5
3463
330
3123
100
AcDbEntity
  8
SIZE
100
AcDbLine
 10
-452.6985536807607
 20
1491.931164900023
 30
0.0
 11
-629.4594173245952
 21
1491.931164900023
 31
0.0
  0
LINE
  5
3464
330
3123
100
AcDbEntity
  8
SIZE
100
AcDbLine
 10
-452.6985536807607
 20
841.9311649000237
 30
0.0
 11
-629.4594173245952
 21
841.9311649000237
 31
0.0
  0
LINE
  5
3465
330
3123
100
AcDbEntity
  8
SIZE
100
AcDbLine
 10
-609.4594173245952
 20
1479.931164900024
 30
0.0
 11
-609.4594173245952
 21
853.9311649000238
 31
0.0
  0
INSERT
  5
3466
330
3123
100
AcDbEntity
  8
SIZE
100
AcDbBlockReference
  2
_DOTBLANK
 10
-609.4594173245952
 20
1491.931164900023
 30
0.0
 41
12.0
 42
12.0
 43
12.0
 50
90.0
  0
INSERT
  5
3467
330
3123
100
AcDbEntity
  8
SIZE
100
AcDbBlockReference
  2
_DOTBLANK
 10
-609.4594173245952
 20
841.9311649000237
 30
0.0
 41
12.0
 42
12.0
 43
12.0
 50
270.0
  0
MTEXT
  5
3468
330
3123
100
AcDbEntity
  8
SIZE
100
AcDbMText
 10
-651.4594173245953
 20
1166.848111763404
 30
0.0
 40
64.0
 41
0.0
 46
0.0
 71
     5
 72
     1
  1
\A1;650
 11
0.0000000000000001
 21
1.0
 31
0.0
 73
     1
 44
1.0
  0
LINE
  5
3469
330
3123
100
AcDbEntity
  8
SIZE
100
AcDbLine
 10
-460.1985536807608
 20
821.931164900022
 30
0.0
 11
-770.0673867915959
 21
821.931164900022
 31
0.0
  0
LINE
  5
346A
330
3123
100
AcDbEntity
  8
SIZE
100
AcDbLine
 10
-460.1985536807608
 20
1511.931164900024
 30
0.0
 11
-770.0673867915959
 21
1511.931164900024
 31
0.0
  0
LINE
  5
346B
330
3123
100
AcDbEntity
  8
SIZE
100
AcDbLine
 10
-750.0673867915959
 20
833.9311649000219
 30
0.0
 11
-750.0673867915959
 21
1499.931164900023
 31
0.0
  0
INSERT
  5
346C
330
3123
100
AcDbEntity
  8
SIZE
100
AcDbBlockReference
  2
_DOTBLANK
 10
-750.0673867915959
 20
821.931164900022
 30
0.0
 41
12.0
 42
12.0
 43
12.0
 50
270.0
  0
INSERT
  5
346D
330
3123
100
AcDbEntity
  8
SIZE
100
AcDbBlockReference
  2
_DOTBLANK
 10
-750.0673867915959
 20
1511.931164900024
 30
0.0
 41
12.0
 42
12.0
 43
12.0
 50
90.0
  0
MTEXT
  5
346E
330
3123
100
AcDbEntity
  8
SIZE
100
AcDbMText
 10
-792.0673867915959
 20
1166.931164900024
 30
0.0
 40
64.0
 41
0.0
 46
0.0
 71
     5
 72
     1
  1
\A1;690
 11
0.0000000000000001
 21
1.0
 31
0.0
 73
     1
 44
1.0
  0
LINE
  5
346F
330
3123
100
AcDbEntity
  8
SIZE
100
AcDbLine
 10
-420.1985536807608
 20
1524.431164900024
 30
0.0
 11
-420.1985536807608
 21
1693.259757880426
 31
0.0
  0
LINE
  5
3470
330
3123
100
AcDbEntity
  8
SIZE
100
AcDbLine
 10
229.8014463192392
 20
1524.431164900024
 30
0.0
 11
229.8014463192392
 21
1693.259757880426
 31
0.0
  0
LINE
  5
3471
330
3123
100
AcDbEntity
  8
SIZE
100
AcDbLine
 10
-408.1985536807608
 20
1673.259757880426
 30
0.0
 11
217.8014463192392
 21
1673.259757880426
 31
0.0
  0
INSERT
  5
3472
330
3123
100
AcDbEntity
  8
SIZE
100
AcDbBlockReference
  2
_DOTBLANK
 10
-420.1985536807608
 20
1673.259757880426
 30
0.0
 41
12.0
 42
12.0
 43
12.0
 50
180.0
  0
INSERT
  5
3473
330
3123
100
AcDbEntity
  8
SIZE
100
AcDbBlockReference
  2
_DOTBLANK
 10
229.8014463192392
 20
1673.259757880426
 30
0.0
 41
12.0
 42
12.0
 43
12.0
  0
MTEXT
  5
3474
330
3123
100
AcDbEntity
  8
SIZE
100
AcDbMText
 10
-95.19855368076084
 20
1715.259757880426
 30
0.0
 40
64.0
 41
0.0
 46
0.0
 71
     5
 72
     1
  1
\A1;650
 73
     1
 44
1.0
  0
POINT
  5
3475
330
3123
100
AcDbEntity
  8
ARRANGE
100
AcDbPoint
 10
-95.19855368076084
 20
1166.931164900024
 30
0.0
 39
50.0
  0
CIRCLE
  5
3476
330
3123
100
AcDbEntity
  8
ARRANGE
100
AcDbCircle
 10
-95.19855368076084
 20
1166.931164900024
 30
0.0
 40
40.0
  0
LINE
  5
3477
330
3123
100
AcDbEntity
  8
BASIS
100
AcDbLine
 10
279.8014463192392
 20
1166.931164900024
 30
0.0
 11
-470.1985536807608
 21
1166.931164900024
 31
0.0
  0
LINE
  5
3478
330
3123
100
AcDbEntity
  8
BASIS
100
AcDbLine
 10
-95.19855368076084
 20
791.9311649000237
 30
0.0
 11
-95.19855368076084
 21
1541.931164900024
 31
0.0
  0
LINE
  5
3479
330
3123
100
AcDbEntity
  8
DETAIL
100
AcDbLine
 10
-388.6985536807608
 20
873.4311649000238
 30
0.0
 11
198.3014463192392
 21
873.4311649000238
 31
0.0
  0
LINE
  5
347A
330
3123
100
AcDbEntity
  8
DETAIL
100
AcDbLine
 10
198.3014463192392
 20
873.4311649000238
 30
0.0
 11
198.3014463192392
 21
1460.431164900024
 31
0.0
  0
LINE
  5
347B
330
3123
100
AcDbEntity
  8
DETAIL
100
AcDbLine
 10
198.3014463192392
 20
1460.431164900024
 30
0.0
 11
-388.6985536807608
 21
1460.431164900024
 31
0.0
  0
LINE
  5
347C
330
3123
100
AcDbEntity
  8
DETAIL
100
AcDbLine
 10
-388.6985536807608
 20
1460.431164900024
 30
0.0
 11
-388.6985536807608
 21
873.4311649000238
 31
0.0
  0
LINE
  5
347D
330
3123
100
AcDbEntity
  8
DETAIL
100
AcDbLine
 10
-440.1985536807607
 20
821.931164900022
 30
0.0
 11
249.8014463192429
 21
821.9311649000236
 31
0.0
  0
LINE
  5
347E
330
3123
100
AcDbEntity
  8
DETAIL
100
AcDbLine
 10
249.8014463192429
 20
821.9311649000236
 30
0.0
 11
249.8014463192374
 21
1511.931164900024
 31
0.0
  0
LINE
  5
3481
330
3123
100
AcDbEntity
  8
DETAIL
100
AcDbLine
 10
249.8014463192374
 20
1511.931164900024
 30
0.0
 11
-440.1985536807589
 21
1511.931164900024
 31
0.0
  0
LINE
  5
3483
330
3123
100
AcDbEntity
  8
DETAIL
100
AcDbLine
 10
-440.1985536807589
 20
1511.931164900024
 30
0.0
 11
-440.1985536807607
 21
821.931164900022
 31
0.0
  0
CIRCLE
  5
3485
330
3123
100
AcDbEntity
  8
FIX
100
AcDbCircle
 10
-420.1985536807608
 20
841.9311649000237
 30
0.0
 40
7.5
  0
LINE
  5
3486
330
3123
100
AcDbEntity
  8
NOTE
100
AcDbLine
 10
229.8014463192392
 20
854.4311649000237
 30
0.0
 11
229.8014463192392
 21
829.4311649000237
 31
0.0
  0
LINE
  5
3487
330
3123
100
AcDbEntity
  8
NOTE
100
AcDbLine
 10
242.3014463192392
 20
841.9311649000237
 30
0.0
 11
217.3014463192392
 21
841.9311649000237
 31
0.0
  0
CIRCLE
  5
3488
330
3123
100
AcDbEntity
  8
FIX
100
AcDbCircle
 10
229.8014463192392
 20
841.9311649000237
 30
0.0
 40
7.5
  0
CIRCLE
  5
3489
330
3123
100
AcDbEntity
  8
FIX
100
AcDbCircle
 10
-420.1985536807608
 20
1491.931164900023
 30
0.0
 40
7.5
  0
CIRCLE
  5
348A
330
3123
100
AcDbEntity
  8
FIX
100
AcDbCircle
 10
229.8014463192392
 20
1491.931164900023
 30
0.0
 40
7.5
  0
LINE
  5
348B
330
3123
100
AcDbEntity
  8
SIZE
100
AcDbLine
 10
218.3014463192392
 20
1460.431164900024
 30
0.0
 11
520.1809452074974
 21
1460.431164900024
 31
0.0
  0
LINE
  5
348C
330
3123
100
AcDbEntity
  8
SIZE
100
AcDbLine
 10
218.3014463192392
 20
873.4311649000238
 30
0.0
 11
520.1809452074974
 21
873.4311649000238
 31
0.0
  0
LINE
  5
348D
330
3123
100
AcDbEntity
  8
SIZE
100
AcDbLine
 10
500.1809452074974
 20
1448.431164900024
 30
0.0
 11
500.1809452074974
 21
885.4311649000237
 31
0.0
  0
INSERT
  5
348E
330
3123
100
AcDbEntity
  8
SIZE
100
AcDbBlockReference
  2
_DOTBLANK
 10
500.1809452074974
 20
1460.431164900024
 30
0.0
 41
12.0
 42
12.0
 43
12.0
 50
90.0
  0
INSERT
  5
348F
330
3123
100
AcDbEntity
  8
SIZE
100
AcDbBlockReference
  2
_DOTBLANK
 10
500.1809452074974
 20
873.4311649000238
 30
0.0
 41
12.0
 42
12.0
 43
12.0
 50
270.0
  0
MTEXT
  5
3490
330
3123
100
AcDbEntity
  8
SIZE
100
AcDbMText
 10
458.1809452074974
 20
1166.931164900024
 30
0.0
 40
64.0
 41
0.0
 46
0.0
 71
     5
 72
     1
  1
\A1;□587
 11
0.0000000000000001
 21
1.0
 31
0.0
 73
     1
 44
1.0
  0
INSERT
  5
3491
330
3123
100
AcDbEntity
  8
NOTE
100
AcDbBlockReference
  2
_OPEN30
 10
229.8014463192392
 20
1491.931164900023
 30
0.0
 41
12.00000000000031
 42
12.0
 43
12.0
 50
232.325890769332
1001
ACAD
1000
DSTYLE
1002
{
1070
    41
1040
12.0
1070
    42
1040
20.0
1070
    43
1040
200.0
1070
    44
1040
20.0
1070
    73
1070
     0
1070
    74
1070
     0
1070
    77
1070
     1
1070
    78
1070
     8
1070
   140
1040
64.0
1070
   147
1040
50.0
1070
   172
1070
     1
1070
   174
1070
     1
1070
   275
1070
     0
1070
   284
1070
     0
1070
   285
1070
     0
1070
   286
1070
     0
1070
   341
1005
3178
1070
   342
1005
3176
1002
}
  0
LWPOLYLINE
  5
3492
330
3123
100
AcDbEntity
  8
NOTE
100
AcDbPolyline
 90
        3
 70
     0
 43
0.0
 10
237.1354796031844
 20
1501.42916236212
 10
303.5642471064473
 20
1587.458259958036
 10
852.1471042493047
 20
1587.458259958036
1001
ACAD
1000
DSTYLE
1002
{
1070
    41
1040
12.0
1070
    42
1040
20.0
1070
    43
1040
200.0
1070
    44
1040
20.0
1070
    73
1070
     0
1070
    74
1070
     0
1070
    77
1070
     1
1070
    78
1070
     8
1070
   140
1040
64.0
1070
   147
1040
50.0
1070
   172
1070
     1
1070
   174
1070
     1
1070
   275
1070
     0
1070
   284
1070
     0
1070
   285
1070
     0
1070
   286
1070
     0
1070
   341
1005
3178
1070
   342
1005
3176
1002
}
  0
TEXT
  5
3493
330
3123
100
AcDbEntity
  8
NOTE
100
AcDbText
 10
357.3356756778756
 20
1605.458259958036
 30
0.0
 40
64.0
  1
4×φ15取付穴
 41
0.9
100
AcDbText
  0
LINE
  5
3494
330
3123
100
AcDbEntity
  8
NOTE
100
AcDbLine
 10
-420.1985536807608
 20
854.4311649000237
 30
0.0
 11
-420.1985536807608
 21
829.4311649000237
 31
0.0
  0
LINE
  5
3495
330
3123
100
AcDbEntity
  8
NOTE
100
AcDbLine
 10
-407.6985536807608
 20
841.9311649000237
 30
0.0
 11
-432.6985536807608
 21
841.9311649000237
 31
0.0
  0
LINE
  5
3496
330
3123
100
AcDbEntity
  8
NOTE
100
AcDbLine
 10
-420.1985536807608
 20
1504.431164900022
 30
0.0
 11
-420.1985536807608
 21
1479.431164900024
 31
0.0
  0
LINE
  5
3497
330
3123
100
AcDbEntity
  8
NOTE
100
AcDbLine
 10
-407.6985536807608
 20
1491.931164900023
 30
0.0
 11
-432.6985536807608
 21
1491.931164900023
 31
0.0
  0
LINE
  5
3498
330
3123
100
AcDbEntity
  8
NOTE
100
AcDbLine
 10
229.8014463192392
 20
1504.431164900022
 30
0.0
 11
229.8014463192392
 21
1479.431164900024
 31
0.0
  0
LINE
  5
3499
330
3123
100
AcDbEntity
  8
NOTE
100
AcDbLine
 10
242.3014463192392
 20
1491.931164900023
 30
0.0
 11
217.3014463192392
 21
1491.931164900023
 31
0.0
  0
LINE
  5
349A
330
3123
100
AcDbEntity
  8
OUTLINE
100
AcDbLine
 10
-388.6985536807608
 20
873.4311649000238
 30
0.0
 11
198.3014463192392
 21
873.4311649000238
 31
0.0
  0
LINE
  5
349B
330
3123
100
AcDbEntity
  8
OUTLINE
100
AcDbLine
 10
198.3014463192392
 20
873.4311649000238
 30
0.0
 11
198.3014463192392
 21
1460.431164900024
 31
0.0
  0
LINE
  5
349C
330
3123
100
AcDbEntity
  8
OUTLINE
100
AcDbLine
 10
198.3014463192392
 20
1460.431164900024
 30
0.0
 11
-388.6985536807608
 21
1460.431164900024
 31
0.0
  0
LINE
  5
349D
330
3123
100
AcDbEntity
  8
OUTLINE
100
AcDbLine
 10
-388.6985536807608
 20
1460.431164900024
 30
0.0
 11
-388.6985536807608
 21
873.4311649000238
 31
0.0
  0
LINE
  5
349E
330
3123
100
AcDbEntity
  8
OUTLINE
100
AcDbLine
 10
-440.1985536807607
 20
821.931164900022
 30
0.0
 11
249.8014463192429
 21
821.9311649000236
 31
0.0
  0
LINE
  5
34A0
330
3123
100
AcDbEntity
  8
OUTLINE
100
AcDbLine
 10
249.8014463192429
 20
821.9311649000236
 30
0.0
 11
249.8014463192374
 21
1511.931164900024
 31
0.0
  0
LINE
  5
34A3
330
3123
100
AcDbEntity
  8
OUTLINE
100
AcDbLine
 10
249.8014463192374
 20
1511.931164900024
 30
0.0
 11
-440.1985536807589
 21
1511.931164900024
 31
0.0
  0
LINE
  5
34A5
330
3123
100
AcDbEntity
  8
OUTLINE
100
AcDbLine
 10
-440.1985536807589
 20
1511.931164900024
 30
0.0
 11
-440.1985536807607
 21
821.931164900022
 31
0.0
  0
LINE
  5
34A6
330
3123
100
AcDbEntity
  8
DETAIL
100
AcDbLine
 39
50.0
 10
-388.6985536807608
 20
821.931164900022
 30
0.0
 11
-388.6985536807608
 21
816.9311649000217
 31
0.0
  0
LINE
  5
34A7
330
3123
100
AcDbEntity
  8
DETAIL
100
AcDbLine
 39
50.0
 10
-388.6985536807608
 20
816.9311649000217
 30
0.0
 11
198.3014463192392
 21
816.931164900021
 31
0.0
  0
LINE
  5
34A8
330
3123
100
AcDbEntity
  8
DETAIL
100
AcDbLine
 39
50.0
 10
198.3014463192392
 20
816.931164900021
 30
0.0
 11
198.3014463192392
 21
821.9311649000237
 31
0.0
  0
LINE
  5
34A9
330
3123
100
AcDbEntity
  8
OUTLINE
100
AcDbLine
 39
50.0
 10
-388.6985536807608
 20
821.931164900022
 30
0.0
 11
-388.6985536807608
 21
816.9311649000217
 31
0.0
  0
LINE
  5
34AA
330
3123
100
AcDbEntity
  8
OUTLINE
100
AcDbLine
 39
50.0
 10
-388.6985536807608
 20
816.9311649000217
 30
0.0
 11
198.3014463192392
 21
816.931164900021
 31
0.0
  0
LINE
  5
34AB
330
3123
100
AcDbEntity
  8
OUTLINE
100
AcDbLine
 39
50.0
 10
198.3014463192392
 20
816.931164900021
 30
0.0
 11
198.3014463192392
 21
821.9311649000237
 31
0.0
  0
LINE
  5
34AC
330
3123
100
AcDbEntity
  8
SIZE
100
AcDbLine
 10
-450.1985536807588
 20
1511.931164900024
 30
0.0
 11
-895.1013791629213
 21
1511.931164900024
 31
0.0
  0
LINE
  5
34AD
330
3123
100
AcDbEntity
  8
SIZE
100
AcDbLine
 10
-408.6985536807608
 20
816.9311649000217
 30
0.0
 11
-895.1013791629213
 21
816.9311649000224
 31
0.0
  0
LINE
  5
34AE
330
3123
100
AcDbEntity
  8
SIZE
100
AcDbLine
 10
-875.1013791629215
 20
1499.931164900024
 30
0.0
 11
-875.1013791629215
 21
828.9311649000222
 31
0.0
  0
INSERT
  5
34AF
330
3123
100
AcDbEntity
  8
SIZE
100
AcDbBlockReference
  2
_DOTBLANK
 10
-875.1013791629215
 20
1511.931164900024
 30
0.0
 41
12.0
 42
12.0
 43
12.0
 50
90.0
  0
INSERT
  5
34B0
330
3123
100
AcDbEntity
  8
SIZE
100
AcDbBlockReference
  2
_DOTBLANK
 10
-875.1013791629215
 20
816.9311649000224
 30
0.0
 41
12.0
 42
12.0
 43
12.0
 50
270.0
  0
MTEXT
  5
34B1
330
3123
100
AcDbEntity
  8
SIZE
100
AcDbMText
 10
-917.1013791629215
 20
1164.431164900021
 30
0.0
 40
64.0
 41
0.0
 46
0.0
 71
     5
 72
     1
  1
\A1;695
 11
0.0000000000000001
 21
1.0
 31
0.0
 73
     1
 44
1.0
  0
LINE
  5
34B2
330
3123
100
AcDbEntity
  8
SIZE
100
AcDbLine
 10
-440.1985536807589
 20
1521.931164900023
 30
0.0
 11
-440.1985536807589
 21
1814.388314369809
 31
0.0
  0
LINE
  5
34B3
330
3123
100
AcDbEntity
  8
SIZE
100
AcDbLine
 10
249.8014463192374
 20
1521.931164900027
 30
0.0
 11
249.8014463192374
 21
1814.388314369809
 31
0.0
  0
LINE
  5
34B4
330
3123
100
AcDbEntity
  8
SIZE
100
AcDbLine
 10
-428.1985536807589
 20
1794.388314369808
 30
0.0
 11
237.8014463192374
 21
1794.388314369808
 31
0.0
  0
INSERT
  5
34B5
330
3123
100
AcDbEntity
  8
SIZE
100
AcDbBlockReference
  2
_DOTBLANK
 10
-440.1985536807589
 20
1794.388314369808
 30
0.0
 41
12.0
 42
12.0
 43
12.0
 50
180.0
  0
INSERT
  5
34B6
330
3123
100
AcDbEntity
  8
SIZE
100
AcDbBlockReference
  2
_DOTBLANK
 10
249.8014463192374
 20
1794.388314369808
 30
0.0
 41
12.0
 42
12.0
 43
12.0
  0
MTEXT
  5
34B7
330
3123
100
AcDbEntity
  8
SIZE
100
AcDbMText
 10
-95.19855368076084
 20
1836.388314369808
 30
0.0
 40
64.0
 41
0.0
 46
0.0
 71
     5
 72
     1
  1
\A1;690
 73
     1
 44
1.0
  0
ENDSEC
  0
SECTION
  2
OBJECTS
  0
DICTIONARY
  5
30BB
330
0
100
AcDbDictionary
281
     1
  3
ACAD_COLOR
350
3119
  3
ACAD_GROUP
350
30BC
  3
ACAD_LAYOUT
350
3118
  3
ACAD_MATERIAL
350
30BF
  3
ACAD_MLEADERSTYLE
350
311C
  3
ACAD_MLINESTYLE
350
3115
  3
ACAD_PLOTSETTINGS
350
3117
  3
ACAD_PLOTSTYLENAME
350
30BD
  3
ACAD_SCALELIST
350
30E9
  3
ACAD_TABLESTYLE
350
311A
  3
ACAD_VISUALSTYLE
350
30D8
  3
ACDB_RECOMPOSE_DATA
350
330C
  3
AcDbVariableDictionary
350
3303
  3
AcmDictionary
350
32AF
  3
AMG
350
31FC
  3
AMGSNAPSETTINGS
350
32D7
  3
MAPISURF_MODULE
350
3544
  0
DICTIONARY
  5
33FF
330
30B1
100
AcDbDictionary
280
     1
281
     1
  3
ACAD_LAYERSTATES
360
3400
  0
DICTIONARY
  5
32DE
330
310B
100
AcDbDictionary
280
     1
281
     1
  3
ADSK_XREC_LAYER_RECONCILED
360
32DF
  0
DICTIONARY
  5
32E0
330
313A
100
AcDbDictionary
280
     1
281
     1
  3
ADSK_XREC_LAYER_RECONCILED
360
32E1
  0
DICTIONARY
  5
32E2
330
313B
100
AcDbDictionary
280
     1
281
     1
  3
ADSK_XREC_LAYER_RECONCILED
360
32E3
  0
DICTIONARY
  5
32E4
330
313C
100
AcDbDictionary
280
     1
281
     1
  3
ADSK_XREC_LAYER_RECONCILED
360
32E5
  0
DICTIONARY
  5
32E6
330
313D
100
AcDbDictionary
280
     1
281
     1
  3
ADSK_XREC_LAYER_RECONCILED
360
32E7
  0
DICTIONARY
  5
32E8
330
313E
100
AcDbDictionary
280
     1
281
     1
  3
ADSK_XREC_LAYER_RECONCILED
360
32E9
  0
DICTIONARY
  5
32EA
330
3140
100
AcDbDictionary
280
     1
281
     1
  3
ADSK_XREC_LAYER_RECONCILED
360
32EB
  0
DICTIONARY
  5
32EC
330
3141
100
AcDbDictionary
280
     1
281
     1
  3
ADSK_XREC_LAYER_RECONCILED
360
32ED
  0
DICTIONARY
  5
32EE
330
3142
100
AcDbDictionary
280
     1
281
     1
  3
ADSK_XREC_LAYER_RECONCILED
360
32EF
  0
DICTIONARY
  5
32F0
330
3143
100
AcDbDictionary
280
     1
281
     1
  3
ADSK_XREC_LAYER_RECONCILED
360
32F1
  0
DICTIONARY
  5
32F2
330
3144
100
AcDbDictionary
280
     1
281
     1
  3
ADSK_XREC_LAYER_RECONCILED
360
32F3
  0
DICTIONARY
  5
32F4
330
3123
100
AcDbDictionary
280
     1
281
     1
  3
ACAD_INDEX
360
32F5
  0
DICTIONARY
  5
3119
102
{ACAD_REACTORS
330
30BB
102
}
330
30BB
100
AcDbDictionary
281
     1
  0
DICTIONARY
  5
30BC
102
{ACAD_REACTORS
330
30BB
102
}
330
30BB
100
AcDbDictionary
281
     1
  0
DICTIONARY
  5
3118
102
{ACAD_REACTORS
330
30BB
102
}
330
30BB
100
AcDbDictionary
281
     1
  3
Model
350
3126
  3
レイアウト1
350
3122
  0
DICTIONARY
  5
30BF
102
{ACAD_REACTORS
330
30BB
102
}
330
30BB
100
AcDbDictionary
281
     1
  3
ByBlock
350
30C8
  3
ByLayer
350
30C0
  3
Global
350
30D0
  0
DICTIONARY
  5
311C
102
{ACAD_REACTORS
330
30BB
102
}
330
30BB
100
AcDbDictionary
281
     1
  3
Standard
350
311D
  0
DICTIONARY
  5
3115
102
{ACAD_REACTORS
330
30BB
102
}
330
30BB
100
AcDbDictionary
281
     1
  3
Standard
350
3116
  0
DICTIONARY
  5
3117
102
{ACAD_REACTORS
330
30BB
102
}
330
30BB
100
AcDbDictionary
281
     1
  0
ACDBDICTIONARYWDFLT
  5
30BD
102
{ACAD_REACTORS
330
30BB
102
}
330
30BB
100
AcDbDictionary
281
     1
  3
Normal
350
30BE
100
AcDbDictionaryWithDefault
340
30BE
  0
DICTIONARY
  5
30E9
102
{ACAD_REACTORS
330
30BB
102
}
330
30BB
100
AcDbDictionary
281
     1
  3
A0
350
30EA
  3
A1
350
30EB
  3
A2
350
30EC
  3
A3
350
30ED
  3
A4
350
30EE
  3
A5
350
30EF
  3
A6
350
30F0
  3
A7
350
30F1
  3
A8
350
30F2
  3
A9
350
30F3
  3
B0
350
30F4
  3
B1
350
30F5
  3
B2
350
30F6
  3
B3
350
30F7
  3
B4
350
30F8
  3
B5
350
30F9
  3
B6
350
30FA
  3
B7
350
30FB
  3
B8
350
30FC
  3
B9
350
30FD
  3
C0
350
30FE
  3
C1
350
30FF
  3
C2
350
3100
  3
C3
350
3101
  3
C4
350
3102
  3
C5
350
3103
  3
C6
350
3104
  3
C7
350
3105
  3
C8
350
3106
  3
C9
350
3107
  3
D0
350
3108
  3
D1
350
3109
  3
D2
350
310A
  0
DICTIONARY
  5
311A
102
{ACAD_REACTORS
330
30BB
102
}
330
30BB
100
AcDbDictionary
281
     1
  3
Standard
350
311B
  0
DICTIONARY
  5
30D8
102
{ACAD_REACTORS
330
30BB
102
}
330
30BB
100
AcDbDictionary
281
     1
  3
2dWireframe
350
30DE
  3
3D Hidden
350
30E0
  3
3dWireframe
350
30DF
  3
Basic
350
30DD
  3
Brighten
350
30E4
  3
ColorChange
350
30E8
  3
Conceptual
350
30E1
  3
Dim
350
30E3
  3
Facepattern
350
30E7
  3
Flat
350
30D9
  3
FlatWithEdges
350
30DA
  3
Gouraud
350
30DB
  3
GouraudWithEdges
350
30DC
  3
Linepattern
350
30E6
  3
Realistic
350
30E2
  3
Thicken
350
30E5
  0
XRECORD
  5
330C
102
{ACAD_REACTORS
330
30BB
102
}
330
30BB
100
AcDbXrecord
280
     1
 90
        1
330
311B
  0
DICTIONARY
  5
3303
102
{ACAD_REACTORS
330
30BB
102
}
330
30BB
100
AcDbDictionary
281
     1
  3
CANNOSCALE
350
3306
  3
CMLEADERSTYLE
350
3305
  3
CTABLESTYLE
350
3304
  3
DIMASSOC
350
3309
  3
INDEXCTL
350
3308
  3
LAYEREVAL
350
34BA
  3
LAYERNOTIFY
350
34BB
  3
LIGHTINGUNITS
350
34B9
  3
MSLTSCALE
350
34B8
  3
SORTENTS
350
3307
  0
DICTIONARY
  5
32AF
102
{ACAD_REACTORS
330
30BB
102
}
330
30BB
100
AcDbDictionary
281
     1
  3
AcmStdDictionary
350
32BD
  0
DICTIONARY
  5
31FC
102
{ACAD_REACTORS
330
30BB
102
}
330
30BB
100
AcDbDictionary
281
     1
  3
AcMgSettings
350
31FD
  3
AMGLAYCFG
350
3594
  0
DICTIONARY
  5
32D7
102
{ACAD_REACTORS
330
30BB
102
}
330
30BB
100
AcDbDictionary
281
     1
  3
DIMENSION
350
32DC
  3
FEA
350
32DB
  3
HATCH (1)
350
32D8
  3
HATCH (2)
350
32D9
  3
SIMPLE WELD
350
32DD
  3
SYMBOLS
350
32DA
  0
DICTIONARY
  5
3400
102
{ACAD_REACTORS
330
33FF
102
}
330
33FF
100
AcDbDictionary
281
     1
  0
XRECORD
  5
32DF
102
{ACAD_REACTORS
330
32DE
102
}
330
32DE
100
AcDbXrecord
280
     1
290
     1
  0
XRECORD
  5
32E1
102
{ACAD_REACTORS
330
32E0
102
}
330
32E0
100
AcDbXrecord
280
     1
290
     1
  0
XRECORD
  5
32E3
102
{ACAD_REACTORS
330
32E2
102
}
330
32E2
100
AcDbXrecord
280
     1
290
     1
  0
XRECORD
  5
32E5
102
{ACAD_REACTORS
330
32E4
102
}
330
32E4
100
AcDbXrecord
280
     1
290
     1
  0
XRECORD
  5
32E7
102
{ACAD_REACTORS
330
32E6
102
}
330
32E6
100
AcDbXrecord
280
     1
290
     1
  0
XRECORD
  5
32E9
102
{ACAD_REACTORS
330
32E8
102
}
330
32E8
100
AcDbXrecord
280
     1
290
     1
  0
XRECORD
  5
32EB
102
{ACAD_REACTORS
330
32EA
102
}
330
32EA
100
AcDbXrecord
280
     1
290
     1
  0
XRECORD
  5
32ED
102
{ACAD_REACTORS
330
32EC
102
}
330
32EC
100
AcDbXrecord
280
     1
290
     1
  0
XRECORD
  5
32EF
102
{ACAD_REACTORS
330
32EE
102
}
330
32EE
100
AcDbXrecord
280
     1
290
     1
  0
XRECORD
  5
32F1
102
{ACAD_REACTORS
330
32F0
102
}
330
32F0
100
AcDbXrecord
280
     1
290
     1
  0
XRECORD
  5
32F3
102
{ACAD_REACTORS
330
32F2
102
}
330
32F2
100
AcDbXrecord
280
     1
290
     1
  0
DICTIONARY
  5
32F5
102
{ACAD_REACTORS
330
32F4
102
}
330
32F4
100
AcDbDictionary
281
     1
  3
*A1
350
32F6
  0
LAYOUT
  5
3126
102
{ACAD_REACTORS
330
3118
102
}
330
3118
100
AcDbPlotSettings
  1

  2
自動 EPSON LP-9600S (W2450527 上)
  4

  6

 40
0.0
 41
0.0
 42
0.0
 43
0.0
 44
0.0
 45
0.0
 46
0.0
 47
0.0
 48
0.0
 49
0.0
140
0.0
141
0.0
142
1.0
143
1.0
 70
  1712
 72
     0
 73
     0
 74
     0
  7

 75
     0
147
1.0
 76
     0
 77
     2
 78
   300
148
0.0
149
0.0
100
AcDbLayout
  1
Model
 70
     1
 71
     0
 10
0.0
 20
0.0
 11
12.0
 21
9.0
 12
0.0
 22
0.0
 32
0.0
 14
0.0
 24
0.0
 34
0.0
 15
0.0
 25
0.0
 35
0.0
146
0.0
 13
0.0
 23
0.0
 33
0.0
 16
1.0
 26
0.0
 36
0.0
 17
0.0
 27
1.0
 37
0.0
 76
     0
330
3123
331
3127
  0
LAYOUT
  5
3122
102
{ACAD_REACTORS
330
3118
102
}
330
3118
100
AcDbPlotSettings
  1

  2
自動 EPSON LP-9600S (W2450527 上)
  4

  6

 40
0.0
 41
0.0
 42
0.0
 43
0.0
 44
0.0
 45
0.0
 46
0.0
 47
0.0
 48
0.0
 49
0.0
140
0.0
141
0.0
142
1.0
143
1.0
 70
   688
 72
     0
 73
     0
 74
     5
  7

 75
    16
147
1.0
 76
     0
 77
     2
 78
   300
148
0.0
149
0.0
100
AcDbLayout
  1
レイアウト1
 70
     1
 71
     1
 10
0.0
 20
0.0
 11
12.0
 21
9.0
 12
0.0
 22
0.0
 32
0.0
 14
1.000000000000000E+20
 24
1.000000000000000E+20
 34
1.000000000000000E+20
 15
-1.000000000000000E+20
 25
-1.000000000000000E+20
 35
-1.000000000000000E+20
146
0.0
 13
0.0
 23
0.0
 33
0.0
 16
1.0
 26
0.0
 36
0.0
 17
0.0
 27
1.0
 37
0.0
 76
     0
330
311F
  0
MATERIAL
  5
30C8
102
{ACAD_XDICTIONARY
360
30C9
102
}
102
{ACAD_REACTORS
330
30BF
102
}
330
30BF
100
AcDbMaterial
  1
ByBlock
 72
     0
 43
0.0208333333333333
 43
0.0
 43
0.0
 43
0.0
 43
0.0
 43
0.0208333333333333
 43
0.0
 43
0.0
 43
0.0
 43
0.0
 43
1.0
 43
0.0
 43
0.0
 43
0.0
 43
0.0
 43
1.0
 77
     0
 47
0.0208333333333333
 47
0.0
 47
0.0
 47
0.0
 47
0.0
 47
0.0208333333333333
 47
0.0
 47
0.0
 47
0.0
 47
0.0
 47
1.0
 47
0.0
 47
0.0
 47
0.0
 47
0.0
 47
1.0
171
     0
 49
0.0208333333333333
 49
0.0
 49
0.0
 49
0.0
 49
0.0
 49
0.0208333333333333
 49
0.0
 49
0.0
 49
0.0
 49
0.0
 49
1.0
 49
0.0
 49
0.0
 49
0.0
 49
0.0
 49
1.0
175
     0
142
0.0208333333333333
142
0.0
142
0.0
142
0.0
142
0.0
142
0.0208333333333333
142
0.0
142
0.0
142
0.0
142
0.0
142
1.0
142
0.0
142
0.0
142
0.0
142
0.0
142
1.0
179
     0
144
0.0208333333333333
144
0.0
144
0.0
144
0.0
144
0.0
144
0.0208333333333333
144
0.0
144
0.0
144
0.0
144
0.0
144
1.0
144
0.0
144
0.0
144
0.0
144
0.0
144
1.0
147
0.0208333333333333
147
0.0
147
0.0
147
0.0
147
0.0
147
0.0208333333333333
147
0.0
147
0.0
147
0.0
147
0.0
147
1.0
147
0.0
147
0.0
147
0.0
147
0.0
147
1.0
  0
MATERIAL
  5
30C0
102
{ACAD_XDICTIONARY
360
30C1
102
}
102
{ACAD_REACTORS
330
30BF
102
}
330
30BF
100
AcDbMaterial
  1
ByLayer
 72
     0
 43
0.0208333333333333
 43
0.0
 43
0.0
 43
0.0
 43
0.0
 43
0.0208333333333333
 43
0.0
 43
0.0
 43
0.0
 43
0.0
 43
1.0
 43
0.0
 43
0.0
 43
0.0
 43
0.0
 43
1.0
 77
     0
 47
0.0208333333333333
 47
0.0
 47
0.0
 47
0.0
 47
0.0
 47
0.0208333333333333
 47
0.0
 47
0.0
 47
0.0
 47
0.0
 47
1.0
 47
0.0
 47
0.0
 47
0.0
 47
0.0
 47
1.0
171
     0
 49
0.0208333333333333
 49
0.0
 49
0.0
 49
0.0
 49
0.0
 49
0.0208333333333333
 49
0.0
 49
0.0
 49
0.0
 49
0.0
 49
1.0
 49
0.0
 49
0.0
 49
0.0
 49
0.0
 49
1.0
175
     0
142
0.0208333333333333
142
0.0
142
0.0
142
0.0
142
0.0
142
0.0208333333333333
142
0.0
142
0.0
142
0.0
142
0.0
142
1.0
142
0.0
142
0.0
142
0.0
142
0.0
142
1.0
179
     0
144
0.0208333333333333
144
0.0
144
0.0
144
0.0
144
0.0
144
0.0208333333333333
144
0.0
144
0.0
144
0.0
144
0.0
144
1.0
144
0.0
144
0.0
144
0.0
144
0.0
144
1.0
147
0.0208333333333333
147
0.0
147
0.0
147
0.0
147
0.0
147
0.0208333333333333
147
0.0
147
0.0
147
0.0
147
0.0
147
1.0
147
0.0
147
0.0
147
0.0
147
0.0
147
1.0
  0
MATERIAL
  5
30D0
102
{ACAD_XDICTIONARY
360
30D1
102
}
102
{ACAD_REACTORS
330
30BF
102
}
330
30BF
100
AcDbMaterial
  1
Global
 72
     0
 43
0.0208333333333333
 43
0.0
 43
0.0
 43
0.0
 43
0.0
 43
0.0208333333333333
 43
0.0
 43
0.0
 43
0.0
 43
0.0
 43
1.0
 43
0.0
 43
0.0
 43
0.0
 43
0.0
 43
1.0
 77
     0
 47
0.0208333333333333
 47
0.0
 47
0.0
 47
0.0
 47
0.0
 47
0.0208333333333333
 47
0.0
 47
0.0
 47
0.0
 47
0.0
 47
1.0
 47
0.0
 47
0.0
 47
0.0
 47
0.0
 47
1.0
171
     0
 49
0.0208333333333333
 49
0.0
 49
0.0
 49
0.0
 49
0.0
 49
0.0208333333333333
 49
0.0
 49
0.0
 49
0.0
 49
0.0
 49
1.0
 49
0.0
 49
0.0
 49
0.0
 49
0.0
 49
1.0
175
     0
142
0.0208333333333333
142
0.0
142
0.0
142
0.0
142
0.0
142
0.0208333333333333
142
0.0
142
0.0
142
0.0
142
0.0
142
1.0
142
0.0
142
0.0
142
0.0
142
0.0
142
1.0
179
     0
144
0.0208333333333333
144
0.0
144
0.0
144
0.0
144
0.0
144
0.0208333333333333
144
0.0
144
0.0
144
0.0
144
0.0
144
1.0
144
0.0
144
0.0
144
0.0
144
0.0
144
1.0
147
0.0208333333333333
147
0.0
147
0.0
147
0.0
147
0.0
147
0.0208333333333333
147
0.0
147
0.0
147
0.0
147
0.0
147
1.0
147
0.0
147
0.0
147
0.0
147
0.0
147
1.0
  0
MLEADERSTYLE
  5
311D
102
{ACAD_REACTORS
330
311C
102
}
330
311C
100
AcDbMLeaderStyle
170
     2
171
     1
172
     0
 90
        2
 40
0.0
 41
0.0
173
     1
 91
-1056964608
340
3111
 92
       -2
290
     1
 42
0.09
291
     1
 43
0.36
  3
Standard
 44
0.18
300

342
310C
174
     1
178
     6
175
     1
176
     0
 93
-1056964608
 45
0.18
292
     0
297
     0
 46
0.18
 94
-1056964608
 47
1.0
 49
1.0
140
1.0
293
     1
141
0.0
294
     1
177
     0
142
1.0
295
     0
296
     0
143
0.125
1001
ACAD_MLEADERVER
1070
     2
  0
MLINESTYLE
  5
3116
102
{ACAD_REACTORS
330
3115
102
}
330
3115
100
AcDbMlineStyle
  2
STANDARD
 70
     0
  3

 62
   256
 51
90.0
 52
90.0
 71
     2
 49
0.5
 62
   256
  6
BYLAYER
 49
-0.5
 62
   256
  6
BYLAYER
  0
ACDBPLACEHOLDER
  5
30BE
102
{ACAD_REACTORS
330
30BD
102
}
330
30BD
  0
SCALE
  5
30EA
102
{ACAD_REACTORS
330
30E9
102
}
330
30E9
100
AcDbScale
 70
     0
300
1:1
140
1.0
141
1.0
290
     1
  0
SCALE
  5
30EB
102
{ACAD_REACTORS
330
30E9
102
}
330
30E9
100
AcDbScale
 70
     0
300
1:2
140
1.0
141
2.0
290
     0
  0
SCALE
  5
30EC
102
{ACAD_REACTORS
330
30E9
102
}
330
30E9
100
AcDbScale
 70
     0
300
1:4
140
1.0
141
4.0
290
     0
  0
SCALE
  5
30ED
102
{ACAD_REACTORS
330
30E9
102
}
330
30E9
100
AcDbScale
 70
     0
300
1:5
140
1.0
141
5.0
290
     0
  0
SCALE
  5
30EE
102
{ACAD_REACTORS
330
30E9
102
}
330
30E9
100
AcDbScale
 70
     0
300
1:8
140
1.0
141
8.0
290
     0
  0
SCALE
  5
30EF
102
{ACAD_REACTORS
330
30E9
102
}
330
30E9
100
AcDbScale
 70
     0
300
1:10
140
1.0
141
10.0
290
     0
  0
SCALE
  5
30F0
102
{ACAD_REACTORS
330
30E9
102
}
330
30E9
100
AcDbScale
 70
     0
300
1:16
140
1.0
141
16.0
290
     0
  0
SCALE
  5
30F1
102
{ACAD_REACTORS
330
30E9
102
}
330
30E9
100
AcDbScale
 70
     0
300
1:20
140
1.0
141
20.0
290
     0
  0
SCALE
  5
30F2
102
{ACAD_REACTORS
330
30E9
102
}
330
30E9
100
AcDbScale
 70
     0
300
1:30
140
1.0
141
30.0
290
     0
  0
SCALE
  5
30F3
102
{ACAD_REACTORS
330
30E9
102
}
330
30E9
100
AcDbScale
 70
     0
300
1:40
140
1.0
141
40.0
290
     0
  0
SCALE
  5
30F4
102
{ACAD_REACTORS
330
30E9
102
}
330
30E9
100
AcDbScale
 70
     0
300
1:50
140
1.0
141
50.0
290
     0
  0
SCALE
  5
30F5
102
{ACAD_REACTORS
330
30E9
102
}
330
30E9
100
AcDbScale
 70
     0
300
1:100
140
1.0
141
100.0
290
     0
  0
SCALE
  5
30F6
102
{ACAD_REACTORS
330
30E9
102
}
330
30E9
100
AcDbScale
 70
     0
300
2:1
140
2.0
141
1.0
290
     0
  0
SCALE
  5
30F7
102
{ACAD_REACTORS
330
30E9
102
}
330
30E9
100
AcDbScale
 70
     0
300
4:1
140
4.0
141
1.0
290
     0
  0
SCALE
  5
30F8
102
{ACAD_REACTORS
330
30E9
102
}
330
30E9
100
AcDbScale
 70
     0
300
8:1
140
8.0
141
1.0
290
     0
  0
SCALE
  5
30F9
102
{ACAD_REACTORS
330
30E9
102
}
330
30E9
100
AcDbScale
 70
     0
300
10:1
140
10.0
141
1.0
290
     0
  0
SCALE
  5
30FA
102
{ACAD_REACTORS
330
30E9
102
}
330
30E9
100
AcDbScale
 70
     0
300
100:1
140
100.0
141
1.0
290
     0
  0
SCALE
  5
30FB
102
{ACAD_REACTORS
330
30E9
102
}
330
30E9
100
AcDbScale
 70
     0
300
1/128" = 1'-0"
140
0.0078125
141
12.0
290
     0
  0
SCALE
  5
30FC
102
{ACAD_REACTORS
330
30E9
102
}
330
30E9
100
AcDbScale
 70
     0
300
1/64" = 1'-0"
140
0.015625
141
12.0
290
     0
  0
SCALE
  5
30FD
102
{ACAD_REACTORS
330
30E9
102
}
330
30E9
100
AcDbScale
 70
     0
300
1/32" = 1'-0"
140
0.03125
141
12.0
290
     0
  0
SCALE
  5
30FE
102
{ACAD_REACTORS
330
30E9
102
}
330
30E9
100
AcDbScale
 70
     0
300
1/16" = 1'-0"
140
0.0625
141
12.0
290
     0
  0
SCALE
  5
30FF
102
{ACAD_REACTORS
330
30E9
102
}
330
30E9
100
AcDbScale
 70
     0
300
3/32" = 1'-0"
140
0.09375
141
12.0
290
     0
  0
SCALE
  5
3100
102
{ACAD_REACTORS
330
30E9
102
}
330
30E9
100
AcDbScale
 70
     0
300
1/8" = 1'-0"
140
0.125
141
12.0
290
     0
  0
SCALE
  5
3101
102
{ACAD_REACTORS
330
30E9
102
}
330
30E9
100
AcDbScale
 70
     0
300
3/16" = 1'-0"
140
0.1875
141
12.0
290
     0
  0
SCALE
  5
3102
102
{ACAD_REACTORS
330
30E9
102
}
330
30E9
100
AcDbScale
 70
     0
300
1/4" = 1'-0"
140
0.25
141
12.0
290
     0
  0
SCALE
  5
3103
102
{ACAD_REACTORS
330
30E9
102
}
330
30E9
100
AcDbScale
 70
     0
300
3/8" = 1'-0"
140
0.375
141
12.0
290
     0
  0
SCALE
  5
3104
102
{ACAD_REACTORS
330
30E9
102
}
330
30E9
100
AcDbScale
 70
     0
300
1/2" = 1'-0"
140
0.5
141
12.0
290
     0
  0
SCALE
  5
3105
102
{ACAD_REACTORS
330
30E9
102
}
330
30E9
100
AcDbScale
 70
     0
300
3/4" = 1'-0"
140
0.75
141
12.0
290
     0
  0
SCALE
  5
3106
102
{ACAD_REACTORS
330
30E9
102
}
330
30E9
100
AcDbScale
 70
     0
300
1" = 1'-0"
140
1.0
141
12.0
290
     0
  0
SCALE
  5
3107
102
{ACAD_REACTORS
330
30E9
102
}
330
30E9
100
AcDbScale
 70
     0
300
1-1/2" = 1'-0"
140
1.5
141
12.0
290
     0
  0
SCALE
  5
3108
102
{ACAD_REACTORS
330
30E9
102
}
330
30E9
100
AcDbScale
 70
     0
300
3" = 1'-0"
140
3.0
141
12.0
290
     0
  0
SCALE
  5
3109
102
{ACAD_REACTORS
330
30E9
102
}
330
30E9
100
AcDbScale
 70
     0
300
6" = 1'-0"
140
6.0
141
12.0
290
     0
  0
SCALE
  5
310A
102
{ACAD_REACTORS
330
30E9
102
}
330
30E9
100
AcDbScale
 70
     0
300
1'-0" = 1'-0"
140
12.0
141
12.0
290
     0
  0
TABLESTYLE
  5
311B
102
{ACAD_XDICTIONARY
360
330A
102
}
102
{ACAD_REACTORS
330
311A
102
}
330
311A
100
AcDbTableStyle
  3
Standard
 70
     0
 71
     0
 40
0.06
 41
0.06
280
     0
281
     0
  7
STANDARD
140
0.18
170
     2
 62
     0
 63
     7
283
     0
 90
      512
 91
        0
  1

274
    -2
284
     1
 64
     0
275
    -2
285
     1
 65
     0
276
    -2
286
     1
 66
     0
277
    -2
287
     1
 67
     0
278
    -2
288
     1
 68
     0
279
    -2
289
     1
 69
     0
  7
STANDARD
140
0.25
170
     5
 62
     0
 63
     7
283
     0
 90
      512
 91
        0
  1

274
    -2
284
     1
 64
     0
275
    -2
285
     1
 65
     0
276
    -2
286
     1
 66
     0
277
    -2
287
     1
 67
     0
278
    -2
288
     1
 68
     0
279
    -2
289
     1
 69
     0
  7
STANDARD
140
0.18
170
     5
 62
     0
 63
     7
283
     0
 90
      512
 91
        0
  1

274
    -2
284
     1
 64
     0
275
    -2
285
     1
 65
     0
276
    -2
286
     1
 66
     0
277
    -2
287
     1
 67
     0
278
    -2
288
     1
 68
     0
279
    -2
289
     1
 69
     0
  0
VISUALSTYLE
  5
30DE
102
{ACAD_REACTORS
330
30D8
102
}
330
30D8
100
AcDbVisualStyle
  2
2dWireframe
 70
     4
 71
     0
 72
     2
 73
     0
 90
        0
 40
-0.6
 41
-30.0
 62
     5
 63
     7
 74
     1
 91
        4
 64
     7
 65
   257
 75
     1
175
     1
 42
1.0
 92
        0
 66
   257
 43
1.0
 76
     1
 77
     6
 78
     2
 67
     7
 79
     5
170
     0
171
     0
290
     0
174
     0
 93
        1
 44
0.0
173
     0
291
     0
 45
0.0
1001
ACAD
1000
AcDbSavedByObjectVersion
1070
     0
  0
VISUALSTYLE
  5
30E0
102
{ACAD_REACTORS
330
30D8
102
}
330
30D8
100
AcDbVisualStyle
  2
3D Hidden
 70
     6
 71
     1
 72
     2
 73
     2
 90
        0
 40
-0.6
 41
-30.0
 62
     5
 63
     7
 74
     2
 91
        2
 64
     7
 65
   257
 75
     2
175
     1
 42
40.0
 92
        0
 66
   257
 43
1.0
 76
     1
 77
     6
 78
     2
 67
     7
 79
     3
170
     0
171
     0
290
     0
174
     0
 93
        1
 44
0.0
173
     0
291
     0
 45
0.0
1001
ACAD
1000
AcDbSavedByObjectVersion
1070
     0
  0
VISUALSTYLE
  5
30DF
102
{ACAD_REACTORS
330
30D8
102
}
330
30D8
100
AcDbVisualStyle
  2
3dWireframe
 70
     5
 71
     0
 72
     2
 73
     0
 90
        0
 40
-0.6
 41
-30.0
 62
     5
 63
     7
 74
     1
 91
        4
 64
     7
 65
   257
 75
     1
175
     1
 42
1.0
 92
        0
 66
   257
 43
1.0
 76
     1
 77
     6
 78
     2
 67
     7
 79
     5
170
     0
171
     0
290
     0
174
     0
 93
        1
 44
0.0
173
     0
291
     0
 45
0.0
1001
ACAD
1000
AcDbSavedByObjectVersion
1070
     0
  0
VISUALSTYLE
  5
30DD
102
{ACAD_REACTORS
330
30D8
102
}
330
30D8
100
AcDbVisualStyle
  2
Basic
 70
     7
 71
     1
 72
     0
 73
     1
 90
        0
 40
-0.6
 41
-30.0
 62
     5
 63
     7
 74
     0
 91
        4
 64
     7
 65
   257
 75
     1
175
     1
 42
1.0
 92
        8
 66
     7
 43
1.0
 76
     1
 77
     6
 78
     2
 67
     7
 79
     5
170
     0
171
     0
290
     0
174
     0
 93
        1
 44
0.0
173
     0
291
     1
 45
0.0
1001
ACAD
1000
AcDbSavedByObjectVersion
1070
     0
  0
VISUALSTYLE
  5
30E4
102
{ACAD_REACTORS
330
30D8
102
}
330
30D8
100
AcDbVisualStyle
  2
Brighten
 70
    12
 71
     2
 72
     2
 73
     0
 90
        0
 40
-0.6
 41
-30.0
 62
     5
 63
     7
 74
     1
 91
        4
 64
     7
 65
   257
 75
     1
175
     1
 42
1.0
 92
        8
 66
     7
 43
1.0
 76
     1
 77
     6
 78
     2
 67
     7
 79
     5
170
     0
171
     0
290
     0
174
     0
 93
        1
 44
50.0
173
     0
291
     1
 45
0.0
1001
ACAD
1000
AcDbSavedByObjectVersion
1070
     0
  0
VISUALSTYLE
  5
30E8
102
{ACAD_REACTORS
330
30D8
102
}
330
30D8
100
AcDbVisualStyle
  2
ColorChange
 70
    16
 71
     2
 72
     2
 73
     3
 90
        0
 40
-0.6
 41
-30.0
 62
     5
 63
     8
 74
     1
 91
        4
 64
     7
 65
   257
 75
     1
175
     1
 42
1.0
 92
        8
 66
     8
 43
1.0
 76
     1
 77
     6
 78
     2
 67
     7
 79
     5
170
     0
171
     0
290
     0
174
     0
 93
        1
 44
0.0
173
     0
291
     1
 45
0.0
1001
ACAD
1000
AcDbSavedByObjectVersion
1070
     0
  0
VISUALSTYLE
  5
30E1
102
{ACAD_REACTORS
330
30D8
102
}
330
30D8
100
AcDbVisualStyle
  2
Conceptual
 70
     9
 71
     3
 72
     2
 73
     0
 90
        0
 40
-0.6
 41
-30.0
 62
     5
 63
     7
 74
     2
 91
        2
 64
     7
 65
   257
 75
     1
175
     1
 42
40.0
 92
        8
 66
     7
 43
1.0
 76
     1
 77
     6
 78
     2
 67
     7
 79
     3
170
     0
171
     0
290
     0
174
     0
 93
        1
 44
0.0
173
     0
291
     0
 45
0.0
1001
ACAD
1000
AcDbSavedByObjectVersion
1070
     0
  0
VISUALSTYLE
  5
30E3
102
{ACAD_REACTORS
330
30D8
102
}
330
30D8
100
AcDbVisualStyle
  2
Dim
 70
    11
 71
     2
 72
     2
 73
     0
 90
        0
 40
-0.6
 41
-30.0
 62
     5
 63
     7
 74
     1
 91
        4
 64
     7
 65
   257
 75
     1
175
     1
 42
1.0
 92
        8
 66
     7
 43
1.0
 76
     1
 77
     6
 78
     2
 67
     7
 79
     5
170
     0
171
     0
290
     0
174
     0
 93
        1
 44
-50.0
173
     0
291
     1
 45
0.0
1001
ACAD
1000
AcDbSavedByObjectVersion
1070
     0
  0
VISUALSTYLE
  5
30E7
102
{ACAD_REACTORS
330
30D8
102
}
330
30D8
100
AcDbVisualStyle
  2
Facepattern
 70
    15
 71
     2
 72
     2
 73
     0
 90
        0
 40
-0.6
 41
-30.0
 62
     5
 63
     7
 74
     1
 91
        4
 64
     7
 65
   257
 75
     1
175
     1
 42
1.0
 92
        8
 66
     7
 43
1.0
 76
     1
 77
     6
 78
     2
 67
     7
 79
     5
170
     0
171
     0
290
     0
174
     0
 93
        1
 44
0.0
173
     0
291
     1
 45
0.0
1001
ACAD
1000
AcDbSavedByObjectVersion
1070
     0
  0
VISUALSTYLE
  5
30D9
102
{ACAD_REACTORS
330
30D8
102
}
330
30D8
100
AcDbVisualStyle
  2
Flat
 70
     0
 71
     2
 72
     1
 73
     1
 90
        2
 40
-0.6
 41
30.0
 62
     5
 63
     7
 74
     0
 91
        4
 64
     7
 65
   257
 75
     1
175
     1
 42
1.0
 92
        8
 66
     7
 43
1.0
 76
     1
 77
     6
 78
     2
 67
     7
 79
     5
170
     0
171
     0
290
     0
174
     0
 93
       13
 44
0.0
173
     0
291
     1
 45
0.0
1001
ACAD
1000
AcDbSavedByObjectVersion
1070
     0
  0
VISUALSTYLE
  5
30DA
102
{ACAD_REACTORS
330
30D8
102
}
330
30D8
100
AcDbVisualStyle
  2
FlatWithEdges
 70
     1
 71
     2
 72
     1
 73
     1
 90
        2
 40
-0.6
 41
30.0
 62
     5
 63
     7
 74
     1
 91
        4
 64
     7
 65
   257
 75
     1
175
     1
 42
1.0
 92
        0
 66
   257
 43
1.0
 76
     1
 77
     6
 78
     2
 67
     7
 79
     5
170
     0
171
     0
290
     0
174
     0
 93
       13
 44
0.0
173
     0
291
     1
 45
0.0
1001
ACAD
1000
AcDbSavedByObjectVersion
1070
     0
  0
VISUALSTYLE
  5
30DB
102
{ACAD_REACTORS
330
30D8
102
}
330
30D8
100
AcDbVisualStyle
  2
Gouraud
 70
     2
 71
     2
 72
     2
 73
     1
 90
        2
 40
-0.6
 41
30.0
 62
     5
 63
     7
 74
     0
 91
        4
 64
     7
 65
   257
 75
     1
175
     1
 42
1.0
 92
        0
 66
     7
 43
1.0
 76
     1
 77
     6
 78
     2
 67
     7
 79
     5
170
     0
171
     0
290
     0
174
     0
 93
       13
 44
0.0
173
     0
291
     1
 45
0.0
1001
ACAD
1000
AcDbSavedByObjectVersion
1070
     0
  0
VISUALSTYLE
  5
30DC
102
{ACAD_REACTORS
330
30D8
102
}
330
30D8
100
AcDbVisualStyle
  2
GouraudWithEdges
 70
     3
 71
     2
 72
     2
 73
     1
 90
        2
 40
-0.6
 41
30.0
 62
     5
 63
     7
 74
     1
 91
        4
 64
     7
 65
   257
 75
     1
175
     1
 42
1.0
 92
        0
 66
   257
 43
1.0
 76
     1
 77
     6
 78
     2
 67
     7
 79
     5
170
     0
171
     0
290
     0
174
     0
 93
       13
 44
0.0
173
     0
291
     1
 45
0.0
1001
ACAD
1000
AcDbSavedByObjectVersion
1070
     0
  0
VISUALSTYLE
  5
30E6
102
{ACAD_REACTORS
330
30D8
102
}
330
30D8
100
AcDbVisualStyle
  2
Linepattern
 70
    14
 71
     2
 72
     2
 73
     0
 90
        0
 40
-0.6
 41
-30.0
 62
     5
 63
     7
 74
     1
 91
        4
 64
     7
 65
   257
 75
     7
175
     7
 42
1.0
 92
        8
 66
     7
 43
1.0
 76
     1
 77
     6
 78
     2
 67
     7
 79
     5
170
     0
171
     0
290
     0
174
     0
 93
        1
 44
0.0
173
     0
291
     1
 45
0.0
1001
ACAD
1000
AcDbSavedByObjectVersion
1070
     0
  0
VISUALSTYLE
  5
30E2
102
{ACAD_REACTORS
330
30D8
102
}
330
30D8
100
AcDbVisualStyle
  2
Realistic
 70
     8
 71
     2
 72
     2
 73
     0
 90
        0
 40
-0.6
 41
-30.0
 62
     5
 63
     7
 74
     1
 91
        0
 64
     7
 65
   257
 75
     1
175
     1
 42
1.0
 92
        8
 66
     8
 43
1.0
 76
     1
 77
     6
 78
     2
 67
     7
 79
     5
170
     0
171
     0
290
     0
174
     0
 93
       13
 44
0.0
173
     0
291
     0
 45
0.0
1001
ACAD
1000
AcDbSavedByObjectVersion
1070
     0
  0
VISUALSTYLE
  5
30E5
102
{ACAD_REACTORS
330
30D8
102
}
330
30D8
100
AcDbVisualStyle
  2
Thicken
 70
    13
 71
     2
 72
     2
 73
     0
 90
        0
 40
-0.6
 41
-30.0
 62
     5
 63
     7
 74
     1
 91
        4
 64
     7
 65
   257
 75
     1
175
     1
 42
1.0
 92
       12
 66
     7
 43
1.0
 76
     1
 77
     6
 78
     2
 67
     7
 79
     5
170
     0
171
     0
290
     0
174
     0
 93
        1
 44
0.0
173
     0
291
     1
 45
0.0
1001
ACAD
1000
AcDbSavedByObjectVersion
1070
     0
  0
DICTIONARYVAR
  5
3306
102
{ACAD_REACTORS
330
3303
102
}
330
3303
100
DictionaryVariables
280
     0
  1
1:1
  0
DICTIONARYVAR
  5
3305
102
{ACAD_REACTORS
330
3303
102
}
330
3303
100
DictionaryVariables
280
     0
  1
STANDARD
  0
DICTIONARYVAR
  5
3304
102
{ACAD_REACTORS
330
3303
102
}
330
3303
100
DictionaryVariables
280
     0
  1
STANDARD
  0
DICTIONARYVAR
  5
3309
102
{ACAD_REACTORS
330
3303
102
}
330
3303
100
DictionaryVariables
280
     0
  1
1
  0
DICTIONARYVAR
  5
3308
102
{ACAD_REACTORS
330
3303
102
}
330
3303
100
DictionaryVariables
280
     0
  1
1
  0
DICTIONARYVAR
  5
34BA
102
{ACAD_REACTORS
330
3303
102
}
330
3303
100
DictionaryVariables
280
     0
  1
1
  0
DICTIONARYVAR
  5
34BB
102
{ACAD_REACTORS
330
3303
102
}
330
3303
100
DictionaryVariables
280
     0
  1
15
  0
DICTIONARYVAR
  5
34B9
102
{ACAD_REACTORS
330
3303
102
}
330
3303
100
DictionaryVariables
280
     0
  1
0
  0
DICTIONARYVAR
  5
34B8
102
{ACAD_REACTORS
330
3303
102
}
330
3303
100
DictionaryVariables
280
     0
  1
0
  0
DICTIONARYVAR
  5
3307
102
{ACAD_REACTORS
330
3303
102
}
330
3303
100
DictionaryVariables
280
     0
  1
127
  0
DICTIONARY
  5
32BD
102
{ACAD_REACTORS
330
32AF
102
}
330
32AF
100
AcDbDictionary
281
     1
  0
DICTIONARY
  5
31FD
102
{ACAD_REACTORS
330
31FC
102
}
330
31FC
100
AcDbDictionary
281
     1
  3
DWGSETTINGS
350
34C6
  3
TRANSSETTINGS
350
34C7
  0
ACAMGFILTERDAT
  5
32DC
102
{ACAD_REACTORS
330
32D7
102
}
330
32D7
100
AcAmgFilterDat
 70
    15
  1
DIMENSION,AMDT_*_DIM
  2
*
  3
*
  4
*
  5
*
290
     1
  0
ACAMGFILTERDAT
  5
32DB
102
{ACAD_REACTORS
330
32D7
102
}
330
32D7
100
AcAmgFilterDat
 70
    15
  1
*
  2
AM_FEA-AM_*
  3
*
  4
*
  5
*
290
     1
  0
ACAMGFILTERDAT
  5
32D8
102
{ACAD_REACTORS
330
32D7
102
}
330
32D7
100
AcAmgFilterDat
 70
    15
  1
HATCH
  2
*
  3
*
  4
*
  5
*
290
     1
  0
ACAMGFILTERDAT
  5
32D9
102
{ACAD_REACTORS
330
32D7
102
}
330
32D7
100
AcAmgFilterDat
 70
    15
  1
LINE
  2
8,8N,*-8,*-8N,AM_8,AM_8N,*-AM_8,*-AM_8N
  3
*
  4
*
  5
INSERT,STDPART2D
290
     1
  0
ACAMGFILTERDAT
  5
32DD
102
{ACAD_REACTORS
330
32D7
102
}
330
32D7
100
AcAmgFilterDat
 70
    15
  1
ARC
  2
AM_5
  3
*
  4
2
  5
INSERT
290
     0
  0
ACAMGFILTERDAT
  5
32DA
102
{ACAD_REACTORS
330
32D7
102
}
330
32D7
100
AcAmgFilterDat
 70
    15
  1
ACMFCFRAME,ACMDATUMTARGET,ACMDATUMID,ACMWELDSYM,ACMSURFSYM,ACMFEATID,ACMPARTREF,ACMBALLOON,AMDTEDGESYM,AMGSCREWCALCTABLE,ACMMARKSTAMP
  2
*
  3
*
  4
*
  5
*
290
     1
  0
LAYER_INDEX
  5
32F6
102
{ACAD_REACTORS
330
32F5
102
}
330
32F5
100
AcDbIndex
 40
2457472.713635787
100
AcDbLayerIndex
  8
0
360
32F7
 90
        0
  8
OUTLINE
360
32F8
 90
       17
  8
SIZE
360
32F9
 90
       36
  8
BASIS
360
32FA
 90
        2
  8
DETAIL
360
32FB
 90
       11
  8
ARRANGE
360
32FC
 90
        2
  8
DEFPOINTS
360
32FD
 90
        0
  8
ETC
360
32FE
 90
        3
  8
FIX
360
32FF
 90
        4
  8
NOTE
360
3300
 90
       11
  8
SERVICESPACE
360
3301
 90
        0
  8
SYMBOLLINE
360
3302
 90
        0
  0
DICTIONARY
  5
30C9
330
30C8
100
AcDbDictionary
280
     1
281
     1
  3
ACAD_XREC_ROUNDTRIP
360
3314
  3
BUMPTILE
360
30CB
  3
DIFFUSETILE
360
30CA
  3
OPACITYTILE
360
30CE
  3
REFLECTIONTILE
360
30CD
  3
REFRACTIONTILE
360
30CF
  3
SPECULARTILE
360
30CC
  0
DICTIONARY
  5
30C1
330
30C0
100
AcDbDictionary
280
     1
281
     1
  3
ACAD_XREC_ROUNDTRIP
360
3313
  3
BUMPTILE
360
30C3
  3
DIFFUSETILE
360
30C2
  3
OPACITYTILE
360
30C6
  3
REFLECTIONTILE
360
30C5
  3
REFRACTIONTILE
360
30C7
  3
SPECULARTILE
360
30C4
  0
DICTIONARY
  5
30D1
330
30D0
100
AcDbDictionary
280
     1
281
     1
  3
ACAD_XREC_ROUNDTRIP
360
3315
  3
BUMPTILE
360
30D3
  3
DIFFUSETILE
360
30D2
  3
OPACITYTILE
360
30D6
  3
REFLECTIONTILE
360
30D5
  3
REFRACTIONTILE
360
30D7
  3
SPECULARTILE
360
30D4
  0
DICTIONARY
  5
330A
330
311B
100
AcDbDictionary
280
     1
281
     1
  3
ACAD_ROUNDTRIP_2008_TABLESTYLE_CELLSTYLEMAP
360
35A2
  0
IDBUFFER
  5
32F7
330
0
100
AcDbIdBuffer
  0
IDBUFFER
  5
32F8
330
0
100
AcDbIdBuffer
330
953
330
954
330
955
330
956
330
957
330
958
330
349A
330
349B
330
349C
330
349D
330
349E
330
34A0
330
34A3
330
34A5
330
34A9
330
34AA
330
34AB
  0
IDBUFFER
  5
32F9
330
0
100
AcDbIdBuffer
330
3463
330
3464
330
3465
330
3466
330
3467
330
3468
330
3469
330
346A
330
346B
330
346C
330
346D
330
346E
330
346F
330
3470
330
3471
330
3472
330
3473
330
3474
330
348B
330
348C
330
348D
330
348E
330
348F
330
3490
330
34AC
330
34AD
330
34AE
330
34AF
330
34B0
330
34B1
330
34B2
330
34B3
330
34B4
330
34B5
330
34B6
330
34B7
  0
IDBUFFER
  5
32FA
330
0
100
AcDbIdBuffer
330
3477
330
3478
  0
IDBUFFER
  5
32FB
330
0
100
AcDbIdBuffer
330
3479
330
347A
330
347B
330
347C
330
347D
330
347E
330
3481
330
3483
330
34A6
330
34A7
330
34A8
  0
IDBUFFER
  5
32FC
330
0
100
AcDbIdBuffer
330
3475
330
3476
  0
IDBUFFER
  5
32FD
330
0
100
AcDbIdBuffer
  0
IDBUFFER
  5
32FE
330
0
100
AcDbIdBuffer
330
3460
330
3461
330
3462
  0
IDBUFFER
  5
32FF
330
0
100
AcDbIdBuffer
330
3485
330
3488
330
3489
330
348A
  0
IDBUFFER
  5
3300
330
0
100
AcDbIdBuffer
330
3486
330
3487
330
3491
330
3492
330
3493
330
3494
330
3495
330
3496
330
3497
330
3498
330
3499
  0
IDBUFFER
  5
3301
330
0
100
AcDbIdBuffer
  0
IDBUFFER
  5
3302
330
0
100
AcDbIdBuffer
  0
XRECORD
  5
3314
102
{ACAD_REACTORS
330
30C9
102
}
330
30C9
100
AcDbXrecord
280
     1
102
MATERIAL
148
0.0
149
0.0
149
0.0
 93
        0
 94
      127
282
     0
 72
     0
 77
     0
171
     0
175
     0
179
     0
273
     0
  0
XRECORD
  5
30CB
102
{ACAD_REACTORS
330
30C9
102
}
330
30C9
100
AcDbXrecord
280
     1
270
     1
271
     1
  0
XRECORD
  5
30CA
102
{ACAD_REACTORS
330
30C9
102
}
330
30C9
100
AcDbXrecord
280
     1
270
     1
271
     1
  0
XRECORD
  5
30CE
102
{ACAD_REACTORS
330
30C9
102
}
330
30C9
100
AcDbXrecord
280
     1
270
     1
271
     1
  0
XRECORD
  5
30CD
102
{ACAD_REACTORS
330
30C9
102
}
330
30C9
100
AcDbXrecord
280
     1
270
     1
271
     1
  0
XRECORD
  5
30CF
102
{ACAD_REACTORS
330
30C9
102
}
330
30C9
100
AcDbXrecord
280
     1
270
     1
271
     1
  0
XRECORD
  5
30CC
102
{ACAD_REACTORS
330
30C9
102
}
330
30C9
100
AcDbXrecord
280
     1
270
     1
271
     1
  0
XRECORD
  5
3313
102
{ACAD_REACTORS
330
30C1
102
}
330
30C1
100
AcDbXrecord
280
     1
102
MATERIAL
148
0.0
149
0.0
149
0.0
 93
        0
 94
      127
282
     0
 72
     0
 77
     0
171
     0
175
     0
179
     0
273
     0
  0
XRECORD
  5
30C3
102
{ACAD_REACTORS
330
30C1
102
}
330
30C1
100
AcDbXrecord
280
     1
270
     1
271
     1
  0
XRECORD
  5
30C2
102
{ACAD_REACTORS
330
30C1
102
}
330
30C1
100
AcDbXrecord
280
     1
270
     1
271
     1
  0
XRECORD
  5
30C6
102
{ACAD_REACTORS
330
30C1
102
}
330
30C1
100
AcDbXrecord
280
     1
270
     1
271
     1
  0
XRECORD
  5
30C5
102
{ACAD_REACTORS
330
30C1
102
}
330
30C1
100
AcDbXrecord
280
     1
270
     1
271
     1
  0
XRECORD
  5
30C7
102
{ACAD_REACTORS
330
30C1
102
}
330
30C1
100
AcDbXrecord
280
     1
270
     1
271
     1
  0
XRECORD
  5
30C4
102
{ACAD_REACTORS
330
30C1
102
}
330
30C1
100
AcDbXrecord
280
     1
270
     1
271
     1
  0
XRECORD
  5
3315
102
{ACAD_REACTORS
330
30D1
102
}
330
30D1
100
AcDbXrecord
280
     1
102
MATERIAL
148
0.0
149
0.0
149
0.0
 93
        0
 94
      127
282
     0
 72
     0
 77
     0
171
     0
175
     0
179
     0
273
     0
  0
XRECORD
  5
30D3
102
{ACAD_REACTORS
330
30D1
102
}
330
30D1
100
AcDbXrecord
280
     1
270
     1
271
     1
  0
XRECORD
  5
30D2
102
{ACAD_REACTORS
330
30D1
102
}
330
30D1
100
AcDbXrecord
280
     1
270
     1
271
     1
  0
XRECORD
  5
30D6
102
{ACAD_REACTORS
330
30D1
102
}
330
30D1
100
AcDbXrecord
280
     1
270
     1
271
     1
  0
XRECORD
  5
30D5
102
{ACAD_REACTORS
330
30D1
102
}
330
30D1
100
AcDbXrecord
280
     1
270
     1
271
     1
  0
XRECORD
  5
30D7
102
{ACAD_REACTORS
330
30D1
102
}
330
30D1
100
AcDbXrecord
280
     1
270
     1
271
     1
  0
XRECORD
  5
30D4
102
{ACAD_REACTORS
330
30D1
102
}
330
30D1
100
AcDbXrecord
280
     1
270
     1
271
     1
  0
CELLSTYLEMAP
  5
35A2
102
{ACAD_REACTORS
330
330A
102
}
330
330A
100
AcDbCellStyleMap
 90
        3
300
CELLSTYLE
  1
TABLEFORMAT_BEGIN
 90
        5
170
     1
 91
        0
 92
    32768
 62
   257
 93
        1
300
CONTENTFORMAT
  1
CONTENTFORMAT_BEGIN
 90
        0
 91
        0
 92
      512
 93
        0
300

 40
0.0
140
1.0
 94
        5
 62
     0
340
310C
144
0.25
309
CONTENTFORMAT_END
171
     1
301
MARGIN
  1
CELLMARGIN_BEGIN
 40
0.06
 40
0.06
 40
0.06
 40
0.06
 40
0.18
 40
0.18
309
CELLMARGIN_END
 94
        6
 95
        1
302
GRIDFORMAT
  1
GRIDFORMAT_BEGIN
 90
        0
 91
        1
 62
     0
 92
       -2
340
0
 93
        0
 40
0.045
309
GRIDFORMAT_END
 95
        2
302
GRIDFORMAT
  1
GRIDFORMAT_BEGIN
 90
        0
 91
        1
 62
     0
 92
       -2
340
0
 93
        0
 40
0.045
309
GRIDFORMAT_END
 95
        4
302
GRIDFORMAT
  1
GRIDFORMAT_BEGIN
 90
        0
 91
        1
 62
     0
 92
       -2
340
0
 93
        0
 40
0.045
309
GRIDFORMAT_END
 95
        8
302
GRIDFORMAT
  1
GRIDFORMAT_BEGIN
 90
        0
 91
        1
 62
     0
 92
       -2
340
0
 93
        0
 40
0.045
309
GRIDFORMAT_END
 95
       16
302
GRIDFORMAT
  1
GRIDFORMAT_BEGIN
 90
        0
 91
        1
 62
     0
 92
       -2
340
0
 93
        0
 40
0.045
309
GRIDFORMAT_END
 95
       32
302
GRIDFORMAT
  1
GRIDFORMAT_BEGIN
 90
        0
 91
        1
 62
     0
 92
       -2
340
0
 93
        0
 40
0.045
309
GRIDFORMAT_END
309
TABLEFORMAT_END
  1
CELLSTYLE_BEGIN
 90
        1
 91
        1
300
_TITLE
309
CELLSTYLE_END
300
CELLSTYLE
  1
TABLEFORMAT_BEGIN
 90
        5
170
     1
 91
        0
 92
        0
 62
   257
 93
        1
300
CONTENTFORMAT
  1
CONTENTFORMAT_BEGIN
 90
        0
 91
        0
 92
      512
 93
        0
300

 40
0.0
140
1.0
 94
        5
 62
     0
340
310C
144
0.18
309
CONTENTFORMAT_END
171
     1
301
MARGIN
  1
CELLMARGIN_BEGIN
 40
0.06
 40
0.06
 40
0.06
 40
0.06
 40
0.18
 40
0.18
309
CELLMARGIN_END
 94
        6
 95
        1
302
GRIDFORMAT
  1
GRIDFORMAT_BEGIN
 90
        0
 91
        1
 62
     0
 92
       -2
340
0
 93
        0
 40
0.045
309
GRIDFORMAT_END
 95
        2
302
GRIDFORMAT
  1
GRIDFORMAT_BEGIN
 90
        0
 91
        1
 62
     0
 92
       -2
340
0
 93
        0
 40
0.045
309
GRIDFORMAT_END
 95
        4
302
GRIDFORMAT
  1
GRIDFORMAT_BEGIN
 90
        0
 91
        1
 62
     0
 92
       -2
340
0
 93
        0
 40
0.045
309
GRIDFORMAT_END
 95
        8
302
GRIDFORMAT
  1
GRIDFORMAT_BEGIN
 90
        0
 91
        1
 62
     0
 92
       -2
340
0
 93
        0
 40
0.045
309
GRIDFORMAT_END
 95
       16
302
GRIDFORMAT
  1
GRIDFORMAT_BEGIN
 90
        0
 91
        1
 62
     0
 92
       -2
340
0
 93
        0
 40
0.045
309
GRIDFORMAT_END
 95
       32
302
GRIDFORMAT
  1
GRIDFORMAT_BEGIN
 90
        0
 91
        1
 62
     0
 92
       -2
340
0
 93
        0
 40
0.045
309
GRIDFORMAT_END
309
TABLEFORMAT_END
  1
CELLSTYLE_BEGIN
 90
        2
 91
        1
300
_HEADER
309
CELLSTYLE_END
300
CELLSTYLE
  1
TABLEFORMAT_BEGIN
 90
        5
170
     1
 91
        0
 92
        0
 62
   257
 93
        1
300
CONTENTFORMAT
  1
CONTENTFORMAT_BEGIN
 90
        0
 91
        0
 92
      512
 93
        0
300

 40
0.0
140
1.0
 94
        2
 62
     0
340
310C
144
0.18
309
CONTENTFORMAT_END
171
     1
301
MARGIN
  1
CELLMARGIN_BEGIN
 40
0.06
 40
0.06
 40
0.06
 40
0.06
 40
0.18
 40
0.18
309
CELLMARGIN_END
 94
        6
 95
        1
302
GRIDFORMAT
  1
GRIDFORMAT_BEGIN
 90
        0
 91
        1
 62
     0
 92
       -2
340
0
 93
        0
 40
0.045
309
GRIDFORMAT_END
 95
        2
302
GRIDFORMAT
  1
GRIDFORMAT_BEGIN
 90
        0
 91
        1
 62
     0
 92
       -2
340
0
 93
        0
 40
0.045
309
GRIDFORMAT_END
 95
        4
302
GRIDFORMAT
  1
GRIDFORMAT_BEGIN
 90
        0
 91
        1
 62
     0
 92
       -2
340
0
 93
        0
 40
0.045
309
GRIDFORMAT_END
 95
        8
302
GRIDFORMAT
  1
GRIDFORMAT_BEGIN
 90
        0
 91
        1
 62
     0
 92
       -2
340
0
 93
        0
 40
0.045
309
GRIDFORMAT_END
 95
       16
302
GRIDFORMAT
  1
GRIDFORMAT_BEGIN
 90
        0
 91
        1
 62
     0
 92
       -2
340
0
 93
        0
 40
0.045
309
GRIDFORMAT_END
 95
       32
302
GRIDFORMAT
  1
GRIDFORMAT_BEGIN
 90
        0
 91
        1
 62
     0
 92
       -2
340
0
 93
        0
 40
0.045
309
GRIDFORMAT_END
309
TABLEFORMAT_END
  1
CELLSTYLE_BEGIN
 90
        3
 91
        2
300
_DATA
309
CELLSTYLE_END
  0
ENDSEC
  0
EOF
