  0
SECTION
  2
HEADER
  9
$ACADVER
  1
AC1015
  9
$ACADMAINTVER
 70
    20
  9
$DWGCODEPAGE
  3
ANSI_932
  9
$INSBASE
 10
0.0
 20
0.0
 30
0.0
  9
$EXTMIN
 10
-1282.595114703139
 20
-1352.864089238022
 30
0.0
  9
$EXTMAX
 10
1612.798359419431
 20
454.0795551764758
 30
50.0
  9
$LIMMIN
 10
-2970.0
 20
-2100.0
  9
$LIMMAX
 10
2970.0
 20
2100.0
  9
$ORTHOMODE
 70
     1
  9
$REGENMODE
 70
     0
  9
$FILLMODE
 70
     1
  9
$QTEXTMODE
 70
     0
  9
$MIRRTEXT
 70
     0
  9
$LTSCALE
 40
20.0
  9
$ATTMODE
 70
     1
  9
$TEXTSIZE
 40
64.0
  9
$TRACEWID
 40
0.05
  9
$TEXTSTYLE
  7
STANDARD
  9
$CLAYER
  8
0
  9
$CELTYPE
  6
ByLayer
  9
$CECOLOR
 62
   256
  9
$CELTSCALE
 40
1.0
  9
$DISPSILH
 70
     0
  9
$DIMSCALE
 40
1.0
  9
$DIMASZ
 40
0.12
  9
$DIMEXO
 40
0.05
  9
$DIMDLI
 40
0.5
  9
$DIMRND
 40
0.0
  9
$DIMDLE
 40
0.0
  9
$DIMEXE
 40
0.1
  9
$DIMTP
 40
0.1
  9
$DIMTM
 40
0.1
  9
$DIMTXT
 40
0.12
  9
$DIMCEN
 40
0.0
  9
$DIMTSZ
 40
0.0
  9
$DIMTOL
 70
     0
  9
$DIMLIM
 70
     0
  9
$DIMTIH
 70
     1
  9
$DIMTOH
 70
     1
  9
$DIMSE1
 70
     0
  9
$DIMSE2
 70
     0
  9
$DIMTAD
 70
     0
  9
$DIMZIN
 70
     7
  9
$DIMBLK
  1

  9
$DIMASO
 70
     1
  9
$DIMSHO
 70
     0
  9
$DIMPOST
  1

  9
$DIMAPOST
  1
mm
  9
$DIMALT
 70
     0
  9
$DIMALTD
 70
     2
  9
$DIMALTF
 40
25.4
  9
$DIMLFAC
 40
1.0
  9
$DIMTOFL
 70
     0
  9
$DIMTVP
 40
0.0
  9
$DIMTIX
 70
     0
  9
$DIMSOXD
 70
     0
  9
$DIMSAH
 70
     0
  9
$DIMBLK1
  1

  9
$DIMBLK2
  1

  9
$DIMSTYLE
  2
AM_ANSI
  9
$DIMCLRD
 70
   256
  9
$DIMCLRE
 70
   256
  9
$DIMCLRT
 70
     2
  9
$DIMTFAC
 40
0.71
  9
$DIMGAP
 40
0.06
  9
$DIMJUST
 70
     0
  9
$DIMSD1
 70
     0
  9
$DIMSD2
 70
     0
  9
$DIMTOLJ
 70
     1
  9
$DIMTZIN
 70
     7
  9
$DIMALTZ
 70
     0
  9
$DIMALTTZ
 70
     0
  9
$DIMUPT
 70
     0
  9
$DIMDEC
 70
     4
  9
$DIMTDEC
 70
     4
  9
$DIMALTU
 70
     2
  9
$DIMALTTD
 70
     4
  9
$DIMTXSTY
  7
STANDARD
  9
$DIMAUNIT
 70
     0
  9
$DIMADEC
 70
     0
  9
$DIMALTRND
 40
0.0
  9
$DIMAZIN
 70
     2
  9
$DIMDSEP
 70
    46
  9
$DIMATFIT
 70
     3
  9
$DIMFRAC
 70
     0
  9
$DIMLDRBLK
  1

  9
$DIMLUNIT
 70
     2
  9
$DIMLWD
 70
    -1
  9
$DIMLWE
 70
    -1
  9
$DIMTMOVE
 70
     0
  9
$LUNITS
 70
     2
  9
$LUPREC
 70
     4
  9
$SKETCHINC
 40
0.1
  9
$FILLETRAD
 40
4.0
  9
$AUNITS
 70
     1
  9
$AUPREC
 70
     3
  9
$MENU
  1
ACAD
  9
$ELEVATION
 40
0.0
  9
$PELEVATION
 40
0.0
  9
$THICKNESS
 40
50.0
  9
$LIMCHECK
 70
     0
  9
$CHAMFERA
 40
0.0
  9
$CHAMFERB
 40
0.0
  9
$CHAMFERC
 40
0.0
  9
$CHAMFERD
 40
0.0
  9
$SKPOLY
 70
     0
  9
$TDCREATE
 40
2452321.396199653
  9
$TDUCREATE
 40
2452321.021199653
  9
$TDUPDATE
 40
2456210.803672986
  9
$TDUUPDATE
 40
2456210.428672986
  9
$TDINDWG
 40
1.0415715394
  9
$TDUSRTIMER
 40
1.0415655903
  9
$USRTIMER
 70
     1
  9
$ANGBASE
 50
0.0
  9
$ANGDIR
 70
     0
  9
$PDMODE
 70
     3
  9
$PDSIZE
 40
-2.0
  9
$PLINEWID
 40
0.0
  9
$SPLFRAME
 70
     0
  9
$SPLINETYPE
 70
     6
  9
$SPLINESEGS
 70
     8
  9
$HANDSEED
  5
2F97
  9
$SURFTAB1
 70
     6
  9
$SURFTAB2
 70
     6
  9
$SURFTYPE
 70
     6
  9
$SURFU
 70
     6
  9
$SURFV
 70
     6
  9
$UCSBASE
  2

  9
$UCSNAME
  2

  9
$UCSORG
 10
0.0
 20
0.0
 30
0.0
  9
$UCSXDIR
 10
1.0
 20
0.0
 30
0.0
  9
$UCSYDIR
 10
0.0
 20
1.0
 30
0.0
  9
$UCSORTHOREF
  2

  9
$UCSORTHOVIEW
 70
     0
  9
$UCSORGTOP
 10
0.0
 20
0.0
 30
0.0
  9
$UCSORGBOTTOM
 10
0.0
 20
0.0
 30
0.0
  9
$UCSORGLEFT
 10
0.0
 20
0.0
 30
0.0
  9
$UCSORGRIGHT
 10
0.0
 20
0.0
 30
0.0
  9
$UCSORGFRONT
 10
0.0
 20
0.0
 30
0.0
  9
$UCSORGBACK
 10
0.0
 20
0.0
 30
0.0
  9
$PUCSBASE
  2

  9
$PUCSNAME
  2

  9
$PUCSORG
 10
0.0
 20
0.0
 30
0.0
  9
$PUCSXDIR
 10
1.0
 20
0.0
 30
0.0
  9
$PUCSYDIR
 10
0.0
 20
1.0
 30
0.0
  9
$PUCSORTHOREF
  2

  9
$PUCSORTHOVIEW
 70
     0
  9
$PUCSORGTOP
 10
0.0
 20
0.0
 30
0.0
  9
$PUCSORGBOTTOM
 10
0.0
 20
0.0
 30
0.0
  9
$PUCSORGLEFT
 10
0.0
 20
0.0
 30
0.0
  9
$PUCSORGRIGHT
 10
0.0
 20
0.0
 30
0.0
  9
$PUCSORGFRONT
 10
0.0
 20
0.0
 30
0.0
  9
$PUCSORGBACK
 10
0.0
 20
0.0
 30
0.0
  9
$USERI1
 70
     0
  9
$USERI2
 70
     0
  9
$USERI3
 70
     0
  9
$USERI4
 70
     0
  9
$USERI5
 70
     0
  9
$USERR1
 40
20.0
  9
$USERR2
 40
0.0
  9
$USERR3
 40
0.0
  9
$USERR4
 40
0.0
  9
$USERR5
 40
0.0
  9
$WORLDVIEW
 70
     1
  9
$SHADEDGE
 70
     3
  9
$SHADEDIF
 70
    70
  9
$TILEMODE
 70
     1
  9
$MAXACTVP
 70
    64
  9
$PINSBASE
 10
0.0
 20
0.0
 30
0.0
  9
$PLIMCHECK
 70
     0
  9
$PEXTMIN
 10
1.000000000000000E+20
 20
1.000000000000000E+20
 30
1.000000000000000E+20
  9
$PEXTMAX
 10
-1.000000000000000E+20
 20
-1.000000000000000E+20
 30
-1.000000000000000E+20
  9
$PLIMMIN
 10
0.0
 20
0.0
  9
$PLIMMAX
 10
12.0
 20
9.0
  9
$UNITMODE
 70
     0
  9
$VISRETAIN
 70
     1
  9
$PLINEGEN
 70
     0
  9
$PSLTSCALE
 70
     1
  9
$TREEDEPTH
 70
  3020
  9
$CMLSTYLE
  2
Standard
  9
$CMLJUST
 70
     0
  9
$CMLSCALE
 40
1.0
  9
$PROXYGRAPHICS
 70
     1
  9
$MEASUREMENT
 70
     0
  9
$CELWEIGHT
370
    -1
  9
$ENDCAPS
280
     0
  9
$JOINSTYLE
280
     0
  9
$LWDISPLAY
290
     0
  9
$INSUNITS
 70
     0
  9
$HYPERLINKBASE
  1

  9
$STYLESHEET
  1

  9
$XEDIT
290
     1
  9
$CEPSNTYPE
380
     0
  9
$PSTYLEMODE
290
     1
  9
$FINGERPRINTGUID
  2
{13424F9E-59AF-4F2A-B26B-0A3AC165CC80}
  9
$VERSIONGUID
  2
{1111DBFC-20D7-4310-BDC9-6D0F6183D3D8}
  9
$EXTNAMES
290
     1
  9
$PSVPSCALE
 40
0.0
  9
$OLESTARTUP
290
     0
  0
ENDSEC
  0
SECTION
  2
CLASSES
  0
CLASS
  1
ACDBDICTIONARYWDFLT
  2
AcDbDictionaryWithDefault
  3
ObjectDBX Classes
 90
        0
280
     0
281
     0
  0
CLASS
  1
MATERIAL
  2
AcDbMaterial
  3
ObjectDBX Classes
 90
     1153
280
     0
281
     0
  0
CLASS
  1
VISUALSTYLE
  2
AcDbVisualStyle
  3
ObjectDBX Classes
 90
     4095
280
     0
281
     0
  0
CLASS
  1
SCALE
  2
AcDbScale
  3
ObjectDBX Classes
 90
     1153
280
     0
281
     0
  0
CLASS
  1
TABLESTYLE
  2
AcDbTableStyle
  3
ObjectDBX Classes
 90
     4095
280
     0
281
     0
  0
CLASS
  1
MLEADERSTYLE
  2
AcDbMLeaderStyle
  3
ACDB_MLEADERSTYLE_CLASS
 90
     4095
280
     0
281
     0
  0
CLASS
  1
AMGSETTINGSOBJ
  2
AmgSettingsObj
  3
"AcadM|Product Description: AutoCAD Mechanical|Company: Autodesk, Inc."
 90
     1024
280
     0
281
     0
  0
CLASS
  1
ACME_DOCUMENT
  2
AcMeDbDoc
  3
AcMeServices
 90
     1024
280
     0
281
     0
  0
CLASS
  1
ACMESCOPE
  2
AcMeScope
  3
AcMeServices
 90
     1024
280
     0
281
     0
  0
CLASS
  1
ACMECOMMANDHISTORY
  2
AcMeCommandHistory
  3
AcMeServices
 90
     1024
280
     0
281
     0
  0
CLASS
  1
ACIMSYSVARMAN
  2
AcImSysVarManager
  3
AcMeServices
 90
     1024
280
     0
281
     0
  0
CLASS
  1
ACIMREALSYSVAR
  2
AcImRealSysVar
  3
AcMeServices
 90
     1024
280
     0
281
     0
  0
CLASS
  1
ACIMINTSYSVAR
  2
AcImIntSysVar
  3
AcMeServices
 90
     1024
280
     0
281
     0
  0
CLASS
  1
ACMEDRAWINGMAN
  2
AcMeDrawingMan
  3
AcMeServices
 90
     1024
280
     0
281
     0
  0
CLASS
  1
ACMEVIEW
  2
AcMeView
  3
AcMeServices
 90
     1024
280
     0
281
     0
  0
CLASS
  1
ACDBENTITYCACHE
  2
AcMeEntityCache
  3
AcMeServices
 90
     1024
280
     0
281
     0
  0
CLASS
  1
GSMANAGER
  2
AcMeGSManager
  3
AcMeServices
 90
     1024
280
     0
281
     0
  0
CLASS
  1
AMDTINTERNALREACTOR
  2
AmdtInternalReactor
  3
AcMeServices
 90
     1024
280
     0
281
     0
  0
CLASS
  1
ACMESTATEMGR
  2
AcMeStateMgr
  3
AcMeServices
 90
     1024
280
     0
281
     0
  0
CLASS
  1
ACGREFMASTER
  2
AcGrefMaster
  3
AcAttribServices
 90
     1024
280
     0
281
     0
  0
CLASS
  1
AM_DRAWING_MGR
  2
AcDmDwgMgr
  3
AcMechDwgViewMgmt
 90
     1024
280
     0
281
     0
  0
CLASS
  1
AM_DWG_DOCUMENT
  2
AcDmDwgDocument
  3
AcMechDwgViewMgmt
 90
     1024
280
     0
281
     0
  0
CLASS
  1
AM_DWG_SHEET
  2
AcDmSheet
  3
AcMechDwgViewMgmt
 90
     1024
280
     0
281
     0
  0
CLASS
  1
AM_VIEWDIMPARMAP
  2
AcDmViewDimParMap
  3
AcMechDwgViewMgmt
 90
     1024
280
     0
281
     0
  0
CLASS
  1
AM_DWGMGR_NAME
  2
AcDmDwgMgrName
  3
AcMechDwgViewMgmt
 90
     1024
280
     0
281
     0
  0
CLASS
  1
ACME_DATABASE
  2
AcMeDbDatabase
  3
AcMeServices
 90
     1024
280
     0
281
     0
  0
CLASS
  1
ACRFINSADJUSTERMGR
  2
AcRfInsAdjusterMgr
  3
AcMeServices
 90
     1024
280
     0
281
     0
  0
CLASS
  1
ACGREFACADMASTER
  2
AcGrefacadMaster
  3
AcGrefServices
 90
     1024
280
     0
281
     0
  0
CLASS
  1
AMDTMENUSTATEMGR
  2
AmdtMenuStateMgr
  3
McadcomServices
 90
     1024
280
     0
281
     0
  0
CLASS
  1
AMDTMCOMMENUSTATE
  2
AmdtMcomMenuState
  3
McadcomServices
 90
     1024
280
     0
281
     0
  0
CLASS
  1
AMIMASTER
  2
AmiMaster
  3
AmiServices
 90
     1024
280
     0
281
     0
  0
CLASS
  1
ASAPP
  2
AcAsAppObject
  3
AutoSurfServices
 90
     1024
280
     0
281
     0
  0
CLASS
  1
IM_STATIC_MAN
  2
AcImStaticVarManager
  3
AcMeServices
 90
     1024
280
     0
281
     0
  0
CLASS
  1
ACIMSTRSYSVAR
  2
AcImStrSysVar
  3
AcMeServices
 90
     1024
280
     0
281
     0
  0
CLASS
  1
ACIMDBLSTATICVAR
  2
AcImDblStaticVar
  3
AcMeServices
 90
     1024
280
     0
281
     0
  0
CLASS
  1
ACIMSTRSTATICVAR
  2
AcImStrStaticVar
  3
AcMeServices
 90
     1024
280
     0
281
     0
  0
CLASS
  1
ACIMINTSTATICVAR
  2
AcImIntStaticVar
  3
AcMeServices
 90
     1024
280
     0
281
     0
  0
CLASS
  1
ACASGREFMASTER
  2
AcAsGrefMaster
  3
AutoSurfResolverServices
 90
     1024
280
     0
281
     0
  0
CLASS
  1
ACADGREFMODULE
  2
AcAdGrefModule
  3
AdGrefServices
 90
     1024
280
     0
281
     0
  0
CLASS
  1
AMDTMAPISURFMOUDULE
  2
AmdtMApiSurfModule
  3
MApiSurfServices
 90
     1024
280
     0
281
     0
  0
CLASS
  1
MAPIAMMOUDLE
  2
MApiAmModule
  3
MApiAmServices
 90
     1024
280
     0
281
     0
  0
CLASS
  1
AMDTADMENUSTATE
  2
AmdtAdMenuState
  3
DesignerServices
 90
     1024
280
     0
281
     0
  0
CLASS
  1
ADAPPL
  2
AcAdAppl
  3
DesignerServices
 90
     1024
280
     0
281
     0
  0
CLASS
  1
DEPMGR
  2
AcAdDepMgr
  3
DesignerServices
 90
     1024
280
     0
281
     0
  0
CLASS
  1
PARAMMGR
  2
AcAdParamMgr
  3
DesignerServices
 90
     1024
280
     0
281
     0
  0
CLASS
  1
PARAMSCOPE
  2
AcAdParamScope
  3
DesignerServices
 90
     1024
280
     0
281
     0
  0
CLASS
  1
NAMEDAPPL
  2
AcAdNamedAppl
  3
DesignerServices
 90
     1024
280
     0
281
     0
  0
CLASS
  1
AMDTDMMENUSTATE
  2
AmdtDmMenuState
  3
AcMechDwgViewMgmt
 90
     1024
280
     0
281
     0
  0
CLASS
  1
MAPIADMODULE
  2
MApiAdModule
  3
MApiAdServices
 90
     1024
280
     0
281
     0
  0
CLASS
  1
AMDTAMMENUSTATE
  2
AmdtAmMenuState
  3
DesignerAssemblies
 90
     1024
280
     0
281
     0
  0
CLASS
  1
ACAMPROJECT
  2
AcAmProject
  3
DesignerAssemblies
 90
     1024
280
     0
281
     0
  0
CLASS
  1
ACAMGRCOMPDEF
  2
AcAmGrCompDef
  3
DesignerAssemblies
 90
     1024
280
     0
281
     0
  0
CLASS
  1
ACCMCONTEXT
  2
AcCmContext
  3
DesignerAssemblies
 90
     1024
280
     0
281
     0
  0
CLASS
  1
ACAMCOMPDEF
  2
AcAmCompDef
  3
DesignerAssemblies
 90
     1024
280
     0
281
     0
  0
CLASS
  1
ACAMCOMPDEFMGR
  2
AcAmCompDefMgr
  3
DesignerAssemblies
 90
     1024
280
     0
281
     0
  0
CLASS
  1
AMCONTEXTMGR
  2
AcAmContextMgr
  3
DesignerAssemblies
 90
     1024
280
     0
281
     0
  0
CLASS
  1
ACAMCONTEXTMODELER
  2
AcAmContextModeler
  3
DesignerAssemblies
 90
     1024
280
     0
281
     0
  0
CLASS
  1
ACMDATADICTIONARY
  2
AcmDataDictionary
  3
"AcmSymBB|Product Description: AutoCAD Mechanical|Company: Autodesk, Inc."
 90
     1024
280
     0
281
     0
  0
CLASS
  1
ACMDATAENTRYBLOCK
  2
AcmDataEntryBlock
  3
AcmSymBB|Product Description: AutoCAD Mechanical|Company: Autodesk, Inc.
 90
     1024
280
     0
281
     0
  0
CLASS
  1
ACRFATTGENMGR
  2
AcRfAttGeneralMgr
  3
AcAttribServices
 90
     1024
280
     0
281
     0
  0
CLASS
  1
ACRFOBJATTMGR
  2
AcRfObjAttGroupMgr
  3
AcAttribServices
 90
     1024
280
     0
281
     0
  0
CLASS
  1
ACRFMCADAPIATTHOLDER
  2
AcRfMCADAPIAttHolder
  3
AcAttribServices
 90
     1024
280
     0
281
     0
  0
CLASS
  1
AMDTSYSATTR
  2
AmdtSystemAttribute
  3
AcAttribServices
 90
     1024
280
     0
281
     0
  0
CLASS
  1
CATALOGSTATE
  2
AcAmCatalogState
  3
DesignerAssemblies
 90
     1024
280
     0
281
     0
  0
CLASS
  1
ACAMGRCOMPDEFSET
  2
AcAmGrCompDefSet
  3
DesignerAssemblies
 90
     1024
280
     0
281
     0
  0
CLASS
  1
AMDTBROWSERDBTAB
  2
AmdtBrowserDbTab
  3
McadcomServices
 90
     1024
280
     0
281
     0
  0
CLASS
  1
CBROWSERAPPOBJECT
  2
CBrowserAppObject
  3
McadcomServices
 90
     1024
280
     0
281
     0
  0
CLASS
  1
DM_PLACEHOLDER
  2
AcDmSelsetPlaceholder
  3
AcMechDwgViewMgmt
 90
     1024
280
     0
281
     0
  0
CLASS
  1
ACMSTANDARDANSI
  2
AcmStandardANSI
  3
"Amdt_StdImp|Product Description: AutoCAD Mechanical|Company: Autodesk, Inc."
 90
     1024
280
     0
281
     0
  0
CLASS
  1
ACMSURFSTANDARDANSI
  2
AcmSurfTextStdANSI
  3
"Amdt_StdImp|Product Description: AutoCAD Mechanical|Company: Autodesk, Inc."
 90
     1024
280
     0
281
     0
  0
CLASS
  1
ACMFCFSTANDARDANSI
  2
AcmFCFStdANSI
  3
"Amdt_StdImp|Product Description: AutoCAD Mechanical|Company: Autodesk, Inc."
 90
     1024
280
     0
281
     0
  0
CLASS
  1
ACMWELDSTANDARDANSI
  2
AcmWeldingStdANSI
  3
"Amdt_StdImp|Product Description: AutoCAD Mechanical|Company: Autodesk, Inc."
 90
     1024
280
     0
281
     0
  0
CLASS
  1
ACMIDSTANDARDANSI
  2
AcmIdStdANSI
  3
"Amdt_StdImp|Product Description: AutoCAD Mechanical|Company: Autodesk, Inc."
 90
     1024
280
     0
281
     0
  0
CLASS
  1
ACMDATUMSTANDARDANSI
  2
AcmDatumStdANSI
  3
"Amdt_StdImp|Product Description: AutoCAD Mechanical|Company: Autodesk, Inc."
 90
     1024
280
     0
281
     0
  0
CLASS
  1
ACMBOMSTANDARDANSI
  2
AcmBOMStdANSI
  3
"Amdt_StdImp|Product Description: AutoCAD Mechanical|Company: Autodesk, Inc."
 90
     1024
280
     0
281
     0
  0
CLASS
  1
ACMDETAILSTANDARDANSI
  2
AmdtDetailSymStdANSI
  3
"Amdt_StdImp|Product Description: AutoCAD Mechanical|Company: Autodesk, Inc."
 90
     1024
280
     0
281
     0
  0
CLASS
  1
ACMSECTIONSTANDARDANSI
  2
AmdtSectionSymStdANSI
  3
"Amdt_StdImp|Product Description: AutoCAD Mechanical|Company: Autodesk, Inc."
 90
     1024
280
     0
281
     0
  0
CLASS
  1
ACMCENTERLINESTANDARDANSI
  2
AmdtCenterLineStdANSI
  3
"Amdt_StdImp|Product Description: AutoCAD Mechanical|Company: Autodesk, Inc."
 90
     1024
280
     0
281
     0
  0
CLASS
  1
ACMTHREADLINESTANDARDANSI
  2
AmdtThreadLineStdANSI
  3
"Amdt_StdImp|Product Description: AutoCAD Mechanical|Company: Autodesk, Inc."
 90
     1024
280
     0
281
     0
  0
CLASS
  1
ACMNOTESTANDARDANSI
  2
AmdtNoteStdANSI
  3
"Amdt_StdImp|Product Description: AutoCAD Mechanical|Company: Autodesk, Inc."
 90
     1024
280
     0
281
     0
  0
CLASS
  1
ACMTAPERSTANDARDANSI
  2
AcmTaperStdANSI
  3
"Amdt_StdImp|Product Description: AutoCAD Mechanical|Company: Autodesk, Inc."
 90
     1024
280
     0
281
     0
  0
CLASS
  1
ACMANOOTATIONVIEWSTANDARDANSI
  2
AmdtAnViewStdANSI
  3
"Amdt_StdImp|Product Description: AutoCAD Mechanical|Company: Autodesk, Inc."
 90
     1024
280
     0
281
     0
  0
CLASS
  1
ACAMGLAYSTD
  2
AcAmgLayStd
  3
"AmgLay|Product Description: AutoCAD Mechanical|Company: Autodesk, Inc."
 90
     1024
280
     0
281
     0
  0
CLASS
  1
ACAMGDIMSTD
  2
AcAmgDimStd
  3
"AmgDim|Product Description: AutoCAD Mechanical|Company: Autodesk, Inc."
 90
     1024
280
     0
281
     0
  0
CLASS
  1
ACAMGHOLECHARTSTDANSI
  2
AcAmgHoleChartStdANSI
  3
AmgDim|Product Description: AutoCAD Mechanical|Company: Autodesk, Inc.
 90
     1024
280
     0
281
     0
  0
CLASS
  1
AMGOBJPROPCFG
  2
AmgObjPropCfg
  3
"AmgLay|Product Description: AutoCAD Mechanical|Company: Autodesk, Inc."
 90
     1025
280
     0
281
     0
  0
CLASS
  1
ACAMGTITLESTD
  2
AcAmgTitleStd
  3
"AmgTitle|Product Description: AutoCAD Mechanical|Company: Autodesk, Inc."
 90
     4095
280
     0
281
     0
  0
CLASS
  1
AMDTNOTETEMPLATEDB
  2
AmdtNoteTemplateDB
  3
AcmSymBB|Product Description: AutoCAD Mechanical|Company: Autodesk, Inc.
 90
     1024
280
     0
281
     0
  0
CLASS
  1
LAYER_INDEX
  2
AcDbLayerIndex
  3
ObjectDBX Classes
 90
        0
280
     0
281
     0
  0
CLASS
  1
IDBUFFER
  2
AcDbIdBuffer
  3
ObjectDBX Classes
 90
        0
280
     0
281
     0
  0
CLASS
  1
DICTIONARYVAR
  2
AcDbDictionaryVar
  3
ObjectDBX Classes
 90
        0
280
     0
281
     0
  0
CLASS
  1
CELLSTYLEMAP
  2
AcDbCellStyleMap
  3
ObjectDBX Classes
 90
     1152
280
     0
281
     0
  0
CLASS
  1
ACDBPLACEHOLDER
  2
AcDbPlaceHolder
  3
ObjectDBX Classes
 90
        0
280
     0
281
     0
  0
CLASS
  1
LAYOUT
  2
AcDbLayout
  3
ObjectDBX Classes
 90
        0
280
     0
281
     0
  0
ENDSEC
  0
SECTION
  2
TABLES
  0
TABLE
  2
VPORT
  5
2D34
330
0
100
AcDbSymbolTable
 70
     1
  0
VPORT
  5
2DA4
330
2D34
100
AcDbSymbolTableRecord
100
AcDbViewportTableRecord
  2
*ACTIVE
 70
     0
 10
0.0
 20
0.0
 11
1.0
 21
1.0
 12
0.0
 22
0.0
 13
0.0
 23
0.0
 14
1.0
 24
1.0
 15
0.0
 25
0.0
 16
0.0
 26
0.0
 36
1.0
 17
167.6788470331549
 27
-449.2492583222327
 37
0.0
 40
1819.180023108835
 41
1.712555066079295
 42
50.0
 43
0.0
 44
0.0
 50
0.0
 51
0.0
 71
     0
 72
   100
 73
     1
 74
     0
 75
     0
 76
     0
 77
     0
 78
     0
281
     0
 65
     0
110
0.0
120
0.0
130
0.0
111
1.0
121
0.0
131
0.0
112
0.0
122
1.0
132
0.0
 79
     0
146
0.0
  0
ENDTAB
  0
TABLE
  2
LTYPE
  5
2D31
330
0
100
AcDbSymbolTable
 70
    19
  0
LTYPE
  5
2D8E
330
2D31
100
AcDbSymbolTableRecord
100
AcDbLinetypeTableRecord
  2
ByBlock
 70
     0
  3

 72
    65
 73
     0
 40
0.0
  0
LTYPE
  5
2D8F
330
2D31
100
AcDbSymbolTableRecord
100
AcDbLinetypeTableRecord
  2
ByLayer
 70
     0
  3

 72
    65
 73
     0
 40
0.0
  0
LTYPE
  5
2D90
330
2D31
100
AcDbSymbolTableRecord
100
AcDbLinetypeTableRecord
  2
CONTINUOUS
 70
     0
  3
実線
 72
    65
 73
     0
 40
0.0
  0
LTYPE
  5
2DA5
330
2D31
100
AcDbSymbolTableRecord
100
AcDbLinetypeTableRecord
  2
DASHDOT
 70
     0
  3
____ _ ____ _ ____ _ ____ _ ____ _ ____ _ ____
 72
    65
 73
     4
 40
5.5
 49
4.0
 74
     0
 49
-0.6
 74
     0
 49
0.3
 74
     0
 49
-0.6
 74
     0
  0
LTYPE
  5
2DA6
330
2D31
100
AcDbSymbolTableRecord
100
AcDbLinetypeTableRecord
  2
HIDDEN
 70
     0
  3
Hidden __ __ __ __ __ __ __ __ __ __ __ __ __ _
 72
    65
 73
     2
 40
0.375
 49
0.25
 74
     0
 49
-0.125
 74
     0
  0
LTYPE
  5
2DA7
330
2D31
100
AcDbSymbolTableRecord
100
AcDbLinetypeTableRecord
  2
PHANTOM2
 70
     0
  3
Phantom (.5x) ___ _ _ ___ _ _ ___ _ _ ___ _ _
 72
    65
 73
     6
 40
1.25
 49
0.625
 74
     0
 49
-0.125
 74
     0
 49
0.125
 74
     0
 49
-0.125
 74
     0
 49
0.125
 74
     0
 49
-0.125
 74
     0
  0
LTYPE
  5
2DA8
330
2D31
100
AcDbSymbolTableRecord
100
AcDbLinetypeTableRecord
  2
CENTER
 70
     0
  3
Center ____ _ ____ _ ____ _ ____ _ ____ _ ____
 72
    65
 73
     4
 40
2.0
 49
1.25
 74
     0
 49
-0.25
 74
     0
 49
0.25
 74
     0
 49
-0.25
 74
     0
  0
LTYPE
  5
2DA9
330
2D31
100
AcDbSymbolTableRecord
100
AcDbLinetypeTableRecord
  2
ASULTYPE
 70
     0
  3
実線
 72
    65
 73
     2
 40
3.0
 49
2.5
 74
     0
 49
0.5
 74
     0
  0
LTYPE
  5
2DAA
330
2D31
100
AcDbSymbolTableRecord
100
AcDbLinetypeTableRecord
  2
ASVLTYPE
 70
     0
  3
__ __ __ __ __ __ __ __ __ __ __ __ __ __ __ __ __ __ __ __ __
 72
    65
 73
     2
 40
0.75
 49
0.5
 74
     0
 49
-0.25
 74
     0
  0
LTYPE
  5
2DAB
330
2D31
100
AcDbSymbolTableRecord
100
AcDbLinetypeTableRecord
  2
AM_ISO02W050
 70
     0
  3
__ __ __ __ __ __ __ __ __ __ __ __ __ __ __
 72
    65
 73
     2
 40
7.5
 49
6.0
 74
     0
 49
-1.5
 74
     0
  0
LTYPE
  5
2DAC
330
2D31
100
AcDbSymbolTableRecord
100
AcDbLinetypeTableRecord
  2
AM_ISO08W050
 70
     0
  3
____ . ____ . ____ . ____ . ____ . ____ . ____
 72
    65
 73
     4
 40
18.0
 49
12.0
 74
     0
 49
-1.5
 74
     0
 49
3.0
 74
     0
 49
-1.5
 74
     0
  0
LTYPE
  5
2DAD
330
2D31
100
AcDbSymbolTableRecord
100
AcDbLinetypeTableRecord
  2
AM_ISO09W050
 70
     0
  3
_____ . . _____ . . _____ . . ____ .. ____
 72
    65
 73
     6
 40
22.5
 49
12.0
 74
     0
 49
-1.5
 74
     0
 49
3.0
 74
     0
 49
-1.5
 74
     0
 49
3.0
 74
     0
 49
-1.5
 74
     0
  0
LTYPE
  5
2DAE
330
2D31
100
AcDbSymbolTableRecord
100
AcDbLinetypeTableRecord
  2
AMCONSTR
 70
     0
  3
_______________________
 72
    65
 73
     2
 40
9999.0
 49
9999.0
 74
     0
 49
0.0
 74
     0
  0
LTYPE
  5
2DAF
330
2D31
100
AcDbSymbolTableRecord
100
AcDbLinetypeTableRecord
  2
AM_ISO08W050X2
 70
     0
  3
__ . __ . __ . __ . __ . __
 72
    65
 73
     4
 40
9.0
 49
6.0
 74
     0
 49
-0.75
 74
     0
 49
1.5
 74
     0
 49
-0.75
 74
     0
  0
LTYPE
  5
2DB0
330
2D31
100
AcDbSymbolTableRecord
100
AcDbLinetypeTableRecord
  2
AM_ISO02W050X2
 70
     0
  3
 _ _ _ _ _ _ _ _ _ _ _ _
 72
    65
 73
     2
 40
3.75
 49
3.0
 74
     0
 49
-0.75
 74
     0
  0
LTYPE
  5
2DB1
330
2D31
100
AcDbSymbolTableRecord
100
AcDbLinetypeTableRecord
  2
AMZIGZAG
 70
     0
  3
/\/-/\/-/\/-/\/-/\/-/\/
 72
    65
 73
     2
 40
11.0001
 49
0.0001
 74
     0
 49
-11.0
 74
     0
  0
LTYPE
  5
2DB2
330
2D31
100
AcDbSymbolTableRecord
100
AcDbLinetypeTableRecord
  2
CENTER2
 70
     0
  3
Center (.5x) ___ _ ___ _ ___ _ ___ _ ___ _ ___
 72
    65
 73
     4
 40
1.125
 49
0.75
 74
     0
 49
-0.125
 74
     0
 49
0.125
 74
     0
 49
-0.125
 74
     0
  0
LTYPE
  5
2DB3
330
2D31
100
AcDbSymbolTableRecord
100
AcDbLinetypeTableRecord
  2
HIDDEN2
 70
     0
  3
Hidden (.5x) _ _ _ _ _ _ _ _ _ _ _ _ _ _ _ _ _
 72
    65
 73
     2
 40
0.1875
 49
0.125
 74
     0
 49
-0.0625
 74
     0
  0
LTYPE
  5
2DB4
330
2D31
100
AcDbSymbolTableRecord
100
AcDbLinetypeTableRecord
  2
AMZIGZAG2
 70
     0
  3
/\/-/\/-/\/-/\/-/\/-/\/
 72
    65
 73
     2
 40
0.4401
 49
0.0001
 74
     0
 49
-0.4400000000000003
 74
     0
  0
LTYPE
  5
2DB5
330
2D31
100
AcDbSymbolTableRecord
100
AcDbLinetypeTableRecord
  2
ACANSTGB
 70
     0
  3
__ . . __ . .
 72
    65
 73
     6
 40
0.35433070866
 49
0.15748031496
 74
     0
 49
-0.03937007874
 74
     0
 49
0.03937007874
 74
     0
 49
-0.03937007874
 74
     0
 49
0.03937007874
 74
     0
 49
-0.03937007874
 74
     0
  0
LTYPE
  5
2DB6
330
2D31
100
AcDbSymbolTableRecord
100
AcDbLinetypeTableRecord
  2
ACANSTGL
 70
     0
  3
_ _ _ _ _
 72
    65
 73
     2
 40
0.11811023622
 49
0.07874015748
 74
     0
 49
-0.03937007874
 74
     0
  0
ENDTAB
  0
TABLE
  2
LAYER
  5
2D2E
330
0
100
AcDbSymbolTable
 70
    12
  0
LAYER
  5
2D88
102
{ACAD_XDICTIONARY
360
2F56
102
}
330
2D2E
100
AcDbSymbolTableRecord
100
AcDbLayerTableRecord
  2
0
 70
     0
 62
     7
  6
CONTINUOUS
370
    -3
390
2D3B
  0
LAYER
  5
2DB7
102
{ACAD_XDICTIONARY
360
2F58
102
}
330
2D2E
100
AcDbSymbolTableRecord
100
AcDbLayerTableRecord
  2
OUTLINE
 70
     0
 62
     3
  6
CONTINUOUS
370
    -3
390
2D3B
  0
LAYER
  5
2DB8
102
{ACAD_XDICTIONARY
360
2F5A
102
}
330
2D2E
100
AcDbSymbolTableRecord
100
AcDbLayerTableRecord
  2
SIZE
 70
     0
 62
    30
  6
CONTINUOUS
370
    -3
390
2D3B
  0
LAYER
  5
2DB9
102
{ACAD_XDICTIONARY
360
2F5C
102
}
330
2D2E
100
AcDbSymbolTableRecord
100
AcDbLayerTableRecord
  2
BASIS
 70
     0
 62
     6
  6
DASHDOT
370
    -3
390
2D3B
  0
LAYER
  5
2DBA
102
{ACAD_XDICTIONARY
360
2F5E
102
}
330
2D2E
100
AcDbSymbolTableRecord
100
AcDbLayerTableRecord
  2
DETAIL
 70
     0
 62
     5
  6
CONTINUOUS
370
    -3
390
2D3B
  0
LAYER
  5
2DBB
102
{ACAD_XDICTIONARY
360
2F60
102
}
330
2D2E
100
AcDbSymbolTableRecord
100
AcDbLayerTableRecord
  2
ARRANGE
 70
     0
 62
     1
  6
CONTINUOUS
370
    -3
390
2D3B
  0
LAYER
  5
2DBC
330
2D2E
100
AcDbSymbolTableRecord
100
AcDbLayerTableRecord
  2
DEFPOINTS
 70
     0
 62
     7
  6
CONTINUOUS
290
     0
370
    -3
390
2D3B
  0
LAYER
  5
2DBD
102
{ACAD_XDICTIONARY
360
2F62
102
}
330
2D2E
100
AcDbSymbolTableRecord
100
AcDbLayerTableRecord
  2
ETC
 70
     0
 62
    61
  6
CONTINUOUS
370
    -3
390
2D3B
  0
LAYER
  5
2DBE
102
{ACAD_XDICTIONARY
360
2F64
102
}
330
2D2E
100
AcDbSymbolTableRecord
100
AcDbLayerTableRecord
  2
FIX
 70
     0
 62
    11
  6
CONTINUOUS
370
    -3
390
2D3B
  0
LAYER
  5
2DBF
102
{ACAD_XDICTIONARY
360
2F66
102
}
330
2D2E
100
AcDbSymbolTableRecord
100
AcDbLayerTableRecord
  2
NOTE
 70
     0
 62
     4
  6
CONTINUOUS
370
    -3
390
2D3B
  0
LAYER
  5
2DC0
102
{ACAD_XDICTIONARY
360
2F68
102
}
330
2D2E
100
AcDbSymbolTableRecord
100
AcDbLayerTableRecord
  2
SERVICESPACE
 70
     0
 62
     2
  6
DASHDOT
370
    -3
390
2D3B
  0
LAYER
  5
2DC1
102
{ACAD_XDICTIONARY
360
2F6A
102
}
330
2D2E
100
AcDbSymbolTableRecord
100
AcDbLayerTableRecord
  2
SYMBOLLINE
 70
     0
 62
    15
  6
CONTINUOUS
370
    -3
390
2D3B
  0
ENDTAB
  0
TABLE
  2
STYLE
  5
2D2F
330
0
100
AcDbSymbolTable
 70
     5
  0
STYLE
  5
2D89
330
2D2F
100
AcDbSymbolTableRecord
100
AcDbTextStyleTableRecord
  2
STANDARD
 70
     0
 40
64.0
 41
0.9
 50
0.0
 71
     0
 42
64.0
  3
SIMPLEX.shx
  4
BIGFONT.shx
  0
STYLE
  5
2D8D
330
2D2F
100
AcDbSymbolTableRecord
100
AcDbTextStyleTableRecord
  2
ANNOTATIVE
 70
     0
 40
0.0
 41
1.0
 50
0.0
 71
     0
 42
0.2
  3
txt
  4

1001
ACADANNOTATIVE
1000
AnnotativeData
1002
{
1070
     1
1070
     1
1002
}
  0
STYLE
  5
2DC2
330
2D2F
100
AcDbSymbolTableRecord
100
AcDbTextStyleTableRecord
  2

 70
     1
 40
0.0
 41
1.0
 50
0.0
 71
     0
 42
64.0
  3
genltshp.shx
  4

  0
STYLE
  5
2DC3
330
2D2F
100
AcDbSymbolTableRecord
100
AcDbTextStyleTableRecord
  2
ACANSTS
 70
     0
 40
1.0
 41
1.0
 50
0.0
 71
     0
 42
64.0
  3
romans.shx
  4
extfont.shx
  0
STYLE
  5
2DC4
330
2D2F
100
AcDbSymbolTableRecord
100
AcDbTextStyleTableRecord
  2
ACANSGDT
 70
     0
 40
0.0
 41
1.0
 50
0.0
 71
     0
 42
64.0
  3
amgdt.shx
  4

  0
ENDTAB
  0
TABLE
  2
VIEW
  5
2D32
330
0
100
AcDbSymbolTable
 70
     1
  0
VIEW
  5
2DC5
330
2D32
100
AcDbSymbolTableRecord
100
AcDbViewTableRecord
  2
ALL
 70
     0
 40
4282.619807999997
 10
0.0
 20
41.30990399999999
 41
5940.0
 11
0.0
 21
0.0
 31
1.0
 12
0.0
 22
0.0
 32
0.0
 42
50.0
 43
0.0
 44
0.0
 50
0.0
 71
     0
281
     0
 72
     1
110
0.0
120
0.0
130
0.0
111
1.0
121
0.0
131
0.0
112
0.0
122
1.0
132
0.0
 79
     0
146
0.0
  0
ENDTAB
  0
TABLE
  2
UCS
  5
2D33
330
0
100
AcDbSymbolTable
 70
     0
  0
ENDTAB
  0
TABLE
  2
APPID
  5
2D35
330
0
100
AcDbSymbolTable
 70
    30
  0
APPID
  5
2D8A
330
2D35
100
AcDbSymbolTableRecord
100
AcDbRegAppTableRecord
  2
ACAD
 70
     0
  0
APPID
  5
2D91
330
2D35
100
AcDbSymbolTableRecord
100
AcDbRegAppTableRecord
  2
ACADANNOTATIVE
 70
     0
  0
APPID
  5
2D9B
330
2D35
100
AcDbSymbolTableRecord
100
AcDbRegAppTableRecord
  2
ACAD_MLEADERVER
 70
     0
  0
APPID
  5
2DC6
330
2D35
100
AcDbSymbolTableRecord
100
AcDbRegAppTableRecord
  2
GENIUS_GENDIM_13
 70
     0
  0
APPID
  5
2DC7
330
2D35
100
AcDbSymbolTableRecord
100
AcDbRegAppTableRecord
  2
GENIUS_GENDTOL_13
 70
     0
  0
APPID
  5
2DC8
330
2D35
100
AcDbSymbolTableRecord
100
AcDbRegAppTableRecord
  2
GENIUS_GE3DTOL_13
 70
     0
  0
APPID
  5
2DC9
330
2D35
100
AcDbSymbolTableRecord
100
AcDbRegAppTableRecord
  2
MCAD_NO_VIS
 70
     0
  0
APPID
  5
2DCA
330
2D35
100
AcDbSymbolTableRecord
100
AcDbRegAppTableRecord
  2
ACAD_TEMP_GRAPHIC
 70
     0
  0
APPID
  5
2DCB
330
2D35
100
AcDbSymbolTableRecord
100
AcDbRegAppTableRecord
  2
AD_DRAW
 70
     0
  0
APPID
  5
2DCC
330
2D35
100
AcDbSymbolTableRecord
100
AcDbRegAppTableRecord
  2
ACATTRIBSERVICES
 70
     0
  0
APPID
  5
2DCD
330
2D35
100
AcDbSymbolTableRecord
100
AcDbRegAppTableRecord
  2
ASURF_PCURVE_APPNAME
 70
     0
  0
APPID
  5
2DCE
330
2D35
100
AcDbSymbolTableRecord
100
AcDbRegAppTableRecord
  2
AMG_3D2D_5_0
 70
     0
  0
APPID
  5
2DCF
330
2D35
100
AcDbSymbolTableRecord
100
AcDbRegAppTableRecord
  2
DESIGNERASSEMBLIES
 70
     0
  0
APPID
  5
2DD0
330
2D35
100
AcDbSymbolTableRecord
100
AcDbRegAppTableRecord
  2
ACADM_DIM_EDIT
 70
     0
  0
APPID
  5
2DD1
330
2D35
100
AcDbSymbolTableRecord
100
AcDbRegAppTableRecord
  2
AMDT_DM_ADJ
 70
     0
  0
APPID
  5
2DD2
330
2D35
100
AcDbSymbolTableRecord
100
AcDbRegAppTableRecord
  2
ACAD_DSTYLE_DIMARC_LENGTH_
 70
     0
  0
APPID
  5
2DD3
330
2D35
100
AcDbSymbolTableRecord
100
AcDbRegAppTableRecord
  2
ACAD_DSTYLE_DIMJOGGED_JOGA
 70
     0
  0
APPID
  5
2DD4
330
2D35
100
AcDbSymbolTableRecord
100
AcDbRegAppTableRecord
  2
ACAD_PSEXT
 70
     0
  0
APPID
  5
2DD5
330
2D35
100
AcDbSymbolTableRecord
100
AcDbRegAppTableRecord
  2
ACAD_EXEMPT_FROM_CAD_STANDARDS
 70
     0
  0
APPID
  5
2DD6
330
2D35
100
AcDbSymbolTableRecord
100
AcDbRegAppTableRecord
  2
ACAD_DSTYLE_DIMJAG
 70
     0
  0
APPID
  5
2DD7
330
2D35
100
AcDbSymbolTableRecord
100
AcDbRegAppTableRecord
  2
ACAD_DSTYLE_DIMTALN
 70
     0
  0
APPID
  5
2DD8
330
2D35
100
AcDbSymbolTableRecord
100
AcDbRegAppTableRecord
  2
AMG_3D2D_5_00
 70
     0
  0
APPID
  5
2DD9
330
2D35
100
AcDbSymbolTableRecord
100
AcDbRegAppTableRecord
  2
AMG_3D2D_5_01
 70
     0
  0
APPID
  5
2DDA
330
2D35
100
AcDbSymbolTableRecord
100
AcDbRegAppTableRecord
  2
AMG_3D2D_5_02
 70
     0
  0
APPID
  5
2DDB
330
2D35
100
AcDbSymbolTableRecord
100
AcDbRegAppTableRecord
  2
AMG_3D2D_5_03
 70
     0
  0
APPID
  5
2EFD
330
2D35
100
AcDbSymbolTableRecord
100
AcDbRegAppTableRecord
  2
AMG_3D2D_5.0
 70
     0
  0
APPID
  5
2F93
330
2D35
100
AcDbSymbolTableRecord
100
AcDbRegAppTableRecord
  2
ACAD_DSTYLE_DIMARC_LENGTH_SYMBOL
 70
     0
  0
APPID
  5
2F94
330
2D35
100
AcDbSymbolTableRecord
100
AcDbRegAppTableRecord
  2
ACAD_DSTYLE_DIM_LINETYPE
 70
     0
  0
APPID
  5
2F95
330
2D35
100
AcDbSymbolTableRecord
100
AcDbRegAppTableRecord
  2
ACAD_DSTYLE_DIM_EXT1_LINETYPE
 70
     0
  0
APPID
  5
2F96
330
2D35
100
AcDbSymbolTableRecord
100
AcDbRegAppTableRecord
  2
ACAD_DSTYLE_DIM_EXT2_LINETYPE
 70
     0
  0
ENDTAB
  0
TABLE
  2
DIMSTYLE
  5
2D36
330
0
100
AcDbSymbolTable
 70
    10
100
AcDbDimStyleTable
 71
     1
340
2DDC
  0
DIMSTYLE
105
2D8B
330
2D36
100
AcDbSymbolTableRecord
100
AcDbDimStyleTableRecord
  2
STANDARD
 70
     0
 41
12.0
 42
20.0
 44
20.0
 77
     1
 78
     8
140
64.0
141
0.0
147
10.0
275
     1
279
     2
284
     7
285
     7
286
     7
340
2D89
  0
DIMSTYLE
105
2D8C
330
2D36
100
AcDbSymbolTableRecord
100
AcDbDimStyleTableRecord
  2
ANNOTATIVE
 70
     0
275
     1
279
     2
284
     7
285
     7
286
     7
340
2D89
1001
ACADANNOTATIVE
1000
AnnotativeData
1002
{
1070
     1
1070
     1
1002
}
  0
DIMSTYLE
105
2DDC
330
2D36
100
AcDbSymbolTableRecord
100
AcDbDimStyleTableRecord
  2
AM_ANSI
 70
     0
  4
mm
 41
0.12
 42
0.05
 43
0.5
 44
0.1
 47
0.1
 48
0.1
 78
     7
 79
     2
140
0.12
141
0.0
146
0.71
147
0.06
176
   256
177
   256
178
     2
274
     4
284
     7
340
2D89
371
    -1
372
    -1
1001
ACAD_DSTYLE_DIMARC_LENGTH_SYMBOL
1070
   379
1070
     1
1001
ACAD_DSTYLE_DIM_LINETYPE
1070
   380
1005
2D8E
1001
ACAD_DSTYLE_DIM_EXT1_LINETYPE
1070
   381
1005
2D8E
1001
ACAD_DSTYLE_DIM_EXT2_LINETYPE
1070
   382
1005
2D8E
  0
DIMSTYLE
105
2DDD
330
2D36
100
AcDbSymbolTableRecord
100
AcDbDimStyleTableRecord
  2
AM_ANSI$3
 70
     0
  4
mm
 41
0.12
 42
0.05
 43
0.5
 44
0.1
 47
0.1
 48
0.1
 78
     7
 79
     2
140
0.12
141
0.0
146
0.71
147
0.06
176
   256
177
   256
178
     2
274
     4
284
     7
288
     1
289
     0
340
2D89
371
    -1
372
    -1
1001
ACAD_DSTYLE_DIMARC_LENGTH_SYMBOL
1070
   379
1070
     1
1001
ACAD_DSTYLE_DIM_LINETYPE
1070
   380
1005
2D8E
1001
ACAD_DSTYLE_DIM_EXT1_LINETYPE
1070
   381
1005
2D8E
1001
ACAD_DSTYLE_DIM_EXT2_LINETYPE
1070
   382
1005
2D8E
  0
DIMSTYLE
105
2DDE
330
2D36
100
AcDbSymbolTableRecord
100
AcDbDimStyleTableRecord
  2
AM_ANSI$4
 70
     0
  4
mm
 41
0.12
 42
0.05
 43
0.5
 44
0.1
 47
0.1
 48
0.1
 78
     7
 79
     2
140
0.12
141
0.0
146
0.71
147
0.06
176
   256
177
   256
178
     2
274
     4
284
     7
340
2D89
371
    -1
372
    -1
1001
ACAD_DSTYLE_DIMARC_LENGTH_SYMBOL
1070
   379
1070
     1
1001
ACAD_DSTYLE_DIM_LINETYPE
1070
   380
1005
2D8E
1001
ACAD_DSTYLE_DIM_EXT1_LINETYPE
1070
   381
1005
2D8E
1001
ACAD_DSTYLE_DIM_EXT2_LINETYPE
1070
   382
1005
2D8E
  0
DIMSTYLE
105
2DDF
330
2D36
100
AcDbSymbolTableRecord
100
AcDbDimStyleTableRecord
  2
AM_ANSI$7
 70
     0
  4
mm
 41
0.12
 42
0.05
 43
0.5
 44
0.1
 47
0.1
 48
0.1
 78
     7
 79
     2
140
0.12
141
0.0
146
0.71
147
0.06
176
   256
177
   256
178
     2
274
     4
284
     7
340
2D89
371
    -1
372
    -1
1001
ACAD_DSTYLE_DIMARC_LENGTH_SYMBOL
1070
   379
1070
     1
1001
ACAD_DSTYLE_DIM_LINETYPE
1070
   380
1005
2D8E
1001
ACAD_DSTYLE_DIM_EXT1_LINETYPE
1070
   381
1005
2D8E
1001
ACAD_DSTYLE_DIM_EXT2_LINETYPE
1070
   382
1005
2D8E
  0
DIMSTYLE
105
2DE0
330
2D36
100
AcDbSymbolTableRecord
100
AcDbDimStyleTableRecord
  2
AM_ANSI$SF
 70
     0
  4
mm
 41
0.12
 42
0.05
 43
0.5
 44
0.1
 47
0.1
 48
0.1
 75
     1
 76
     1
 78
     7
 79
     2
140
0.12
141
0.0
146
0.71
147
0.06
176
   256
177
   256
178
     2
274
     4
284
     7
340
2D89
371
    -1
372
    -1
1001
ACAD_DSTYLE_DIMARC_LENGTH_SYMBOL
1070
   379
1070
     1
1001
ACAD_DSTYLE_DIM_LINETYPE
1070
   380
1005
2D8E
1001
ACAD_DSTYLE_DIM_EXT1_LINETYPE
1070
   381
1005
2D8E
1001
ACAD_DSTYLE_DIM_EXT2_LINETYPE
1070
   382
1005
2D8E
  0
DIMSTYLE
105
2DE1
330
2D36
100
AcDbSymbolTableRecord
100
AcDbDimStyleTableRecord
  2
AM_ANSI$SH
 70
     0
  4
mm
 41
0.12
 42
0.05
 43
0.5
 44
0.1
 47
0.1
 48
0.1
 75
     1
 76
     1
 78
     7
 79
     2
140
0.12
141
0.0
146
0.71
147
0.06
173
     1
176
   256
177
   256
178
     2
274
     4
284
     7
340
2D89
343
2E01
371
    -1
372
    -1
1001
ACAD_DSTYLE_DIMARC_LENGTH_SYMBOL
1070
   379
1070
     1
1001
ACAD_DSTYLE_DIM_LINETYPE
1070
   380
1005
2D8E
1001
ACAD_DSTYLE_DIM_EXT1_LINETYPE
1070
   381
1005
2D8E
1001
ACAD_DSTYLE_DIM_EXT2_LINETYPE
1070
   382
1005
2D8E
  0
DIMSTYLE
105
2DE2
330
2D36
100
AcDbSymbolTableRecord
100
AcDbDimStyleTableRecord
  2
STANDARD1
 70
     0
 40
6.0
 41
2.5
 42
0.625
 43
6.0
 44
1.25
 47
1.0
 48
0.5
 77
     1
 78
     8
140
2.5
141
0.0
146
0.6
147
1.0
173
     1
275
     1
279
     2
284
     7
285
     7
286
     7
340
2D89
  0
DIMSTYLE
105
2DE3
330
2D36
100
AcDbSymbolTableRecord
100
AcDbDimStyleTableRecord
  2
STANDARD$0
 70
     0
 41
12.0
 42
20.0
 44
20.0
 73
     0
 74
     0
 77
     1
 78
     8
140
64.0
141
0.0
147
10.0
275
     1
279
     2
284
     7
285
     7
286
     7
340
2D89
  0
ENDTAB
  0
TABLE
  2
BLOCK_RECORD
  5
2D2D
330
0
100
AcDbSymbolTable
 70
    73
  0
BLOCK_RECORD
  5
2DA0
102
{ACAD_XDICTIONARY
360
2F6C
102
}
330
2D2D
100
AcDbSymbolTableRecord
100
AcDbBlockTableRecord
  2
*Model_Space
340
2DA3
  0
BLOCK_RECORD
  5
2D9C
330
2D2D
100
AcDbSymbolTableRecord
100
AcDbBlockTableRecord
  2
*Paper_Space
340
2D9F
  0
BLOCK_RECORD
  5
2DEB
330
2D2D
100
AcDbSymbolTableRecord
100
AcDbBlockTableRecord
  2
$MODEL_SPACE
340
0
  0
BLOCK_RECORD
  5
2DED
330
2D2D
100
AcDbSymbolTableRecord
100
AcDbBlockTableRecord
  2
$PAPER_SPACE
340
0
  0
BLOCK_RECORD
  5
2DEF
330
2D2D
100
AcDbSymbolTableRecord
100
AcDbBlockTableRecord
  2
_ORIGIN
340
0
  0
BLOCK_RECORD
  5
2DF1
330
2D2D
100
AcDbSymbolTableRecord
100
AcDbBlockTableRecord
  2
_DOTBLANK
340
0
102
{BLKREFS
331
1299
331
129A
331
11AA
331
11AB
331
E80
331
E81
331
1123
331
1124
331
11C2
331
11C3
331
11EC
331
11ED
331
11F9
331
11FA
331
1287
331
1288
331
1417
331
1418
331
1423
331
1424
331
142F
331
1430
331
143B
331
143C
331
166E
331
166F
331
1677
331
1678
331
1680
331
1681
331
1689
331
168A
331
1696
331
1697
331
16A3
331
16A4
331
16AF
331
16B0
331
16BB
331
16BC
331
16C7
331
16C8
331
16D3
331
16D4
331
1D86
331
1D87
331
1D8F
331
1D90
331
1D98
331
1D99
331
1DA1
331
1DA2
331
1DAB
331
1DAC
331
1DB5
331
1DB6
331
2A72
331
2A73
331
2A77
331
2A78
331
2A7C
331
2A7D
331
2A81
331
2A82
102
}
  0
BLOCK_RECORD
  5
2DF3
330
2D2D
100
AcDbSymbolTableRecord
100
AcDbBlockTableRecord
  2
_OPEN30
340
0
102
{BLKREFS
331
2088
331
25A0
331
288C
102
}
  0
BLOCK_RECORD
  5
2DF5
330
2D2D
100
AcDbSymbolTableRecord
100
AcDbBlockTableRecord
  2
*D5
340
0
  0
BLOCK_RECORD
  5
2DF7
330
2D2D
100
AcDbSymbolTableRecord
100
AcDbBlockTableRecord
  2
*U6
340
0
102
{BLKREFS
331
129B
102
}
  0
BLOCK_RECORD
  5
2DF9
330
2D2D
100
AcDbSymbolTableRecord
100
AcDbBlockTableRecord
  2
*D7
340
0
  0
BLOCK_RECORD
  5
2DFB
330
2D2D
100
AcDbSymbolTableRecord
100
AcDbBlockTableRecord
  2
*U8
340
0
102
{BLKREFS
331
11AC
102
}
  0
BLOCK_RECORD
  5
2DFD
330
2D2D
100
AcDbSymbolTableRecord
100
AcDbBlockTableRecord
  2
*D9
340
0
  0
BLOCK_RECORD
  5
2DFF
330
2D2D
100
AcDbSymbolTableRecord
100
AcDbBlockTableRecord
  2
*U10
340
0
102
{BLKREFS
331
E82
102
}
  0
BLOCK_RECORD
  5
2E01
330
2D2D
100
AcDbSymbolTableRecord
100
AcDbBlockTableRecord
  2
GENAXEH
340
0
  0
BLOCK_RECORD
  5
2E03
330
2D2D
100
AcDbSymbolTableRecord
100
AcDbBlockTableRecord
  2
*D12
340
0
  0
BLOCK_RECORD
  5
2E05
330
2D2D
100
AcDbSymbolTableRecord
100
AcDbBlockTableRecord
  2
*U13
340
0
102
{BLKREFS
331
1125
102
}
  0
BLOCK_RECORD
  5
2E07
330
2D2D
100
AcDbSymbolTableRecord
100
AcDbBlockTableRecord
  2
*D14
340
0
  0
BLOCK_RECORD
  5
2E09
330
2D2D
100
AcDbSymbolTableRecord
100
AcDbBlockTableRecord
  2
*U15
340
0
102
{BLKREFS
331
11C4
102
}
  0
BLOCK_RECORD
  5
2E0B
330
2D2D
100
AcDbSymbolTableRecord
100
AcDbBlockTableRecord
  2
*D16
340
0
  0
BLOCK_RECORD
  5
2E0D
330
2D2D
100
AcDbSymbolTableRecord
100
AcDbBlockTableRecord
  2
*U17
340
0
102
{BLKREFS
331
11EE
102
}
  0
BLOCK_RECORD
  5
2E0F
330
2D2D
100
AcDbSymbolTableRecord
100
AcDbBlockTableRecord
  2
*D18
340
0
  0
BLOCK_RECORD
  5
2E11
330
2D2D
100
AcDbSymbolTableRecord
100
AcDbBlockTableRecord
  2
*U19
340
0
102
{BLKREFS
331
11FB
102
}
  0
BLOCK_RECORD
  5
2E13
330
2D2D
100
AcDbSymbolTableRecord
100
AcDbBlockTableRecord
  2
*D20
340
0
  0
BLOCK_RECORD
  5
2E15
330
2D2D
100
AcDbSymbolTableRecord
100
AcDbBlockTableRecord
  2
*U21
340
0
102
{BLKREFS
331
1289
102
}
  0
BLOCK_RECORD
  5
2E17
330
2D2D
100
AcDbSymbolTableRecord
100
AcDbBlockTableRecord
  2
*D22
340
0
  0
BLOCK_RECORD
  5
2E19
330
2D2D
100
AcDbSymbolTableRecord
100
AcDbBlockTableRecord
  2
*U23
340
0
102
{BLKREFS
331
1419
102
}
  0
BLOCK_RECORD
  5
2E1B
330
2D2D
100
AcDbSymbolTableRecord
100
AcDbBlockTableRecord
  2
*D24
340
0
  0
BLOCK_RECORD
  5
2E1D
330
2D2D
100
AcDbSymbolTableRecord
100
AcDbBlockTableRecord
  2
*U25
340
0
102
{BLKREFS
331
1425
102
}
  0
BLOCK_RECORD
  5
2E1F
330
2D2D
100
AcDbSymbolTableRecord
100
AcDbBlockTableRecord
  2
*D26
340
0
  0
BLOCK_RECORD
  5
2E21
330
2D2D
100
AcDbSymbolTableRecord
100
AcDbBlockTableRecord
  2
*U27
340
0
102
{BLKREFS
331
1431
102
}
  0
BLOCK_RECORD
  5
2E23
330
2D2D
100
AcDbSymbolTableRecord
100
AcDbBlockTableRecord
  2
*D28
340
0
  0
BLOCK_RECORD
  5
2E25
330
2D2D
100
AcDbSymbolTableRecord
100
AcDbBlockTableRecord
  2
*U29
340
0
102
{BLKREFS
331
143D
102
}
  0
BLOCK_RECORD
  5
2E27
330
2D2D
100
AcDbSymbolTableRecord
100
AcDbBlockTableRecord
  2
*D30
340
0
  0
BLOCK_RECORD
  5
2E29
330
2D2D
100
AcDbSymbolTableRecord
100
AcDbBlockTableRecord
  2
*U31
340
0
102
{BLKREFS
331
1670
102
}
  0
BLOCK_RECORD
  5
2E2B
330
2D2D
100
AcDbSymbolTableRecord
100
AcDbBlockTableRecord
  2
*D32
340
0
  0
BLOCK_RECORD
  5
2E2D
330
2D2D
100
AcDbSymbolTableRecord
100
AcDbBlockTableRecord
  2
*U33
340
0
102
{BLKREFS
331
1679
102
}
  0
BLOCK_RECORD
  5
2E2F
330
2D2D
100
AcDbSymbolTableRecord
100
AcDbBlockTableRecord
  2
*D34
340
0
  0
BLOCK_RECORD
  5
2E31
330
2D2D
100
AcDbSymbolTableRecord
100
AcDbBlockTableRecord
  2
*U35
340
0
102
{BLKREFS
331
1682
102
}
  0
BLOCK_RECORD
  5
2E33
330
2D2D
100
AcDbSymbolTableRecord
100
AcDbBlockTableRecord
  2
*D36
340
0
  0
BLOCK_RECORD
  5
2E35
330
2D2D
100
AcDbSymbolTableRecord
100
AcDbBlockTableRecord
  2
*U37
340
0
102
{BLKREFS
331
168B
102
}
  0
BLOCK_RECORD
  5
2E37
330
2D2D
100
AcDbSymbolTableRecord
100
AcDbBlockTableRecord
  2
*U38
340
0
  0
BLOCK_RECORD
  5
2E39
330
2D2D
100
AcDbSymbolTableRecord
100
AcDbBlockTableRecord
  2
*D39
340
0
  0
BLOCK_RECORD
  5
2E3B
330
2D2D
100
AcDbSymbolTableRecord
100
AcDbBlockTableRecord
  2
*U40
340
0
102
{BLKREFS
331
1698
102
}
  0
BLOCK_RECORD
  5
2E3D
330
2D2D
100
AcDbSymbolTableRecord
100
AcDbBlockTableRecord
  2
*D41
340
0
  0
BLOCK_RECORD
  5
2E3F
330
2D2D
100
AcDbSymbolTableRecord
100
AcDbBlockTableRecord
  2
*U42
340
0
102
{BLKREFS
331
16A5
102
}
  0
BLOCK_RECORD
  5
2E41
330
2D2D
100
AcDbSymbolTableRecord
100
AcDbBlockTableRecord
  2
*D43
340
0
  0
BLOCK_RECORD
  5
2E43
330
2D2D
100
AcDbSymbolTableRecord
100
AcDbBlockTableRecord
  2
*U44
340
0
102
{BLKREFS
331
16B1
102
}
  0
BLOCK_RECORD
  5
2E45
330
2D2D
100
AcDbSymbolTableRecord
100
AcDbBlockTableRecord
  2
*D45
340
0
  0
BLOCK_RECORD
  5
2E47
330
2D2D
100
AcDbSymbolTableRecord
100
AcDbBlockTableRecord
  2
*U46
340
0
102
{BLKREFS
331
16BD
102
}
  0
BLOCK_RECORD
  5
2E49
330
2D2D
100
AcDbSymbolTableRecord
100
AcDbBlockTableRecord
  2
*D47
340
0
  0
BLOCK_RECORD
  5
2E4B
330
2D2D
100
AcDbSymbolTableRecord
100
AcDbBlockTableRecord
  2
*U48
340
0
102
{BLKREFS
331
16C9
102
}
  0
BLOCK_RECORD
  5
2E4D
330
2D2D
100
AcDbSymbolTableRecord
100
AcDbBlockTableRecord
  2
*D49
340
0
  0
BLOCK_RECORD
  5
2E4F
330
2D2D
100
AcDbSymbolTableRecord
100
AcDbBlockTableRecord
  2
*U50
340
0
102
{BLKREFS
331
16D5
102
}
  0
BLOCK_RECORD
  5
2E51
330
2D2D
100
AcDbSymbolTableRecord
100
AcDbBlockTableRecord
  2
*D51
340
0
  0
BLOCK_RECORD
  5
2E53
330
2D2D
100
AcDbSymbolTableRecord
100
AcDbBlockTableRecord
  2
*U52
340
0
102
{BLKREFS
331
1D88
102
}
  0
BLOCK_RECORD
  5
2E55
330
2D2D
100
AcDbSymbolTableRecord
100
AcDbBlockTableRecord
  2
*D53
340
0
  0
BLOCK_RECORD
  5
2E57
330
2D2D
100
AcDbSymbolTableRecord
100
AcDbBlockTableRecord
  2
*U54
340
0
102
{BLKREFS
331
1D91
102
}
  0
BLOCK_RECORD
  5
2E59
330
2D2D
100
AcDbSymbolTableRecord
100
AcDbBlockTableRecord
  2
*D55
340
0
  0
BLOCK_RECORD
  5
2E5B
330
2D2D
100
AcDbSymbolTableRecord
100
AcDbBlockTableRecord
  2
*U56
340
0
102
{BLKREFS
331
1D9A
102
}
  0
BLOCK_RECORD
  5
2E5D
330
2D2D
100
AcDbSymbolTableRecord
100
AcDbBlockTableRecord
  2
*D57
340
0
  0
BLOCK_RECORD
  5
2E5F
330
2D2D
100
AcDbSymbolTableRecord
100
AcDbBlockTableRecord
  2
*U58
340
0
102
{BLKREFS
331
1DA3
102
}
  0
BLOCK_RECORD
  5
2E61
330
2D2D
100
AcDbSymbolTableRecord
100
AcDbBlockTableRecord
  2
*D59
340
0
  0
BLOCK_RECORD
  5
2E63
330
2D2D
100
AcDbSymbolTableRecord
100
AcDbBlockTableRecord
  2
*U60
340
0
102
{BLKREFS
331
1DAD
102
}
  0
BLOCK_RECORD
  5
2E65
330
2D2D
100
AcDbSymbolTableRecord
100
AcDbBlockTableRecord
  2
*D61
340
0
  0
BLOCK_RECORD
  5
2E67
330
2D2D
100
AcDbSymbolTableRecord
100
AcDbBlockTableRecord
  2
*U62
340
0
102
{BLKREFS
331
1DB7
102
}
  0
BLOCK_RECORD
  5
2E69
330
2D2D
100
AcDbSymbolTableRecord
100
AcDbBlockTableRecord
  2
*U63
340
0
  0
BLOCK_RECORD
  5
2E6B
330
2D2D
100
AcDbSymbolTableRecord
100
AcDbBlockTableRecord
  2
*U64
340
0
  0
BLOCK_RECORD
  5
2E6D
330
2D2D
100
AcDbSymbolTableRecord
100
AcDbBlockTableRecord
  2
*U65
340
0
  0
BLOCK_RECORD
  5
2E6F
330
2D2D
100
AcDbSymbolTableRecord
100
AcDbBlockTableRecord
  2
*U66
340
0
  0
BLOCK_RECORD
  5
2E71
330
2D2D
100
AcDbSymbolTableRecord
100
AcDbBlockTableRecord
  2
*U67
340
0
  0
BLOCK_RECORD
  5
2E73
330
2D2D
100
AcDbSymbolTableRecord
100
AcDbBlockTableRecord
  2
*U68
340
0
102
{BLKREFS
331
2A5C
102
}
  0
BLOCK_RECORD
  5
2E75
330
2D2D
100
AcDbSymbolTableRecord
100
AcDbBlockTableRecord
  2
*U69
340
0
102
{BLKREFS
331
2A5D
102
}
  0
BLOCK_RECORD
  5
2E77
330
2D2D
100
AcDbSymbolTableRecord
100
AcDbBlockTableRecord
  2
*X70
340
0
102
{BLKREFS
331
2A6D
102
}
  0
BLOCK_RECORD
  5
2E79
330
2D2D
100
AcDbSymbolTableRecord
100
AcDbBlockTableRecord
  2
*X71
340
0
102
{BLKREFS
331
2A6E
102
}
  0
ENDTAB
  0
ENDSEC
  0
SECTION
  2
BLOCKS
  0
BLOCK
  5
2DA1
330
2DA0
100
AcDbEntity
  8
0
100
AcDbBlockBegin
  2
*Model_Space
 70
     0
 10
0.0
 20
0.0
 30
0.0
  3
*Model_Space
  1

  0
ENDBLK
  5
2DA2
330
2DA0
100
AcDbEntity
  8
0
100
AcDbBlockEnd
  0
BLOCK
  5
2D9D
330
2D9C
100
AcDbEntity
 67
     1
  8
0
100
AcDbBlockBegin
  2
*Paper_Space
 70
     0
 10
0.0
 20
0.0
 30
0.0
  3
*Paper_Space
  1

  0
ENDBLK
  5
2D9E
330
2D9C
100
AcDbEntity
 67
     1
  8
0
100
AcDbBlockEnd
  0
BLOCK
  5
2DEC
330
2DEB
100
AcDbEntity
  8
0
100
AcDbBlockBegin
  2
$MODEL_SPACE
 70
     0
 10
0.0
 20
0.0
 30
0.0
  3
$MODEL_SPACE
  1

  0
ENDBLK
  5
2B37
330
2DEB
100
AcDbEntity
  8
0
100
AcDbBlockEnd
  0
BLOCK
  5
2DEE
330
2DED
100
AcDbEntity
  8
0
100
AcDbBlockBegin
  2
$PAPER_SPACE
 70
     0
 10
0.0
 20
0.0
 30
0.0
  3
$PAPER_SPACE
  1

  0
ENDBLK
  5
2B33
330
2DED
100
AcDbEntity
  8
0
100
AcDbBlockEnd
  0
BLOCK
  5
2DF0
330
2DEF
100
AcDbEntity
  8
0
100
AcDbBlockBegin
  2
_ORIGIN
 70
     0
 10
0.0
 20
0.0
 30
0.0
  3
_ORIGIN
  1

  0
CIRCLE
  5
880
330
2DEF
100
AcDbEntity
  8
0
  6
Continuous
 62
     7
100
AcDbCircle
 10
0.0
 20
0.0
 30
0.0
 40
0.5
  0
LINE
  5
881
330
2DEF
100
AcDbEntity
  8
0
  6
Continuous
 62
     7
100
AcDbLine
 10
0.0
 20
0.0
 30
0.0
 11
-1.0
 21
0.0
 31
0.0
  0
ENDBLK
  5
882
330
2DEF
100
AcDbEntity
  8
0
100
AcDbBlockEnd
  0
BLOCK
  5
2DF2
330
2DF1
100
AcDbEntity
  8
0
 62
     1
100
AcDbBlockBegin
  2
_DOTBLANK
 70
     0
 10
0.0
 20
0.0
 30
0.0
  3
_DOTBLANK
  1

  0
CIRCLE
  5
AB3
330
2DF1
100
AcDbEntity
  8
0
  6
ByBlock
 62
     0
100
AcDbCircle
 10
0.0
 20
0.0
 30
0.0
 40
0.5
  0
LINE
  5
AB4
330
2DF1
100
AcDbEntity
  8
0
  6
ByBlock
 62
     0
100
AcDbLine
 10
-0.5
 20
0.0
 30
0.0
 11
-1.0
 21
0.0
 31
0.0
  0
ENDBLK
  5
AB6
330
2DF1
100
AcDbEntity
  8
0
 62
     1
100
AcDbBlockEnd
  0
BLOCK
  5
2DF4
330
2DF3
100
AcDbEntity
  8
0
 62
     1
100
AcDbBlockBegin
  2
_OPEN30
 70
     0
 10
0.0
 20
0.0
 30
0.0
  3
_OPEN30
  1

  0
LINE
  5
AB8
330
2DF3
100
AcDbEntity
  8
0
  6
ByBlock
 62
     0
100
AcDbLine
 10
-1.0
 20
0.26794919
 30
0.0
 11
0.0
 21
0.0
 31
0.0
  0
LINE
  5
AB9
330
2DF3
100
AcDbEntity
  8
0
  6
ByBlock
 62
     0
100
AcDbLine
 10
0.0
 20
0.0
 30
0.0
 11
-1.0
 21
-0.26794919
 31
0.0
  0
LINE
  5
ABA
330
2DF3
100
AcDbEntity
  8
0
  6
ByBlock
 62
     0
100
AcDbLine
 10
0.0
 20
0.0
 30
0.0
 11
-1.0
 21
0.0
 31
0.0
  0
ENDBLK
  5
ABC
330
2DF3
100
AcDbEntity
  8
0
 62
     1
100
AcDbBlockEnd
  0
BLOCK
  5
2DF6
330
2DF5
100
AcDbEntity
  8
0
100
AcDbBlockBegin
  2
*D5
 70
     1
 10
0.0
 20
0.0
 30
0.0
  3
*D5
  1

  0
LINE
  5
1296
330
2DF5
100
AcDbEntity
  8
SIZE
 62
     0
100
AcDbLine
 10
-134.5
 20
-320.0
 30
0.0
 11
-134.5
 21
-468.0173952306001
 31
0.0
  0
LINE
  5
1297
330
2DF5
100
AcDbEntity
  8
SIZE
 62
     0
100
AcDbLine
 10
134.5
 20
-320.0
 30
0.0
 11
134.5
 21
-468.0173952306001
 31
0.0
  0
LINE
  5
1298
330
2DF5
100
AcDbEntity
  8
SIZE
 62
     0
100
AcDbLine
 10
-122.5
 20
-448.0173952306
 30
0.0
 11
122.5
 21
-448.0173952306
 31
0.0
  0
INSERT
  5
1299
330
2DF5
100
AcDbEntity
  8
SIZE
 62
     0
100
AcDbBlockReference
  2
_DOTBLANK
 10
-134.5
 20
-448.0173952306
 30
0.0
 41
12.0
 42
12.0
 43
12.0
 50
180.0
  0
INSERT
  5
129A
330
2DF5
100
AcDbEntity
  8
SIZE
 62
     0
100
AcDbBlockReference
  2
_DOTBLANK
 10
134.5
 20
-448.0173952306
 30
0.0
 41
12.0
 42
12.0
 43
12.0
  0
INSERT
  5
129B
330
2DF5
100
AcDbEntity
  8
0
100
AcDbBlockReference
  2
*U6
 10
0.0
 20
0.0
 30
0.0
  0
POINT
  5
129C
330
2DF5
100
AcDbEntity
  8
DEFPOINTS
 62
     0
100
AcDbPoint
 10
-134.5
 20
-300.0
 30
0.0
  0
POINT
  5
129D
330
2DF5
100
AcDbEntity
  8
DEFPOINTS
 62
     0
100
AcDbPoint
 10
134.5
 20
-300.0
 30
0.0
  0
POINT
  5
129E
330
2DF5
100
AcDbEntity
  8
DEFPOINTS
 62
     0
100
AcDbPoint
 10
134.5
 20
-448.0173952306
 30
0.0
  0
ENDBLK
  5
D72
330
2DF5
100
AcDbEntity
  8
0
100
AcDbBlockEnd
  0
BLOCK
  5
2DF8
330
2DF7
100
AcDbEntity
  8
0
100
AcDbBlockBegin
  2
*U6
 70
     1
 10
0.0
 20
0.0
 30
0.0
  3
*U6
  1

  0
TEXT
  5
1EF5
330
2DF7
100
AcDbEntity
  8
SIZE
 62
     0
100
AcDbText
 10
-72.68571428571426
 20
-438.0173952305999
 30
0.0
 40
64.0
  1
269
 41
0.9
100
AcDbText
  0
ENDBLK
  5
1EF7
330
2DF7
100
AcDbEntity
  8
0
100
AcDbBlockEnd
  0
BLOCK
  5
2DFA
330
2DF9
100
AcDbEntity
  8
0
100
AcDbBlockBegin
  2
*D7
 70
     1
 10
0.0
 20
0.0
 30
0.0
  3
*D7
  1

  0
LINE
  5
11A7
330
2DF9
100
AcDbEntity
  8
SIZE
  6
Continuous
 62
     0
100
AcDbLine
 10
143.5
 20
-300.0
 30
0.0
 11
304.6432844803791
 21
-300.0
 31
0.0
  0
LINE
  5
11A8
330
2DF9
100
AcDbEntity
  8
SIZE
  6
Continuous
 62
     0
100
AcDbLine
 10
177.5
 20
-0.0000000000000057
 30
0.0
 11
304.6432844803792
 21
-0.0000000000000417
 31
0.0
  0
LINE
  5
11A9
330
2DF9
100
AcDbEntity
  8
SIZE
  6
Continuous
 62
     0
100
AcDbLine
 10
284.6432844803791
 20
-288.0000000000001
 30
0.0
 11
284.6432844803792
 21
-12.00000000000003
 31
0.0
  0
INSERT
  5
11AA
330
2DF9
100
AcDbEntity
  8
SIZE
  6
Continuous
 62
     0
100
AcDbBlockReference
  2
_DOTBLANK
 10
284.6432844803791
 20
-300.0
 30
0.0
 41
12.0
 42
12.0
 43
12.0
 50
270.0
  0
INSERT
  5
11AB
330
2DF9
100
AcDbEntity
  8
SIZE
  6
Continuous
 62
     0
100
AcDbBlockReference
  2
_DOTBLANK
 10
284.6432844803792
 20
-0.000000000000036
 30
0.0
 41
12.0
 42
12.0
 43
12.0
 50
90.0
  0
INSERT
  5
11AC
330
2DF9
100
AcDbEntity
  8
0
100
AcDbBlockReference
  2
*U8
 10
0.0
 20
0.0
 30
0.0
  0
POINT
  5
11AD
330
2DF9
100
AcDbEntity
  8
DEFPOINTS
  6
Continuous
 62
     0
100
AcDbPoint
 10
123.5
 20
-300.0
 30
0.0
  0
POINT
  5
11AE
330
2DF9
100
AcDbEntity
  8
DEFPOINTS
  6
Continuous
 62
     0
100
AcDbPoint
 10
157.5
 20
0.0
 30
0.0
  0
POINT
  5
11AF
330
2DF9
100
AcDbEntity
  8
DEFPOINTS
  6
Continuous
 62
     0
100
AcDbPoint
 10
284.6432844803792
 20
-0.000000000000036
 30
0.0
  0
ENDBLK
  5
E11
330
2DF9
100
AcDbEntity
  8
0
100
AcDbBlockEnd
  0
BLOCK
  5
2DFC
330
2DFB
100
AcDbEntity
  8
0
100
AcDbBlockBegin
  2
*U8
 70
     1
 10
0.0
 20
0.0
 30
0.0
  3
*U8
  1

  0
TEXT
  5
1EE1
330
2DFB
100
AcDbEntity
  8
SIZE
 62
     0
100
AcDbText
 10
274.6432844803792
 20
-224.0571428571429
 30
0.0
 40
64.0
  1
300
 50
90.0
 41
0.9
100
AcDbText
  0
ENDBLK
  5
1EE3
330
2DFB
100
AcDbEntity
  8
0
100
AcDbBlockEnd
  0
BLOCK
  5
2DFE
330
2DFD
100
AcDbEntity
  8
0
100
AcDbBlockBegin
  2
*D9
 70
     1
 10
0.0
 20
0.0
 30
0.0
  3
*D9
  1

  0
LINE
  5
E7D
330
2DFD
100
AcDbEntity
  8
SIZE
 62
     0
100
AcDbLine
 10
-139.9999999999998
 20
32.46448280219375
 30
0.0
 11
-139.9999999999998
 21
136.4516878685508
 31
0.0
  0
LINE
  5
E7E
330
2DFD
100
AcDbEntity
  8
SIZE
 62
     0
100
AcDbLine
 10
140.0
 20
32.46448280219375
 30
0.0
 11
140.0
 21
136.4516878685508
 31
0.0
  0
LINE
  5
E7F
330
2DFD
100
AcDbEntity
  8
SIZE
 62
     0
100
AcDbLine
 10
-128.0
 20
116.4516878685508
 30
0.0
 11
128.0
 21
116.4516878685508
 31
0.0
  0
INSERT
  5
E80
330
2DFD
100
AcDbEntity
  8
SIZE
 62
     0
100
AcDbBlockReference
  2
_DOTBLANK
 10
-139.9999999999998
 20
116.4516878685508
 30
0.0
 41
12.0
 42
12.0
 43
12.0
 50
180.0
  0
INSERT
  5
E81
330
2DFD
100
AcDbEntity
  8
SIZE
 62
     0
100
AcDbBlockReference
  2
_DOTBLANK
 10
140.0
 20
116.4516878685508
 30
0.0
 41
12.0
 42
12.0
 43
12.0
  0
INSERT
  5
E82
330
2DFD
100
AcDbEntity
  8
0
100
AcDbBlockReference
  2
*U10
 10
0.0
 20
0.0
 30
0.0
  0
POINT
  5
E83
330
2DFD
100
AcDbEntity
  8
DEFPOINTS
 62
     0
100
AcDbPoint
 10
-139.9999999999998
 20
12.46448280219374
 30
0.0
  0
POINT
  5
E84
330
2DFD
100
AcDbEntity
  8
DEFPOINTS
 62
     0
100
AcDbPoint
 10
140.0
 20
12.46448280219374
 30
0.0
  0
POINT
  5
E85
330
2DFD
100
AcDbEntity
  8
DEFPOINTS
 62
     0
100
AcDbPoint
 10
140.0
 20
116.4516878685508
 30
0.0
  0
ENDBLK
  5
E7C
330
2DFD
100
AcDbEntity
  8
0
100
AcDbBlockEnd
  0
BLOCK
  5
2E00
330
2DFF
100
AcDbEntity
  8
0
100
AcDbBlockBegin
  2
*U10
 70
     1
 10
0.0
 20
0.0
 30
0.0
  3
*U10
  1

  0
TEXT
  5
1ED8
330
2DFF
100
AcDbEntity
  8
SIZE
 62
     0
100
AcDbText
 10
-74.05714285714281
 20
126.4516878685508
 30
0.0
 40
64.0
  1
280
 41
0.9
100
AcDbText
  0
ENDBLK
  5
1EDA
330
2DFF
100
AcDbEntity
  8
0
100
AcDbBlockEnd
  0
BLOCK
  5
2E02
330
2E01
100
AcDbEntity
  8
0
100
AcDbBlockBegin
  2
GENAXEH
 70
     0
 10
0.0
 20
0.0
 30
0.0
  3
GENAXEH
  1

  0
LINE
  5
FDB
330
2E01
100
AcDbEntity
  8
0
100
AcDbLine
 10
-1.0
 20
0.0
 30
0.0
 11
1.0
 21
0.0
 31
0.0
  0
ENDBLK
  5
FDD
330
2E01
100
AcDbEntity
  8
0
100
AcDbBlockEnd
  0
BLOCK
  5
2E04
330
2E03
100
AcDbEntity
  8
0
100
AcDbBlockBegin
  2
*D12
 70
     1
 10
0.0
 20
0.0
 30
0.0
  3
*D12
  1

  0
LINE
  5
1120
330
2E03
100
AcDbEntity
  8
SIZE
 62
     0
100
AcDbLine
 10
-157.5
 20
20.0
 30
0.0
 11
-157.5
 21
245.5794621189598
 31
0.0
  0
LINE
  5
1121
330
2E03
100
AcDbEntity
  8
SIZE
 62
     0
100
AcDbLine
 10
157.5
 20
20.0
 30
0.0
 11
157.5
 21
245.5794621189598
 31
0.0
  0
LINE
  5
1122
330
2E03
100
AcDbEntity
  8
SIZE
 62
     0
100
AcDbLine
 10
-145.5
 20
225.5794621189598
 30
0.0
 11
145.5
 21
225.5794621189598
 31
0.0
  0
INSERT
  5
1123
330
2E03
100
AcDbEntity
  8
SIZE
 62
     0
100
AcDbBlockReference
  2
_DOTBLANK
 10
-157.5
 20
225.5794621189598
 30
0.0
 41
12.0
 42
12.0
 43
12.0
 50
180.0
  0
INSERT
  5
1124
330
2E03
100
AcDbEntity
  8
SIZE
 62
     0
100
AcDbBlockReference
  2
_DOTBLANK
 10
157.5
 20
225.5794621189598
 30
0.0
 41
12.0
 42
12.0
 43
12.0
  0
INSERT
  5
1125
330
2E03
100
AcDbEntity
  8
0
100
AcDbBlockReference
  2
*U13
 10
0.0
 20
0.0
 30
0.0
  0
POINT
  5
1126
330
2E03
100
AcDbEntity
  8
DEFPOINTS
 62
     0
100
AcDbPoint
 10
-157.5
 20
0.0
 30
0.0
  0
POINT
  5
1127
330
2E03
100
AcDbEntity
  8
DEFPOINTS
 62
     0
100
AcDbPoint
 10
157.5
 20
0.0
 30
0.0
  0
POINT
  5
1128
330
2E03
100
AcDbEntity
  8
DEFPOINTS
 62
     0
100
AcDbPoint
 10
157.5
 20
225.5794621189598
 30
0.0
  0
ENDBLK
  5
111F
330
2E03
100
AcDbEntity
  8
0
100
AcDbBlockEnd
  0
BLOCK
  5
2E06
330
2E05
100
AcDbEntity
  8
0
100
AcDbBlockBegin
  2
*U13
 70
     1
 10
0.0
 20
0.0
 30
0.0
  3
*U13
  1

  0
TEXT
  5
1EDD
330
2E05
100
AcDbEntity
  8
SIZE
 62
     0
100
AcDbText
 10
-68.57142857142857
 20
235.5794621189599
 30
0.0
 40
64.0
  1
315
 41
0.9
100
AcDbText
  0
ENDBLK
  5
1EDF
330
2E05
100
AcDbEntity
  8
0
100
AcDbBlockEnd
  0
BLOCK
  5
2E08
330
2E07
100
AcDbEntity
  8
0
100
AcDbBlockBegin
  2
*D14
 70
     1
 10
0.0
 20
0.0
 30
0.0
  3
*D14
  1

  0
LINE
  5
11BD
330
2E07
100
AcDbEntity
  8
NOTE
 62
     0
100
AcDbLine
 10
-123.4999999999999
 20
-320.0
 30
0.0
 11
-123.4999999999999
 21
-354.9529861856111
 31
0.0
  0
LINE
  5
11BE
330
2E07
100
AcDbEntity
  8
NOTE
 62
     0
100
AcDbLine
 10
-133.4999999999998
 20
-331.2126909923287
 30
0.0
 11
-133.4999999999998
 21
-354.9529861856111
 31
0.0
  0
LINE
  5
11BF
330
2E07
100
AcDbEntity
  8
NOTE
 62
     0
100
AcDbLine
 10
-111.4999999999999
 20
-334.9529861856112
 30
0.0
 11
-99.4999999999999
 21
-334.9529861856112
 31
0.0
  0
LINE
  5
11C0
330
2E07
100
AcDbEntity
  8
NOTE
 62
     0
100
AcDbLine
 10
-145.4999999999998
 20
-334.9529861856112
 30
0.0
 11
-157.4999999999998
 21
-334.9529861856112
 31
0.0
  0
LINE
  5
11C1
330
2E07
100
AcDbEntity
  8
NOTE
 62
     0
100
AcDbLine
 10
-123.4999999999999
 20
-334.9529861856112
 30
0.0
 11
-133.4999999999998
 21
-334.9529861856112
 31
0.0
  0
INSERT
  5
11C2
330
2E07
100
AcDbEntity
  8
NOTE
 62
     0
100
AcDbBlockReference
  2
_DOTBLANK
 10
-123.4999999999999
 20
-334.9529861856112
 30
0.0
 41
12.0
 42
12.0
 43
12.0
 50
180.0
  0
INSERT
  5
11C3
330
2E07
100
AcDbEntity
  8
NOTE
 62
     0
100
AcDbBlockReference
  2
_DOTBLANK
 10
-133.4999999999998
 20
-334.9529861856112
 30
0.0
 41
12.0
 42
12.0
 43
12.0
  0
INSERT
  5
11C4
330
2E07
100
AcDbEntity
  8
0
100
AcDbBlockReference
  2
*U15
 10
0.0
 20
0.0
 30
0.0
  0
POINT
  5
11C5
330
2E07
100
AcDbEntity
  8
DEFPOINTS
 62
     0
100
AcDbPoint
 10
-123.4999999999999
 20
-300.0
 30
0.0
  0
POINT
  5
11C6
330
2E07
100
AcDbEntity
  8
DEFPOINTS
 62
     0
100
AcDbPoint
 10
-133.4999999999998
 20
-311.2126909923287
 30
0.0
  0
POINT
  5
11C7
330
2E07
100
AcDbEntity
  8
DEFPOINTS
 62
     0
100
AcDbPoint
 10
-133.4999999999998
 20
-334.9529861856112
 30
0.0
  0
ENDBLK
  5
11BC
330
2E07
100
AcDbEntity
  8
0
100
AcDbBlockEnd
  0
BLOCK
  5
2E0A
330
2E09
100
AcDbEntity
  8
0
100
AcDbBlockBegin
  2
*U15
 70
     1
 10
0.0
 20
0.0
 30
0.0
  3
*U15
  1

  0
TEXT
  5
1EE5
330
2E09
100
AcDbEntity
  8
NOTE
 62
     0
100
AcDbText
 10
-169.642857142857
 20
-324.9529861856112
 30
0.0
 40
64.0
  1
10
 41
0.9
100
AcDbText
  0
ENDBLK
  5
1EE7
330
2E09
100
AcDbEntity
  8
0
100
AcDbBlockEnd
  0
BLOCK
  5
2E0C
330
2E0B
100
AcDbEntity
  8
0
100
AcDbBlockBegin
  2
*D16
 70
     1
 10
0.0
 20
0.0
 30
0.0
  3
*D16
  1

  0
LINE
  5
11E7
330
2E0B
100
AcDbEntity
  8
NOTE
 62
     0
100
AcDbLine
 10
-135.5
 20
-333.2126909923287
 30
0.0
 11
-135.5
 21
-386.2569421441843
 31
0.0
  0
LINE
  5
11E8
330
2E0B
100
AcDbEntity
  8
NOTE
 62
     0
100
AcDbLine
 10
-123.4999999999999
 20
-320.0
 30
0.0
 11
-123.4999999999999
 21
-386.2569421441843
 31
0.0
  0
LINE
  5
11E9
330
2E0B
100
AcDbEntity
  8
NOTE
 62
     0
100
AcDbLine
 10
-147.5
 20
-366.2569421441844
 30
0.0
 11
-159.5
 21
-366.2569421441844
 31
0.0
  0
LINE
  5
11EA
330
2E0B
100
AcDbEntity
  8
NOTE
 62
     0
100
AcDbLine
 10
-111.4999999999999
 20
-366.2569421441844
 30
0.0
 11
-99.4999999999999
 21
-366.2569421441844
 31
0.0
  0
LINE
  5
11EB
330
2E0B
100
AcDbEntity
  8
NOTE
 62
     0
100
AcDbLine
 10
-135.5
 20
-366.2569421441844
 30
0.0
 11
-123.4999999999999
 21
-366.2569421441844
 31
0.0
  0
INSERT
  5
11EC
330
2E0B
100
AcDbEntity
  8
NOTE
 62
     0
100
AcDbBlockReference
  2
_DOTBLANK
 10
-135.5
 20
-366.2569421441844
 30
0.0
 41
12.0
 42
12.0
 43
12.0
  0
INSERT
  5
11ED
330
2E0B
100
AcDbEntity
  8
NOTE
 62
     0
100
AcDbBlockReference
  2
_DOTBLANK
 10
-123.4999999999999
 20
-366.2569421441844
 30
0.0
 41
12.0
 42
12.0
 43
12.0
 50
180.0
  0
INSERT
  5
11EE
330
2E0B
100
AcDbEntity
  8
0
100
AcDbBlockReference
  2
*U17
 10
0.0
 20
0.0
 30
0.0
  0
POINT
  5
11EF
330
2E0B
100
AcDbEntity
  8
DEFPOINTS
 62
     0
100
AcDbPoint
 10
-135.5
 20
-313.2126909923287
 30
0.0
  0
POINT
  5
11F0
330
2E0B
100
AcDbEntity
  8
DEFPOINTS
 62
     0
100
AcDbPoint
 10
-123.4999999999999
 20
-300.0
 30
0.0
  0
POINT
  5
11F1
330
2E0B
100
AcDbEntity
  8
DEFPOINTS
 62
     0
100
AcDbPoint
 10
-123.4999999999999
 20
-366.2569421441844
 30
0.0
  0
ENDBLK
  5
11E6
330
2E0B
100
AcDbEntity
  8
0
100
AcDbBlockEnd
  0
BLOCK
  5
2E0E
330
2E0D
100
AcDbEntity
  8
0
100
AcDbBlockBegin
  2
*U17
 70
     1
 10
0.0
 20
0.0
 30
0.0
  3
*U17
  1

  0
TEXT
  5
1EE9
330
2E0D
100
AcDbEntity
  8
NOTE
 62
     0
100
AcDbText
 10
-170.642857142857
 20
-356.2569421441843
 30
0.0
 40
64.0
  1
12
 41
0.9
100
AcDbText
  0
ENDBLK
  5
1EEB
330
2E0D
100
AcDbEntity
  8
0
100
AcDbBlockEnd
  0
BLOCK
  5
2E10
330
2E0F
100
AcDbEntity
  8
0
100
AcDbBlockBegin
  2
*D18
 70
     1
 10
0.0
 20
0.0
 30
0.0
  3
*D18
  1

  0
LINE
  5
11F6
330
2E0F
100
AcDbEntity
  8
NOTE
 62
     0
100
AcDbLine
 10
-123.4999999999999
 20
-320.0
 30
0.0
 11
-123.4999999999999
 21
-583.8286022818904
 31
0.0
  0
LINE
  5
11F7
330
2E0F
100
AcDbEntity
  8
NOTE
 62
     0
100
AcDbLine
 10
123.5
 20
-320.0
 30
0.0
 11
123.5
 21
-583.8286022818904
 31
0.0
  0
LINE
  5
11F8
330
2E0F
100
AcDbEntity
  8
NOTE
 62
     0
100
AcDbLine
 10
-111.4999999999999
 20
-563.8286022818904
 30
0.0
 11
111.5
 21
-563.8286022818904
 31
0.0
  0
INSERT
  5
11F9
330
2E0F
100
AcDbEntity
  8
NOTE
 62
     0
100
AcDbBlockReference
  2
_DOTBLANK
 10
-123.4999999999999
 20
-563.8286022818904
 30
0.0
 41
12.0
 42
12.0
 43
12.0
 50
180.0
  0
INSERT
  5
11FA
330
2E0F
100
AcDbEntity
  8
NOTE
 62
     0
100
AcDbBlockReference
  2
_DOTBLANK
 10
123.5
 20
-563.8286022818904
 30
0.0
 41
12.0
 42
12.0
 43
12.0
  0
INSERT
  5
11FB
330
2E0F
100
AcDbEntity
  8
0
100
AcDbBlockReference
  2
*U19
 10
0.0
 20
0.0
 30
0.0
  0
POINT
  5
11FC
330
2E0F
100
AcDbEntity
  8
DEFPOINTS
 62
     0
100
AcDbPoint
 10
-123.4999999999999
 20
-300.0
 30
0.0
  0
POINT
  5
11FD
330
2E0F
100
AcDbEntity
  8
DEFPOINTS
 62
     0
100
AcDbPoint
 10
123.5
 20
-300.0
 30
0.0
  0
POINT
  5
11FE
330
2E0F
100
AcDbEntity
  8
DEFPOINTS
 62
     0
100
AcDbPoint
 10
123.5
 20
-563.8286022818904
 30
0.0
  0
ENDBLK
  5
11F5
330
2E0F
100
AcDbEntity
  8
0
100
AcDbBlockEnd
  0
BLOCK
  5
2E12
330
2E11
100
AcDbEntity
  8
0
100
AcDbBlockBegin
  2
*U19
 70
     1
 10
0.0
 20
0.0
 30
0.0
  3
*U19
  1

  0
TEXT
  5
1EED
330
2E11
100
AcDbEntity
  8
NOTE
 62
     0
100
AcDbText
 10
-74.05714285714281
 20
-553.8286022818904
 30
0.0
 40
64.0
  1
247
 41
0.9
100
AcDbText
  0
ENDBLK
  5
1EEF
330
2E11
100
AcDbEntity
  8
0
100
AcDbBlockEnd
  0
BLOCK
  5
2E14
330
2E13
100
AcDbEntity
  8
0
100
AcDbBlockBegin
  2
*D20
 70
     1
 10
0.0
 20
0.0
 30
0.0
  3
*D20
  1

  0
LINE
  5
1284
330
2E13
100
AcDbEntity
  8
NOTE
 62
     0
100
AcDbLine
 10
-123.5
 20
12.0
 30
0.0
 11
-123.5
 21
71.83630134534229
 31
0.0
  0
LINE
  5
1285
330
2E13
100
AcDbEntity
  8
NOTE
 62
     0
100
AcDbLine
 10
123.5
 20
12.0
 30
0.0
 11
123.5
 21
71.83630134534229
 31
0.0
  0
LINE
  5
1286
330
2E13
100
AcDbEntity
  8
NOTE
 62
     0
100
AcDbLine
 10
-111.5
 20
51.83630134534229
 30
0.0
 11
111.5
 21
51.83630134534229
 31
0.0
  0
INSERT
  5
1287
330
2E13
100
AcDbEntity
  8
NOTE
 62
     0
100
AcDbBlockReference
  2
_DOTBLANK
 10
-123.5
 20
51.83630134534229
 30
0.0
 41
12.0
 42
12.0
 43
12.0
 50
180.0
  0
INSERT
  5
1288
330
2E13
100
AcDbEntity
  8
NOTE
 62
     0
100
AcDbBlockReference
  2
_DOTBLANK
 10
123.5
 20
51.83630134534229
 30
0.0
 41
12.0
 42
12.0
 43
12.0
  0
INSERT
  5
1289
330
2E13
100
AcDbEntity
  8
0
100
AcDbBlockReference
  2
*U21
 10
0.0
 20
0.0
 30
0.0
  0
POINT
  5
128A
330
2E13
100
AcDbEntity
  8
DEFPOINTS
 62
     0
100
AcDbPoint
 10
-123.5
 20
-8.0
 30
0.0
  0
POINT
  5
128B
330
2E13
100
AcDbEntity
  8
DEFPOINTS
 62
     0
100
AcDbPoint
 10
123.5
 20
-8.0
 30
0.0
  0
POINT
  5
128C
330
2E13
100
AcDbEntity
  8
DEFPOINTS
 62
     0
100
AcDbPoint
 10
123.5
 20
51.83630134534229
 30
0.0
  0
ENDBLK
  5
1283
330
2E13
100
AcDbEntity
  8
0
100
AcDbBlockEnd
  0
BLOCK
  5
2E16
330
2E15
100
AcDbEntity
  8
0
100
AcDbBlockBegin
  2
*U21
 70
     1
 10
0.0
 20
0.0
 30
0.0
  3
*U21
  1

  0
TEXT
  5
1EF1
330
2E15
100
AcDbEntity
  8
NOTE
 62
     0
100
AcDbText
 10
-74.05714285714283
 20
61.83630134534229
 30
0.0
 40
64.0
  1
247
 41
0.9
100
AcDbText
  0
ENDBLK
  5
1EF3
330
2E15
100
AcDbEntity
  8
0
100
AcDbBlockEnd
  0
BLOCK
  5
2E18
330
2E17
100
AcDbEntity
  8
0
100
AcDbBlockBegin
  2
*D22
 70
     1
 10
0.0
 20
0.0
 30
0.0
  3
*D22
  1

  0
LINE
  5
1414
330
2E17
100
AcDbEntity
  8
SIZE
 62
     0
100
AcDbLine
 10
-22313.11521613997
 20
7365.702971374808
 30
0.0
 11
-22313.11521613997
 21
7217.685576144207
 31
0.0
  0
LINE
  5
1415
330
2E17
100
AcDbEntity
  8
SIZE
 62
     0
100
AcDbLine
 10
-22044.11521613997
 20
7365.702971374808
 30
0.0
 11
-22044.11521613997
 21
7217.685576144207
 31
0.0
  0
LINE
  5
1416
330
2E17
100
AcDbEntity
  8
SIZE
 62
     0
100
AcDbLine
 10
-22301.11521613997
 20
7237.685576144207
 30
0.0
 11
-22056.11521613997
 21
7237.685576144207
 31
0.0
  0
INSERT
  5
1417
330
2E17
100
AcDbEntity
  8
SIZE
 62
     0
100
AcDbBlockReference
  2
_DOTBLANK
 10
-22313.11521613997
 20
7237.685576144207
 30
0.0
 41
12.0
 42
12.0
 43
12.0
 50
180.0
  0
INSERT
  5
1418
330
2E17
100
AcDbEntity
  8
SIZE
 62
     0
100
AcDbBlockReference
  2
_DOTBLANK
 10
-22044.11521613997
 20
7237.685576144207
 30
0.0
 41
12.0
 42
12.0
 43
12.0
  0
INSERT
  5
1419
330
2E17
100
AcDbEntity
  8
0
100
AcDbBlockReference
  2
*U23
 10
0.0
 20
0.0
 30
0.0
  0
POINT
  5
141A
330
2E17
100
AcDbEntity
  8
DEFPOINTS
 62
     0
100
AcDbPoint
 10
-22313.11521613997
 20
7385.702971374808
 30
0.0
  0
POINT
  5
141B
330
2E17
100
AcDbEntity
  8
DEFPOINTS
 62
     0
100
AcDbPoint
 10
-22044.11521613997
 20
7385.702971374808
 30
0.0
  0
POINT
  5
141C
330
2E17
100
AcDbEntity
  8
DEFPOINTS
 62
     0
100
AcDbPoint
 10
-22044.11521613997
 20
7237.685576144207
 30
0.0
  0
ENDBLK
  5
141D
330
2E17
100
AcDbEntity
  8
0
100
AcDbBlockEnd
  0
BLOCK
  5
2E1A
330
2E19
100
AcDbEntity
  8
0
100
AcDbBlockBegin
  2
*U23
 70
     1
 10
0.0
 20
0.0
 30
0.0
  3
*U23
  1

  0
TEXT
  5
1EF9
330
2E19
100
AcDbEntity
  8
SIZE
 62
     0
100
AcDbText
 10
-22251.30093042568
 20
7247.685576144205
 30
0.0
 40
64.0
  1
269
 41
0.9
100
AcDbText
  0
ENDBLK
  5
1EFB
330
2E19
100
AcDbEntity
  8
0
100
AcDbBlockEnd
  0
BLOCK
  5
2E1C
330
2E1B
100
AcDbEntity
  8
0
100
AcDbBlockBegin
  2
*D24
 70
     1
 10
0.0
 20
0.0
 30
0.0
  3
*D24
  1

  0
LINE
  5
1420
330
2E1B
100
AcDbEntity
  8
SIZE
  6
Continuous
 62
     0
100
AcDbLine
 10
-22035.11521613997
 20
7385.702971374808
 30
0.0
 11
-21873.97193165959
 21
7385.702971374808
 31
0.0
  0
LINE
  5
1421
330
2E1B
100
AcDbEntity
  8
SIZE
  6
Continuous
 62
     0
100
AcDbLine
 10
-22001.11521613997
 20
7685.702971374808
 30
0.0
 11
-21873.97193165959
 21
7685.702971374808
 31
0.0
  0
LINE
  5
1422
330
2E1B
100
AcDbEntity
  8
SIZE
  6
Continuous
 62
     0
100
AcDbLine
 10
-21893.97193165959
 20
7397.702971374808
 30
0.0
 11
-21893.97193165959
 21
7673.702971374808
 31
0.0
  0
INSERT
  5
1423
330
2E1B
100
AcDbEntity
  8
SIZE
  6
Continuous
 62
     0
100
AcDbBlockReference
  2
_DOTBLANK
 10
-21893.97193165959
 20
7385.702971374808
 30
0.0
 41
12.0
 42
12.0
 43
12.0
 50
270.0
  0
INSERT
  5
1424
330
2E1B
100
AcDbEntity
  8
SIZE
  6
Continuous
 62
     0
100
AcDbBlockReference
  2
_DOTBLANK
 10
-21893.97193165959
 20
7685.702971374808
 30
0.0
 41
12.0
 42
12.0
 43
12.0
 50
90.0
  0
INSERT
  5
1425
330
2E1B
100
AcDbEntity
  8
0
100
AcDbBlockReference
  2
*U25
 10
0.0
 20
0.0
 30
0.0
  0
POINT
  5
1426
330
2E1B
100
AcDbEntity
  8
DEFPOINTS
  6
Continuous
 62
     0
100
AcDbPoint
 10
-22055.11521613997
 20
7385.702971374808
 30
0.0
  0
POINT
  5
1427
330
2E1B
100
AcDbEntity
  8
DEFPOINTS
  6
Continuous
 62
     0
100
AcDbPoint
 10
-22021.11521613997
 20
7685.702971374808
 30
0.0
  0
POINT
  5
1428
330
2E1B
100
AcDbEntity
  8
DEFPOINTS
  6
Continuous
 62
     0
100
AcDbPoint
 10
-21893.97193165959
 20
7685.702971374808
 30
0.0
  0
ENDBLK
  5
1429
330
2E1B
100
AcDbEntity
  8
0
100
AcDbBlockEnd
  0
BLOCK
  5
2E1E
330
2E1D
100
AcDbEntity
  8
0
100
AcDbBlockBegin
  2
*U25
 70
     1
 10
0.0
 20
0.0
 30
0.0
  3
*U25
  1

  0
TEXT
  5
1EFD
330
2E1D
100
AcDbEntity
  8
SIZE
 62
     0
100
AcDbText
 10
-21903.97193165959
 20
7461.645828517662
 30
0.0
 40
64.0
  1
300
 50
90.0
 41
0.9
100
AcDbText
  0
ENDBLK
  5
1EFF
330
2E1D
100
AcDbEntity
  8
0
100
AcDbBlockEnd
  0
BLOCK
  5
2E20
330
2E1F
100
AcDbEntity
  8
0
100
AcDbBlockBegin
  2
*D26
 70
     1
 10
0.0
 20
0.0
 30
0.0
  3
*D26
  1

  0
LINE
  5
142C
330
2E1F
100
AcDbEntity
  8
SIZE
 62
     0
100
AcDbLine
 10
-22318.61521613997
 20
7718.167454177002
 30
0.0
 11
-22318.61521613997
 21
7822.154659243358
 31
0.0
  0
LINE
  5
142D
330
2E1F
100
AcDbEntity
  8
SIZE
 62
     0
100
AcDbLine
 10
-22038.61521613997
 20
7718.167454177002
 30
0.0
 11
-22038.61521613997
 21
7822.154659243358
 31
0.0
  0
LINE
  5
142E
330
2E1F
100
AcDbEntity
  8
SIZE
 62
     0
100
AcDbLine
 10
-22306.61521613997
 20
7802.154659243358
 30
0.0
 11
-22050.61521613997
 21
7802.154659243358
 31
0.0
  0
INSERT
  5
142F
330
2E1F
100
AcDbEntity
  8
SIZE
 62
     0
100
AcDbBlockReference
  2
_DOTBLANK
 10
-22318.61521613997
 20
7802.154659243358
 30
0.0
 41
12.0
 42
12.0
 43
12.0
 50
180.0
  0
INSERT
  5
1430
330
2E1F
100
AcDbEntity
  8
SIZE
 62
     0
100
AcDbBlockReference
  2
_DOTBLANK
 10
-22038.61521613997
 20
7802.154659243358
 30
0.0
 41
12.0
 42
12.0
 43
12.0
  0
INSERT
  5
1431
330
2E1F
100
AcDbEntity
  8
0
100
AcDbBlockReference
  2
*U27
 10
0.0
 20
0.0
 30
0.0
  0
POINT
  5
1432
330
2E1F
100
AcDbEntity
  8
DEFPOINTS
 62
     0
100
AcDbPoint
 10
-22318.61521613997
 20
7698.167454177002
 30
0.0
  0
POINT
  5
1433
330
2E1F
100
AcDbEntity
  8
DEFPOINTS
 62
     0
100
AcDbPoint
 10
-22038.61521613997
 20
7698.167454177002
 30
0.0
  0
POINT
  5
1434
330
2E1F
100
AcDbEntity
  8
DEFPOINTS
 62
     0
100
AcDbPoint
 10
-22038.61521613997
 20
7802.154659243358
 30
0.0
  0
ENDBLK
  5
1435
330
2E1F
100
AcDbEntity
  8
0
100
AcDbBlockEnd
  0
BLOCK
  5
2E22
330
2E21
100
AcDbEntity
  8
0
100
AcDbBlockBegin
  2
*U27
 70
     1
 10
0.0
 20
0.0
 30
0.0
  3
*U27
  1

  0
TEXT
  5
1F01
330
2E21
100
AcDbEntity
  8
SIZE
 62
     0
100
AcDbText
 10
-22252.6723589971
 20
7812.154659243358
 30
0.0
 40
64.0
  1
280
 41
0.9
100
AcDbText
  0
ENDBLK
  5
1F03
330
2E21
100
AcDbEntity
  8
0
100
AcDbBlockEnd
  0
BLOCK
  5
2E24
330
2E23
100
AcDbEntity
  8
0
100
AcDbBlockBegin
  2
*D28
 70
     1
 10
0.0
 20
0.0
 30
0.0
  3
*D28
  1

  0
LINE
  5
1438
330
2E23
100
AcDbEntity
  8
SIZE
 62
     0
100
AcDbLine
 10
-22336.11521613997
 20
7705.702971374808
 30
0.0
 11
-22336.11521613997
 21
7931.282433493766
 31
0.0
  0
LINE
  5
1439
330
2E23
100
AcDbEntity
  8
SIZE
 62
     0
100
AcDbLine
 10
-22021.11521613997
 20
7705.702971374808
 30
0.0
 11
-22021.11521613997
 21
7931.282433493766
 31
0.0
  0
LINE
  5
143A
330
2E23
100
AcDbEntity
  8
SIZE
 62
     0
100
AcDbLine
 10
-22324.11521613997
 20
7911.282433493766
 30
0.0
 11
-22033.11521613997
 21
7911.282433493766
 31
0.0
  0
INSERT
  5
143B
330
2E23
100
AcDbEntity
  8
SIZE
 62
     0
100
AcDbBlockReference
  2
_DOTBLANK
 10
-22336.11521613997
 20
7911.282433493766
 30
0.0
 41
12.0
 42
12.0
 43
12.0
 50
180.0
  0
INSERT
  5
143C
330
2E23
100
AcDbEntity
  8
SIZE
 62
     0
100
AcDbBlockReference
  2
_DOTBLANK
 10
-22021.11521613997
 20
7911.282433493766
 30
0.0
 41
12.0
 42
12.0
 43
12.0
  0
INSERT
  5
143D
330
2E23
100
AcDbEntity
  8
0
100
AcDbBlockReference
  2
*U29
 10
0.0
 20
0.0
 30
0.0
  0
POINT
  5
143E
330
2E23
100
AcDbEntity
  8
DEFPOINTS
 62
     0
100
AcDbPoint
 10
-22336.11521613997
 20
7685.702971374808
 30
0.0
  0
POINT
  5
143F
330
2E23
100
AcDbEntity
  8
DEFPOINTS
 62
     0
100
AcDbPoint
 10
-22021.11521613997
 20
7685.702971374808
 30
0.0
  0
POINT
  5
1440
330
2E23
100
AcDbEntity
  8
DEFPOINTS
 62
     0
100
AcDbPoint
 10
-22021.11521613997
 20
7911.282433493766
 30
0.0
  0
ENDBLK
  5
1441
330
2E23
100
AcDbEntity
  8
0
100
AcDbBlockEnd
  0
BLOCK
  5
2E26
330
2E25
100
AcDbEntity
  8
0
100
AcDbBlockBegin
  2
*U29
 70
     1
 10
0.0
 20
0.0
 30
0.0
  3
*U29
  1

  0
TEXT
  5
1F05
330
2E25
100
AcDbEntity
  8
SIZE
 62
     0
100
AcDbText
 10
-22247.18664471139
 20
7921.282433493766
 30
0.0
 40
64.0
  1
315
 41
0.9
100
AcDbText
  0
ENDBLK
  5
1F07
330
2E25
100
AcDbEntity
  8
0
100
AcDbBlockEnd
  0
BLOCK
  5
2E28
330
2E27
100
AcDbEntity
  8
0
100
AcDbBlockBegin
  2
*D30
 70
     1
 10
0.0
 20
0.0
 30
0.0
  3
*D30
  1

  0
LINE
  5
166B
330
2E27
100
AcDbEntity
  8
SIZE
 62
     0
100
AcDbLine
 10
-134.5
 20
-320.0
 30
0.0
 11
-134.5
 21
-468.0173952306001
 31
0.0
  0
LINE
  5
166C
330
2E27
100
AcDbEntity
  8
SIZE
 62
     0
100
AcDbLine
 10
134.5
 20
-320.0
 30
0.0
 11
134.5
 21
-468.0173952306001
 31
0.0
  0
LINE
  5
166D
330
2E27
100
AcDbEntity
  8
SIZE
 62
     0
100
AcDbLine
 10
-122.5
 20
-448.0173952306
 30
0.0
 11
122.5
 21
-448.0173952306
 31
0.0
  0
INSERT
  5
166E
330
2E27
100
AcDbEntity
  8
SIZE
 62
     0
100
AcDbBlockReference
  2
_DOTBLANK
 10
-134.5
 20
-448.0173952306
 30
0.0
 41
12.0
 42
12.0
 43
12.0
 50
180.0
  0
INSERT
  5
166F
330
2E27
100
AcDbEntity
  8
SIZE
 62
     0
100
AcDbBlockReference
  2
_DOTBLANK
 10
134.5
 20
-448.0173952306
 30
0.0
 41
12.0
 42
12.0
 43
12.0
  0
INSERT
  5
1670
330
2E27
100
AcDbEntity
  8
0
100
AcDbBlockReference
  2
*U31
 10
0.0
 20
0.0
 30
0.0
  0
POINT
  5
1671
330
2E27
100
AcDbEntity
  8
DEFPOINTS
 62
     0
100
AcDbPoint
 10
-134.5
 20
-300.0
 30
0.0
  0
POINT
  5
1672
330
2E27
100
AcDbEntity
  8
DEFPOINTS
 62
     0
100
AcDbPoint
 10
134.5
 20
-300.0
 30
0.0
  0
POINT
  5
1673
330
2E27
100
AcDbEntity
  8
DEFPOINTS
 62
     0
100
AcDbPoint
 10
134.5
 20
-448.0173952306
 30
0.0
  0
ENDBLK
  5
14A7
330
2E27
100
AcDbEntity
  8
0
100
AcDbBlockEnd
  0
BLOCK
  5
2E2A
330
2E29
100
AcDbEntity
  8
0
100
AcDbBlockBegin
  2
*U31
 70
     1
 10
0.0
 20
0.0
 30
0.0
  3
*U31
  1

  0
TEXT
  5
1F09
330
2E29
100
AcDbEntity
  8
SIZE
 62
     0
100
AcDbText
 10
-72.68571428571426
 20
-438.0173952306002
 30
0.0
 40
64.0
  1
269
 41
0.9
100
AcDbText
  0
ENDBLK
  5
1F0B
330
2E29
100
AcDbEntity
  8
0
100
AcDbBlockEnd
  0
BLOCK
  5
2E2C
330
2E2B
100
AcDbEntity
  8
0
100
AcDbBlockBegin
  2
*D32
 70
     1
 10
0.0
 20
0.0
 30
0.0
  3
*D32
  1

  0
LINE
  5
1674
330
2E2B
100
AcDbEntity
  8
SIZE
  6
Continuous
 62
     0
100
AcDbLine
 10
143.5
 20
-300.0
 30
0.0
 11
304.6432844803784
 21
-300.0
 31
0.0
  0
LINE
  5
1675
330
2E2B
100
AcDbEntity
  8
SIZE
  6
Continuous
 62
     0
100
AcDbLine
 10
177.5
 20
-0.0000000000000057
 30
0.0
 11
304.6432844803785
 21
-0.0000000000000417
 31
0.0
  0
LINE
  5
1676
330
2E2B
100
AcDbEntity
  8
SIZE
  6
Continuous
 62
     0
100
AcDbLine
 10
284.6432844803784
 20
-288.0000000000001
 30
0.0
 11
284.6432844803785
 21
-12.00000000000003
 31
0.0
  0
INSERT
  5
1677
330
2E2B
100
AcDbEntity
  8
SIZE
  6
Continuous
 62
     0
100
AcDbBlockReference
  2
_DOTBLANK
 10
284.6432844803784
 20
-300.0
 30
0.0
 41
12.0
 42
12.0
 43
12.0
 50
270.0
  0
INSERT
  5
1678
330
2E2B
100
AcDbEntity
  8
SIZE
  6
Continuous
 62
     0
100
AcDbBlockReference
  2
_DOTBLANK
 10
284.6432844803785
 20
-0.000000000000036
 30
0.0
 41
12.0
 42
12.0
 43
12.0
 50
90.0
  0
INSERT
  5
1679
330
2E2B
100
AcDbEntity
  8
0
100
AcDbBlockReference
  2
*U33
 10
0.0
 20
0.0
 30
0.0
  0
POINT
  5
167A
330
2E2B
100
AcDbEntity
  8
DEFPOINTS
  6
Continuous
 62
     0
100
AcDbPoint
 10
123.5
 20
-300.0
 30
0.0
  0
POINT
  5
167B
330
2E2B
100
AcDbEntity
  8
DEFPOINTS
  6
Continuous
 62
     0
100
AcDbPoint
 10
157.5
 20
0.0
 30
0.0
  0
POINT
  5
167C
330
2E2B
100
AcDbEntity
  8
DEFPOINTS
  6
Continuous
 62
     0
100
AcDbPoint
 10
284.6432844803785
 20
-0.000000000000036
 30
0.0
  0
ENDBLK
  5
14B3
330
2E2B
100
AcDbEntity
  8
0
100
AcDbBlockEnd
  0
BLOCK
  5
2E2E
330
2E2D
100
AcDbEntity
  8
0
100
AcDbBlockBegin
  2
*U33
 70
     1
 10
0.0
 20
0.0
 30
0.0
  3
*U33
  1

  0
TEXT
  5
1F0D
330
2E2D
100
AcDbEntity
  8
SIZE
 62
     0
100
AcDbText
 10
274.6432844803785
 20
-224.0571428571429
 30
0.0
 40
64.0
  1
300
 50
90.0
 41
0.9
100
AcDbText
  0
ENDBLK
  5
1F0F
330
2E2D
100
AcDbEntity
  8
0
100
AcDbBlockEnd
  0
BLOCK
  5
2E30
330
2E2F
100
AcDbEntity
  8
0
100
AcDbBlockBegin
  2
*D34
 70
     1
 10
0.0
 20
0.0
 30
0.0
  3
*D34
  1

  0
LINE
  5
167D
330
2E2F
100
AcDbEntity
  8
SIZE
 62
     0
100
AcDbLine
 10
-140.0
 20
32.46448280219375
 30
0.0
 11
-140.0
 21
136.4516878685507
 31
0.0
  0
LINE
  5
167E
330
2E2F
100
AcDbEntity
  8
SIZE
 62
     0
100
AcDbLine
 10
140.0
 20
32.46448280219375
 30
0.0
 11
140.0
 21
136.4516878685507
 31
0.0
  0
LINE
  5
167F
330
2E2F
100
AcDbEntity
  8
SIZE
 62
     0
100
AcDbLine
 10
-128.0
 20
116.4516878685508
 30
0.0
 11
128.0
 21
116.4516878685508
 31
0.0
  0
INSERT
  5
1680
330
2E2F
100
AcDbEntity
  8
SIZE
 62
     0
100
AcDbBlockReference
  2
_DOTBLANK
 10
-140.0
 20
116.4516878685508
 30
0.0
 41
12.0
 42
12.0
 43
12.0
 50
180.0
  0
INSERT
  5
1681
330
2E2F
100
AcDbEntity
  8
SIZE
 62
     0
100
AcDbBlockReference
  2
_DOTBLANK
 10
140.0
 20
116.4516878685508
 30
0.0
 41
12.0
 42
12.0
 43
12.0
  0
INSERT
  5
1682
330
2E2F
100
AcDbEntity
  8
0
100
AcDbBlockReference
  2
*U35
 10
0.0
 20
0.0
 30
0.0
  0
POINT
  5
1683
330
2E2F
100
AcDbEntity
  8
DEFPOINTS
 62
     0
100
AcDbPoint
 10
-140.0
 20
12.46448280219374
 30
0.0
  0
POINT
  5
1684
330
2E2F
100
AcDbEntity
  8
DEFPOINTS
 62
     0
100
AcDbPoint
 10
140.0
 20
12.46448280219374
 30
0.0
  0
POINT
  5
1685
330
2E2F
100
AcDbEntity
  8
DEFPOINTS
 62
     0
100
AcDbPoint
 10
140.0
 20
116.4516878685508
 30
0.0
  0
ENDBLK
  5
14BF
330
2E2F
100
AcDbEntity
  8
0
100
AcDbBlockEnd
  0
BLOCK
  5
2E32
330
2E31
100
AcDbEntity
  8
0
100
AcDbBlockBegin
  2
*U35
 70
     1
 10
0.0
 20
0.0
 30
0.0
  3
*U35
  1

  0
TEXT
  5
1F11
330
2E31
100
AcDbEntity
  8
SIZE
 62
     0
100
AcDbText
 10
-74.05714285714283
 20
126.4516878685507
 30
0.0
 40
64.0
  1
280
 41
0.9
100
AcDbText
  0
ENDBLK
  5
1F13
330
2E31
100
AcDbEntity
  8
0
100
AcDbBlockEnd
  0
BLOCK
  5
2E34
330
2E33
100
AcDbEntity
  8
0
100
AcDbBlockBegin
  2
*D36
 70
     1
 10
0.0
 20
0.0
 30
0.0
  3
*D36
  1

  0
LINE
  5
1686
330
2E33
100
AcDbEntity
  8
SIZE
 62
     0
100
AcDbLine
 10
-157.5
 20
20.0
 30
0.0
 11
-157.5
 21
245.5794621189598
 31
0.0
  0
LINE
  5
1687
330
2E33
100
AcDbEntity
  8
SIZE
 62
     0
100
AcDbLine
 10
157.5
 20
20.0
 30
0.0
 11
157.5
 21
245.5794621189598
 31
0.0
  0
LINE
  5
1688
330
2E33
100
AcDbEntity
  8
SIZE
 62
     0
100
AcDbLine
 10
-145.5
 20
225.5794621189598
 30
0.0
 11
145.5
 21
225.5794621189598
 31
0.0
  0
INSERT
  5
1689
330
2E33
100
AcDbEntity
  8
SIZE
 62
     0
100
AcDbBlockReference
  2
_DOTBLANK
 10
-157.5
 20
225.5794621189598
 30
0.0
 41
12.0
 42
12.0
 43
12.0
 50
180.0
  0
INSERT
  5
168A
330
2E33
100
AcDbEntity
  8
SIZE
 62
     0
100
AcDbBlockReference
  2
_DOTBLANK
 10
157.5
 20
225.5794621189598
 30
0.0
 41
12.0
 42
12.0
 43
12.0
  0
INSERT
  5
168B
330
2E33
100
AcDbEntity
  8
0
100
AcDbBlockReference
  2
*U37
 10
0.0
 20
0.0
 30
0.0
  0
POINT
  5
168C
330
2E33
100
AcDbEntity
  8
DEFPOINTS
 62
     0
100
AcDbPoint
 10
-157.5
 20
0.0
 30
0.0
  0
POINT
  5
168D
330
2E33
100
AcDbEntity
  8
DEFPOINTS
 62
     0
100
AcDbPoint
 10
157.5
 20
0.0
 30
0.0
  0
POINT
  5
168E
330
2E33
100
AcDbEntity
  8
DEFPOINTS
 62
     0
100
AcDbPoint
 10
157.5
 20
225.5794621189598
 30
0.0
  0
ENDBLK
  5
14CB
330
2E33
100
AcDbEntity
  8
0
100
AcDbBlockEnd
  0
BLOCK
  5
2E36
330
2E35
100
AcDbEntity
  8
0
100
AcDbBlockBegin
  2
*U37
 70
     1
 10
0.0
 20
0.0
 30
0.0
  3
*U37
  1

  0
TEXT
  5
1F15
330
2E35
100
AcDbEntity
  8
SIZE
 62
     0
100
AcDbText
 10
-68.57142857142857
 20
235.5794621189598
 30
0.0
 40
64.0
  1
315
 41
0.9
100
AcDbText
  0
ENDBLK
  5
1F17
330
2E35
100
AcDbEntity
  8
0
100
AcDbBlockEnd
  0
BLOCK
  5
2E38
330
2E37
100
AcDbEntity
  8
0
100
AcDbBlockBegin
  2
*U38
 70
     1
 10
0.0
 20
0.0
 30
0.0
  3
*U38
  1

  0
ENDBLK
  5
15CF
330
2E37
100
AcDbEntity
  8
0
100
AcDbBlockEnd
  0
BLOCK
  5
2E3A
330
2E39
100
AcDbEntity
  8
0
100
AcDbBlockBegin
  2
*D39
 70
     1
 10
0.0
 20
0.0
 30
0.0
  3
*D39
  1

  0
LINE
  5
1692
330
2E39
100
AcDbEntity
  8
SIZE
 62
     0
100
AcDbLine
 10
-25844.51823276502
 20
7685.702971374808
 30
0.0
 11
-25981.04465488371
 21
7685.702971374808
 31
0.0
  0
LINE
  5
1693
330
2E39
100
AcDbEntity
  8
SIZE
 62
     0
100
AcDbLine
 10
-25844.51823276502
 20
7677.702971374808
 30
0.0
 11
-25981.04465488371
 21
7677.702971374808
 31
0.0
  0
LINE
  5
1694
330
2E39
100
AcDbEntity
  8
SIZE
 62
     0
100
AcDbLine
 10
-25961.04465488371
 20
7697.702971374808
 30
0.0
 11
-25961.04465488371
 21
7709.702971374809
 31
0.0
  0
LINE
  5
1695
330
2E39
100
AcDbEntity
  8
SIZE
 62
     0
100
AcDbLine
 10
-25961.04465488371
 20
7665.70297137481
 30
0.0
 11
-25961.04465488371
 21
7595.302971374808
 31
0.0
  0
INSERT
  5
1696
330
2E39
100
AcDbEntity
  8
SIZE
 62
     0
100
AcDbBlockReference
  2
_DOTBLANK
 10
-25961.04465488371
 20
7685.702971374808
 30
0.0
 41
12.0
 42
12.0
 43
12.0
 50
270.0
  0
INSERT
  5
1697
330
2E39
100
AcDbEntity
  8
SIZE
 62
     0
100
AcDbBlockReference
  2
_DOTBLANK
 10
-25961.04465488371
 20
7677.702971374808
 30
0.0
 41
12.0
 42
12.0
 43
12.0
 50
90.0
  0
INSERT
  5
1698
330
2E39
100
AcDbEntity
  8
0
100
AcDbBlockReference
  2
*U40
 10
0.0
 20
0.0
 30
0.0
  0
POINT
  5
1699
330
2E39
100
AcDbEntity
  8
DEFPOINTS
 62
     0
100
AcDbPoint
 10
-25824.51823276501
 20
7685.702971374808
 30
0.0
  0
POINT
  5
169A
330
2E39
100
AcDbEntity
  8
DEFPOINTS
 62
     0
100
AcDbPoint
 10
-25824.51823276501
 20
7677.702971374808
 30
0.0
  0
POINT
  5
169B
330
2E39
100
AcDbEntity
  8
DEFPOINTS
 62
     0
100
AcDbPoint
 10
-25961.04465488371
 20
7677.702971374808
 30
0.0
  0
ENDBLK
  5
169C
330
2E39
100
AcDbEntity
  8
0
100
AcDbBlockEnd
  0
BLOCK
  5
2E3C
330
2E3B
100
AcDbEntity
  8
0
100
AcDbBlockBegin
  2
*U40
 70
     1
 10
0.0
 20
0.0
 30
0.0
  3
*U40
  1

  0
TEXT
  5
1F19
330
2E3B
100
AcDbEntity
  8
SIZE
 62
     0
100
AcDbText
 10
-25971.04465488371
 20
7605.302971374804
 30
0.0
 40
64.0
  1
8
 50
90.0
 41
0.9
100
AcDbText
  0
ENDBLK
  5
1F1B
330
2E3B
100
AcDbEntity
  8
0
100
AcDbBlockEnd
  0
BLOCK
  5
2E3E
330
2E3D
100
AcDbEntity
  8
0
100
AcDbBlockBegin
  2
*D41
 70
     1
 10
0.0
 20
0.0
 30
0.0
  3
*D41
  1

  0
LINE
  5
169F
330
2E3D
100
AcDbEntity
  8
SIZE
 62
     0
100
AcDbLine
 10
-25512.51823276502
 20
7385.702971374808
 30
0.0
 11
-25362.37494828464
 21
7385.702971374808
 31
0.0
  0
LINE
  5
16A0
330
2E3D
100
AcDbEntity
  8
SIZE
 62
     0
100
AcDbLine
 10
-25523.51823276501
 20
7373.702971374808
 30
0.0
 11
-25362.37494828464
 21
7373.702971374808
 31
0.0
  0
LINE
  5
16A1
330
2E3D
100
AcDbEntity
  8
SIZE
 62
     0
100
AcDbLine
 10
-25382.37494828464
 20
7397.702971374808
 30
0.0
 11
-25382.37494828464
 21
7409.70297137481
 31
0.0
  0
LINE
  5
16A2
330
2E3D
100
AcDbEntity
  8
SIZE
 62
     0
100
AcDbLine
 10
-25382.37494828464
 20
7361.702971374808
 30
0.0
 11
-25382.37494828464
 21
7244.674399946237
 31
0.0
  0
INSERT
  5
16A3
330
2E3D
100
AcDbEntity
  8
SIZE
 62
     0
100
AcDbBlockReference
  2
_DOTBLANK
 10
-25382.37494828464
 20
7385.702971374808
 30
0.0
 41
12.0
 42
12.0
 43
12.0
 50
270.0
  0
INSERT
  5
16A4
330
2E3D
100
AcDbEntity
  8
SIZE
 62
     0
100
AcDbBlockReference
  2
_DOTBLANK
 10
-25382.37494828464
 20
7373.702971374808
 30
0.0
 41
12.0
 42
12.0
 43
12.0
 50
90.0
  0
INSERT
  5
16A5
330
2E3D
100
AcDbEntity
  8
0
100
AcDbBlockReference
  2
*U42
 10
0.0
 20
0.0
 30
0.0
  0
POINT
  5
16A6
330
2E3D
100
AcDbEntity
  8
DEFPOINTS
 62
     0
100
AcDbPoint
 10
-25532.51823276502
 20
7385.702971374808
 30
0.0
  0
POINT
  5
16A7
330
2E3D
100
AcDbEntity
  8
DEFPOINTS
 62
     0
100
AcDbPoint
 10
-25543.51823276502
 20
7373.702971374808
 30
0.0
  0
POINT
  5
16A8
330
2E3D
100
AcDbEntity
  8
DEFPOINTS
 62
     0
100
AcDbPoint
 10
-25382.37494828464
 20
7373.702971374808
 30
0.0
  0
ENDBLK
  5
16A9
330
2E3D
100
AcDbEntity
  8
0
100
AcDbBlockEnd
  0
BLOCK
  5
2E40
330
2E3F
100
AcDbEntity
  8
0
100
AcDbBlockBegin
  2
*U42
 70
     1
 10
0.0
 20
0.0
 30
0.0
  3
*U42
  1

  0
TEXT
  5
1F1D
330
2E3F
100
AcDbEntity
  8
SIZE
 62
     0
100
AcDbText
 10
-25392.37494828464
 20
7256.045828517662
 30
0.0
 40
64.0
  1
12
 50
90.0
 41
0.9
100
AcDbText
  0
ENDBLK
  5
1F1F
330
2E3F
100
AcDbEntity
  8
0
100
AcDbBlockEnd
  0
BLOCK
  5
2E42
330
2E41
100
AcDbEntity
  8
0
100
AcDbBlockBegin
  2
*D43
 70
     1
 10
0.0
 20
0.0
 30
0.0
  3
*D43
  1

  0
LINE
  5
16AC
330
2E41
100
AcDbEntity
  8
SIZE
 62
     0
100
AcDbLine
 10
-25801.51823276501
 20
7365.702971374808
 30
0.0
 11
-25801.51823276501
 21
7217.685576144207
 31
0.0
  0
LINE
  5
16AD
330
2E41
100
AcDbEntity
  8
SIZE
 62
     0
100
AcDbLine
 10
-25532.51823276502
 20
7365.702971374808
 30
0.0
 11
-25532.51823276502
 21
7217.685576144207
 31
0.0
  0
LINE
  5
16AE
330
2E41
100
AcDbEntity
  8
SIZE
 62
     0
100
AcDbLine
 10
-25789.51823276502
 20
7237.685576144207
 30
0.0
 11
-25544.51823276501
 21
7237.685576144207
 31
0.0
  0
INSERT
  5
16AF
330
2E41
100
AcDbEntity
  8
SIZE
 62
     0
100
AcDbBlockReference
  2
_DOTBLANK
 10
-25801.51823276501
 20
7237.685576144207
 30
0.0
 41
12.0
 42
12.0
 43
12.0
 50
180.0
  0
INSERT
  5
16B0
330
2E41
100
AcDbEntity
  8
SIZE
 62
     0
100
AcDbBlockReference
  2
_DOTBLANK
 10
-25532.51823276502
 20
7237.685576144207
 30
0.0
 41
12.0
 42
12.0
 43
12.0
  0
INSERT
  5
16B1
330
2E41
100
AcDbEntity
  8
0
100
AcDbBlockReference
  2
*U44
 10
0.0
 20
0.0
 30
0.0
  0
POINT
  5
16B2
330
2E41
100
AcDbEntity
  8
DEFPOINTS
 62
     0
100
AcDbPoint
 10
-25801.51823276501
 20
7385.702971374808
 30
0.0
  0
POINT
  5
16B3
330
2E41
100
AcDbEntity
  8
DEFPOINTS
 62
     0
100
AcDbPoint
 10
-25532.51823276502
 20
7385.702971374808
 30
0.0
  0
POINT
  5
16B4
330
2E41
100
AcDbEntity
  8
DEFPOINTS
 62
     0
100
AcDbPoint
 10
-25532.51823276502
 20
7237.685576144207
 30
0.0
  0
ENDBLK
  5
16B5
330
2E41
100
AcDbEntity
  8
0
100
AcDbBlockEnd
  0
BLOCK
  5
2E44
330
2E43
100
AcDbEntity
  8
0
100
AcDbBlockBegin
  2
*U44
 70
     1
 10
0.0
 20
0.0
 30
0.0
  3
*U44
  1

  0
TEXT
  5
1F21
330
2E43
100
AcDbEntity
  8
SIZE
 62
     0
100
AcDbText
 10
-25739.70394705074
 20
7247.685576144205
 30
0.0
 40
64.0
  1
269
 41
0.9
100
AcDbText
  0
ENDBLK
  5
1F23
330
2E43
100
AcDbEntity
  8
0
100
AcDbBlockEnd
  0
BLOCK
  5
2E46
330
2E45
100
AcDbEntity
  8
0
100
AcDbBlockBegin
  2
*D45
 70
     1
 10
0.0
 20
0.0
 30
0.0
  3
*D45
  1

  0
LINE
  5
16B8
330
2E45
100
AcDbEntity
  8
SIZE
 62
     0
100
AcDbLine
 10
-25512.51823276502
 20
7385.702971374808
 30
0.0
 11
-25362.37494828464
 21
7385.702971374808
 31
0.0
  0
LINE
  5
16B9
330
2E45
100
AcDbEntity
  8
SIZE
 62
     0
100
AcDbLine
 10
-25489.51823276501
 20
7685.702971374808
 30
0.0
 11
-25362.37494828464
 21
7685.702971374808
 31
0.0
  0
LINE
  5
16BA
330
2E45
100
AcDbEntity
  8
SIZE
 62
     0
100
AcDbLine
 10
-25382.37494828464
 20
7397.702971374808
 30
0.0
 11
-25382.37494828464
 21
7673.702971374808
 31
0.0
  0
INSERT
  5
16BB
330
2E45
100
AcDbEntity
  8
SIZE
 62
     0
100
AcDbBlockReference
  2
_DOTBLANK
 10
-25382.37494828464
 20
7385.702971374808
 30
0.0
 41
12.0
 42
12.0
 43
12.0
 50
270.0
  0
INSERT
  5
16BC
330
2E45
100
AcDbEntity
  8
SIZE
 62
     0
100
AcDbBlockReference
  2
_DOTBLANK
 10
-25382.37494828464
 20
7685.702971374808
 30
0.0
 41
12.0
 42
12.0
 43
12.0
 50
90.0
  0
INSERT
  5
16BD
330
2E45
100
AcDbEntity
  8
0
100
AcDbBlockReference
  2
*U46
 10
0.0
 20
0.0
 30
0.0
  0
POINT
  5
16BE
330
2E45
100
AcDbEntity
  8
DEFPOINTS
 62
     0
100
AcDbPoint
 10
-25532.51823276502
 20
7385.702971374808
 30
0.0
  0
POINT
  5
16BF
330
2E45
100
AcDbEntity
  8
DEFPOINTS
 62
     0
100
AcDbPoint
 10
-25509.51823276502
 20
7685.702971374808
 30
0.0
  0
POINT
  5
16C0
330
2E45
100
AcDbEntity
  8
DEFPOINTS
 62
     0
100
AcDbPoint
 10
-25382.37494828464
 20
7685.702971374808
 30
0.0
  0
ENDBLK
  5
16C1
330
2E45
100
AcDbEntity
  8
0
100
AcDbBlockEnd
  0
BLOCK
  5
2E48
330
2E47
100
AcDbEntity
  8
0
100
AcDbBlockBegin
  2
*U46
 70
     1
 10
0.0
 20
0.0
 30
0.0
  3
*U46
  1

  0
TEXT
  5
1F25
330
2E47
100
AcDbEntity
  8
SIZE
 62
     0
100
AcDbText
 10
-25392.37494828464
 20
7461.645828517662
 30
0.0
 40
64.0
  1
300
 50
90.0
 41
0.9
100
AcDbText
  0
ENDBLK
  5
1F27
330
2E47
100
AcDbEntity
  8
0
100
AcDbBlockEnd
  0
BLOCK
  5
2E4A
330
2E49
100
AcDbEntity
  8
0
100
AcDbBlockBegin
  2
*D47
 70
     1
 10
0.0
 20
0.0
 30
0.0
  3
*D47
  1

  0
LINE
  5
16C4
330
2E49
100
AcDbEntity
  8
SIZE
 62
     0
100
AcDbLine
 10
-25807.01823276501
 20
7718.167454177002
 30
0.0
 11
-25807.01823276501
 21
7822.154659243358
 31
0.0
  0
LINE
  5
16C5
330
2E49
100
AcDbEntity
  8
SIZE
 62
     0
100
AcDbLine
 10
-25527.01823276501
 20
7718.167454177002
 30
0.0
 11
-25527.01823276501
 21
7822.154659243358
 31
0.0
  0
LINE
  5
16C6
330
2E49
100
AcDbEntity
  8
SIZE
 62
     0
100
AcDbLine
 10
-25795.01823276502
 20
7802.154659243358
 30
0.0
 11
-25539.01823276501
 21
7802.154659243358
 31
0.0
  0
INSERT
  5
16C7
330
2E49
100
AcDbEntity
  8
SIZE
 62
     0
100
AcDbBlockReference
  2
_DOTBLANK
 10
-25807.01823276501
 20
7802.154659243358
 30
0.0
 41
12.0
 42
12.0
 43
12.0
 50
180.0
  0
INSERT
  5
16C8
330
2E49
100
AcDbEntity
  8
SIZE
 62
     0
100
AcDbBlockReference
  2
_DOTBLANK
 10
-25527.01823276501
 20
7802.154659243358
 30
0.0
 41
12.0
 42
12.0
 43
12.0
  0
INSERT
  5
16C9
330
2E49
100
AcDbEntity
  8
0
100
AcDbBlockReference
  2
*U48
 10
0.0
 20
0.0
 30
0.0
  0
POINT
  5
16CA
330
2E49
100
AcDbEntity
  8
DEFPOINTS
 62
     0
100
AcDbPoint
 10
-25807.01823276501
 20
7698.167454177002
 30
0.0
  0
POINT
  5
16CB
330
2E49
100
AcDbEntity
  8
DEFPOINTS
 62
     0
100
AcDbPoint
 10
-25527.01823276501
 20
7698.167454177002
 30
0.0
  0
POINT
  5
16CC
330
2E49
100
AcDbEntity
  8
DEFPOINTS
 62
     0
100
AcDbPoint
 10
-25527.01823276501
 20
7802.154659243358
 30
0.0
  0
ENDBLK
  5
16CD
330
2E49
100
AcDbEntity
  8
0
100
AcDbBlockEnd
  0
BLOCK
  5
2E4C
330
2E4B
100
AcDbEntity
  8
0
100
AcDbBlockBegin
  2
*U48
 70
     1
 10
0.0
 20
0.0
 30
0.0
  3
*U48
  1

  0
TEXT
  5
1F29
330
2E4B
100
AcDbEntity
  8
SIZE
 62
     0
100
AcDbText
 10
-25741.07537562216
 20
7812.154659243358
 30
0.0
 40
64.0
  1
280
 41
0.9
100
AcDbText
  0
ENDBLK
  5
1F2B
330
2E4B
100
AcDbEntity
  8
0
100
AcDbBlockEnd
  0
BLOCK
  5
2E4E
330
2E4D
100
AcDbEntity
  8
0
100
AcDbBlockBegin
  2
*D49
 70
     1
 10
0.0
 20
0.0
 30
0.0
  3
*D49
  1

  0
LINE
  5
16D0
330
2E4D
100
AcDbEntity
  8
SIZE
 62
     0
100
AcDbLine
 10
-25824.51823276501
 20
7705.702971374808
 30
0.0
 11
-25824.51823276501
 21
7931.282433493766
 31
0.0
  0
LINE
  5
16D1
330
2E4D
100
AcDbEntity
  8
SIZE
 62
     0
100
AcDbLine
 10
-25509.51823276502
 20
7705.702971374808
 30
0.0
 11
-25509.51823276502
 21
7931.282433493766
 31
0.0
  0
LINE
  5
16D2
330
2E4D
100
AcDbEntity
  8
SIZE
 62
     0
100
AcDbLine
 10
-25812.51823276502
 20
7911.282433493766
 30
0.0
 11
-25521.51823276501
 21
7911.282433493766
 31
0.0
  0
INSERT
  5
16D3
330
2E4D
100
AcDbEntity
  8
SIZE
 62
     0
100
AcDbBlockReference
  2
_DOTBLANK
 10
-25824.51823276501
 20
7911.282433493766
 30
0.0
 41
12.0
 42
12.0
 43
12.0
 50
180.0
  0
INSERT
  5
16D4
330
2E4D
100
AcDbEntity
  8
SIZE
 62
     0
100
AcDbBlockReference
  2
_DOTBLANK
 10
-25509.51823276502
 20
7911.282433493766
 30
0.0
 41
12.0
 42
12.0
 43
12.0
  0
INSERT
  5
16D5
330
2E4D
100
AcDbEntity
  8
0
100
AcDbBlockReference
  2
*U50
 10
0.0
 20
0.0
 30
0.0
  0
POINT
  5
16D6
330
2E4D
100
AcDbEntity
  8
DEFPOINTS
 62
     0
100
AcDbPoint
 10
-25824.51823276501
 20
7685.702971374808
 30
0.0
  0
POINT
  5
16D7
330
2E4D
100
AcDbEntity
  8
DEFPOINTS
 62
     0
100
AcDbPoint
 10
-25509.51823276502
 20
7685.702971374808
 30
0.0
  0
POINT
  5
16D8
330
2E4D
100
AcDbEntity
  8
DEFPOINTS
 62
     0
100
AcDbPoint
 10
-25509.51823276502
 20
7911.282433493766
 30
0.0
  0
ENDBLK
  5
16D9
330
2E4D
100
AcDbEntity
  8
0
100
AcDbBlockEnd
  0
BLOCK
  5
2E50
330
2E4F
100
AcDbEntity
  8
0
100
AcDbBlockBegin
  2
*U50
 70
     1
 10
0.0
 20
0.0
 30
0.0
  3
*U50
  1

  0
TEXT
  5
1F2D
330
2E4F
100
AcDbEntity
  8
SIZE
 62
     0
100
AcDbText
 10
-25735.58966133645
 20
7921.282433493766
 30
0.0
 40
64.0
  1
315
 41
0.9
100
AcDbText
  0
ENDBLK
  5
1F2F
330
2E4F
100
AcDbEntity
  8
0
100
AcDbBlockEnd
  0
BLOCK
  5
2E52
330
2E51
100
AcDbEntity
  8
0
100
AcDbBlockBegin
  2
*D51
 70
     1
 10
0.0
 20
0.0
 30
0.0
  3
*D51
  1

  0
LINE
  5
1D83
330
2E51
100
AcDbEntity
  8
SIZE
 62
     0
100
AcDbLine
 10
-134.5
 20
-320.0
 30
0.0
 11
-134.5
 21
-468.0173952306001
 31
0.0
  0
LINE
  5
1D84
330
2E51
100
AcDbEntity
  8
SIZE
 62
     0
100
AcDbLine
 10
134.5
 20
-320.0
 30
0.0
 11
134.5
 21
-468.0173952306001
 31
0.0
  0
LINE
  5
1D85
330
2E51
100
AcDbEntity
  8
SIZE
 62
     0
100
AcDbLine
 10
-122.5
 20
-448.0173952306
 30
0.0
 11
122.5
 21
-448.0173952306
 31
0.0
  0
INSERT
  5
1D86
330
2E51
100
AcDbEntity
  8
SIZE
 62
     0
100
AcDbBlockReference
  2
_DOTBLANK
 10
-134.5
 20
-448.0173952306
 30
0.0
 41
12.0
 42
12.0
 43
12.0
 50
180.0
  0
INSERT
  5
1D87
330
2E51
100
AcDbEntity
  8
SIZE
 62
     0
100
AcDbBlockReference
  2
_DOTBLANK
 10
134.5
 20
-448.0173952306
 30
0.0
 41
12.0
 42
12.0
 43
12.0
  0
INSERT
  5
1D88
330
2E51
100
AcDbEntity
  8
0
100
AcDbBlockReference
  2
*U52
 10
0.0
 20
0.0
 30
0.0
  0
POINT
  5
1D89
330
2E51
100
AcDbEntity
  8
DEFPOINTS
 62
     0
100
AcDbPoint
 10
-134.5
 20
-300.0
 30
0.0
  0
POINT
  5
1D8A
330
2E51
100
AcDbEntity
  8
DEFPOINTS
 62
     0
100
AcDbPoint
 10
134.5
 20
-300.0
 30
0.0
  0
POINT
  5
1D8B
330
2E51
100
AcDbEntity
  8
DEFPOINTS
 62
     0
100
AcDbPoint
 10
134.5
 20
-448.0173952306
 30
0.0
  0
ENDBLK
  5
173D
330
2E51
100
AcDbEntity
  8
0
100
AcDbBlockEnd
  0
BLOCK
  5
2E54
330
2E53
100
AcDbEntity
  8
0
100
AcDbBlockBegin
  2
*U52
 70
     1
 10
0.0
 20
0.0
 30
0.0
  3
*U52
  1

  0
TEXT
  5
1F31
330
2E53
100
AcDbEntity
  8
SIZE
 62
     0
100
AcDbText
 10
-72.68571428571426
 20
-438.0173952306003
 30
0.0
 40
64.0
  1
269
 41
0.9
100
AcDbText
  0
ENDBLK
  5
1F33
330
2E53
100
AcDbEntity
  8
0
100
AcDbBlockEnd
  0
BLOCK
  5
2E56
330
2E55
100
AcDbEntity
  8
0
100
AcDbBlockBegin
  2
*D53
 70
     1
 10
0.0
 20
0.0
 30
0.0
  3
*D53
  1

  0
LINE
  5
1D8C
330
2E55
100
AcDbEntity
  8
SIZE
 62
     0
100
AcDbLine
 10
154.5
 20
-300.0
 30
0.0
 11
304.6432844803784
 21
-300.0
 31
0.0
  0
LINE
  5
1D8D
330
2E55
100
AcDbEntity
  8
SIZE
 62
     0
100
AcDbLine
 10
177.5
 20
-0.0000000000000057
 30
0.0
 11
304.6432844803785
 21
-0.0000000000000417
 31
0.0
  0
LINE
  5
1D8E
330
2E55
100
AcDbEntity
  8
SIZE
 62
     0
100
AcDbLine
 10
284.6432844803784
 20
-288.0
 30
0.0
 11
284.6432844803785
 21
-12.00000000000003
 31
0.0
  0
INSERT
  5
1D8F
330
2E55
100
AcDbEntity
  8
SIZE
 62
     0
100
AcDbBlockReference
  2
_DOTBLANK
 10
284.6432844803784
 20
-300.0
 30
0.0
 41
12.0
 42
12.0
 43
12.0
 50
270.0
  0
INSERT
  5
1D90
330
2E55
100
AcDbEntity
  8
SIZE
 62
     0
100
AcDbBlockReference
  2
_DOTBLANK
 10
284.6432844803785
 20
-0.000000000000036
 30
0.0
 41
12.0
 42
12.0
 43
12.0
 50
90.0
  0
INSERT
  5
1D91
330
2E55
100
AcDbEntity
  8
0
100
AcDbBlockReference
  2
*U54
 10
0.0
 20
0.0
 30
0.0
  0
POINT
  5
1D92
330
2E55
100
AcDbEntity
  8
DEFPOINTS
 62
     0
100
AcDbPoint
 10
134.5
 20
-300.0
 30
0.0
  0
POINT
  5
1D93
330
2E55
100
AcDbEntity
  8
DEFPOINTS
 62
     0
100
AcDbPoint
 10
157.5
 20
0.0
 30
0.0
  0
POINT
  5
1D94
330
2E55
100
AcDbEntity
  8
DEFPOINTS
 62
     0
100
AcDbPoint
 10
284.6432844803785
 20
-0.000000000000036
 30
0.0
  0
ENDBLK
  5
1749
330
2E55
100
AcDbEntity
  8
0
100
AcDbBlockEnd
  0
BLOCK
  5
2E58
330
2E57
100
AcDbEntity
  8
0
100
AcDbBlockBegin
  2
*U54
 70
     1
 10
0.0
 20
0.0
 30
0.0
  3
*U54
  1

  0
TEXT
  5
1F35
330
2E57
100
AcDbEntity
  8
SIZE
 62
     0
100
AcDbText
 10
274.6432844803785
 20
-224.0571428571429
 30
0.0
 40
64.0
  1
300
 50
90.0
 41
0.9
100
AcDbText
  0
ENDBLK
  5
1F37
330
2E57
100
AcDbEntity
  8
0
100
AcDbBlockEnd
  0
BLOCK
  5
2E5A
330
2E59
100
AcDbEntity
  8
0
100
AcDbBlockBegin
  2
*D55
 70
     1
 10
0.0
 20
0.0
 30
0.0
  3
*D55
  1

  0
LINE
  5
1D95
330
2E59
100
AcDbEntity
  8
SIZE
 62
     0
100
AcDbLine
 10
-140.0
 20
32.46448280219375
 30
0.0
 11
-140.0
 21
136.4516878685508
 31
0.0
  0
LINE
  5
1D96
330
2E59
100
AcDbEntity
  8
SIZE
 62
     0
100
AcDbLine
 10
140.0
 20
32.46448280219375
 30
0.0
 11
140.0
 21
136.4516878685508
 31
0.0
  0
LINE
  5
1D97
330
2E59
100
AcDbEntity
  8
SIZE
 62
     0
100
AcDbLine
 10
-128.0
 20
116.4516878685508
 30
0.0
 11
128.0
 21
116.4516878685508
 31
0.0
  0
INSERT
  5
1D98
330
2E59
100
AcDbEntity
  8
SIZE
 62
     0
100
AcDbBlockReference
  2
_DOTBLANK
 10
-140.0
 20
116.4516878685508
 30
0.0
 41
12.0
 42
12.0
 43
12.0
 50
180.0
  0
INSERT
  5
1D99
330
2E59
100
AcDbEntity
  8
SIZE
 62
     0
100
AcDbBlockReference
  2
_DOTBLANK
 10
140.0
 20
116.4516878685508
 30
0.0
 41
12.0
 42
12.0
 43
12.0
  0
INSERT
  5
1D9A
330
2E59
100
AcDbEntity
  8
0
100
AcDbBlockReference
  2
*U56
 10
0.0
 20
0.0
 30
0.0
  0
POINT
  5
1D9B
330
2E59
100
AcDbEntity
  8
DEFPOINTS
 62
     0
100
AcDbPoint
 10
-140.0
 20
12.46448280219374
 30
0.0
  0
POINT
  5
1D9C
330
2E59
100
AcDbEntity
  8
DEFPOINTS
 62
     0
100
AcDbPoint
 10
140.0
 20
12.46448280219374
 30
0.0
  0
POINT
  5
1D9D
330
2E59
100
AcDbEntity
  8
DEFPOINTS
 62
     0
100
AcDbPoint
 10
140.0
 20
116.4516878685508
 30
0.0
  0
ENDBLK
  5
1755
330
2E59
100
AcDbEntity
  8
0
100
AcDbBlockEnd
  0
BLOCK
  5
2E5C
330
2E5B
100
AcDbEntity
  8
0
100
AcDbBlockBegin
  2
*U56
 70
     1
 10
0.0
 20
0.0
 30
0.0
  3
*U56
  1

  0
TEXT
  5
1F39
330
2E5B
100
AcDbEntity
  8
SIZE
 62
     0
100
AcDbText
 10
-74.05714285714283
 20
126.4516878685508
 30
0.0
 40
64.0
  1
280
 41
0.9
100
AcDbText
  0
ENDBLK
  5
1F3B
330
2E5B
100
AcDbEntity
  8
0
100
AcDbBlockEnd
  0
BLOCK
  5
2E5E
330
2E5D
100
AcDbEntity
  8
0
100
AcDbBlockBegin
  2
*D57
 70
     1
 10
0.0
 20
0.0
 30
0.0
  3
*D57
  1

  0
LINE
  5
1D9E
330
2E5D
100
AcDbEntity
  8
SIZE
 62
     0
100
AcDbLine
 10
-157.5
 20
20.0
 30
0.0
 11
-157.5
 21
245.5794621189598
 31
0.0
  0
LINE
  5
1D9F
330
2E5D
100
AcDbEntity
  8
SIZE
 62
     0
100
AcDbLine
 10
157.5
 20
20.0
 30
0.0
 11
157.5
 21
245.5794621189598
 31
0.0
  0
LINE
  5
1DA0
330
2E5D
100
AcDbEntity
  8
SIZE
 62
     0
100
AcDbLine
 10
-145.5
 20
225.5794621189598
 30
0.0
 11
145.5
 21
225.5794621189598
 31
0.0
  0
INSERT
  5
1DA1
330
2E5D
100
AcDbEntity
  8
SIZE
 62
     0
100
AcDbBlockReference
  2
_DOTBLANK
 10
-157.5
 20
225.5794621189598
 30
0.0
 41
12.0
 42
12.0
 43
12.0
 50
180.0
  0
INSERT
  5
1DA2
330
2E5D
100
AcDbEntity
  8
SIZE
 62
     0
100
AcDbBlockReference
  2
_DOTBLANK
 10
157.5
 20
225.5794621189598
 30
0.0
 41
12.0
 42
12.0
 43
12.0
  0
INSERT
  5
1DA3
330
2E5D
100
AcDbEntity
  8
0
100
AcDbBlockReference
  2
*U58
 10
0.0
 20
0.0
 30
0.0
  0
POINT
  5
1DA4
330
2E5D
100
AcDbEntity
  8
DEFPOINTS
 62
     0
100
AcDbPoint
 10
-157.5
 20
0.0
 30
0.0
  0
POINT
  5
1DA5
330
2E5D
100
AcDbEntity
  8
DEFPOINTS
 62
     0
100
AcDbPoint
 10
157.5
 20
0.0
 30
0.0
  0
POINT
  5
1DA6
330
2E5D
100
AcDbEntity
  8
DEFPOINTS
 62
     0
100
AcDbPoint
 10
157.5
 20
225.5794621189598
 30
0.0
  0
ENDBLK
  5
1761
330
2E5D
100
AcDbEntity
  8
0
100
AcDbBlockEnd
  0
BLOCK
  5
2E60
330
2E5F
100
AcDbEntity
  8
0
100
AcDbBlockBegin
  2
*U58
 70
     1
 10
0.0
 20
0.0
 30
0.0
  3
*U58
  1

  0
TEXT
  5
1F3D
330
2E5F
100
AcDbEntity
  8
SIZE
 62
     0
100
AcDbText
 10
-68.57142857142857
 20
235.5794621189599
 30
0.0
 40
64.0
  1
315
 41
0.9
100
AcDbText
  0
ENDBLK
  5
1F3F
330
2E5F
100
AcDbEntity
  8
0
100
AcDbBlockEnd
  0
BLOCK
  5
2E62
330
2E61
100
AcDbEntity
  8
0
100
AcDbBlockBegin
  2
*D59
 70
     1
 10
0.0
 20
0.0
 30
0.0
  3
*D59
  1

  0
LINE
  5
1DA7
330
2E61
100
AcDbEntity
  8
SIZE
 62
     0
100
AcDbLine
 10
-177.5
 20
0.0000000000000057
 30
0.0
 11
-314.0264221186908
 21
0.0000000000000443
 31
0.0
  0
LINE
  5
1DA8
330
2E61
100
AcDbEntity
  8
SIZE
 62
     0
100
AcDbLine
 10
-177.5
 20
-7.999999999999993
 30
0.0
 11
-314.0264221186908
 21
-7.999999999999958
 31
0.0
  0
LINE
  5
1DA9
330
2E61
100
AcDbEntity
  8
SIZE
 62
     0
100
AcDbLine
 10
-294.0264221186908
 20
12.00000000000003
 30
0.0
 11
-294.0264221186908
 21
24.00000000000004
 31
0.0
  0
LINE
  5
1DAA
330
2E61
100
AcDbEntity
  8
SIZE
 62
     0
100
AcDbLine
 10
-294.0264221186908
 20
-19.99999999999996
 30
0.0
 11
-294.0264221186908
 21
-90.39999999999997
 31
0.0
  0
INSERT
  5
1DAB
330
2E61
100
AcDbEntity
  8
SIZE
 62
     0
100
AcDbBlockReference
  2
_DOTBLANK
 10
-294.0264221186908
 20
0.0000000000000387
 30
0.0
 41
12.0
 42
12.0
 43
12.0
 50
270.0
  0
INSERT
  5
1DAC
330
2E61
100
AcDbEntity
  8
SIZE
 62
     0
100
AcDbBlockReference
  2
_DOTBLANK
 10
-294.0264221186908
 20
-7.999999999999961
 30
0.0
 41
12.0
 42
12.0
 43
12.0
 50
90.0
  0
INSERT
  5
1DAD
330
2E61
100
AcDbEntity
  8
0
100
AcDbBlockReference
  2
*U60
 10
0.0
 20
0.0
 30
0.0
  0
POINT
  5
1DAE
330
2E61
100
AcDbEntity
  8
DEFPOINTS
 62
     0
100
AcDbPoint
 10
-157.5
 20
0.0
 30
0.0
  0
POINT
  5
1DAF
330
2E61
100
AcDbEntity
  8
DEFPOINTS
 62
     0
100
AcDbPoint
 10
-157.5
 20
-8.000000000000003
 30
0.0
  0
POINT
  5
1DB0
330
2E61
100
AcDbEntity
  8
DEFPOINTS
 62
     0
100
AcDbPoint
 10
-294.0264221186908
 20
-7.999999999999961
 30
0.0
  0
ENDBLK
  5
176D
330
2E61
100
AcDbEntity
  8
0
100
AcDbBlockEnd
  0
BLOCK
  5
2E64
330
2E63
100
AcDbEntity
  8
0
100
AcDbBlockBegin
  2
*U60
 70
     1
 10
0.0
 20
0.0
 30
0.0
  3
*U60
  1

  0
TEXT
  5
1F41
330
2E63
100
AcDbEntity
  8
SIZE
 62
     0
100
AcDbText
 10
-304.0264221186908
 20
-80.4
 30
0.0
 40
64.0
  1
8
 50
90.0
 41
0.9
100
AcDbText
  0
ENDBLK
  5
1F43
330
2E63
100
AcDbEntity
  8
0
100
AcDbBlockEnd
  0
BLOCK
  5
2E66
330
2E65
100
AcDbEntity
  8
0
100
AcDbBlockBegin
  2
*D61
 70
     1
 10
0.0
 20
0.0
 30
0.0
  3
*D61
  1

  0
LINE
  5
1DB1
330
2E65
100
AcDbEntity
  8
SIZE
 62
     0
100
AcDbLine
 10
154.5
 20
-300.0
 30
0.0
 11
304.6432844803785
 21
-300.0
 31
0.0
  0
LINE
  5
1DB2
330
2E65
100
AcDbEntity
  8
SIZE
 62
     0
100
AcDbLine
 10
143.5
 20
-312.0
 30
0.0
 11
304.6432844803785
 21
-312.0
 31
0.0
  0
LINE
  5
1DB3
330
2E65
100
AcDbEntity
  8
SIZE
 62
     0
100
AcDbLine
 10
284.6432844803785
 20
-288.0
 30
0.0
 11
284.6432844803785
 21
-276.0
 31
0.0
  0
LINE
  5
1DB4
330
2E65
100
AcDbEntity
  8
SIZE
 62
     0
100
AcDbLine
 10
284.6432844803785
 20
-324.0000000000001
 30
0.0
 11
284.6432844803784
 21
-438.2857142857143
 31
0.0
  0
INSERT
  5
1DB5
330
2E65
100
AcDbEntity
  8
SIZE
 62
     0
100
AcDbBlockReference
  2
_DOTBLANK
 10
284.6432844803785
 20
-300.0
 30
0.0
 41
12.0
 42
12.0
 43
12.0
 50
270.0
  0
INSERT
  5
1DB6
330
2E65
100
AcDbEntity
  8
SIZE
 62
     0
100
AcDbBlockReference
  2
_DOTBLANK
 10
284.6432844803785
 20
-312.0
 30
0.0
 41
12.0
 42
12.0
 43
12.0
 50
90.0
  0
INSERT
  5
1DB7
330
2E65
100
AcDbEntity
  8
0
100
AcDbBlockReference
  2
*U62
 10
0.0
 20
0.0
 30
0.0
  0
POINT
  5
1DB8
330
2E65
100
AcDbEntity
  8
DEFPOINTS
 62
     0
100
AcDbPoint
 10
134.5
 20
-300.0
 30
0.0
  0
POINT
  5
1DB9
330
2E65
100
AcDbEntity
  8
DEFPOINTS
 62
     0
100
AcDbPoint
 10
123.5
 20
-312.0
 30
0.0
  0
POINT
  5
1DBA
330
2E65
100
AcDbEntity
  8
DEFPOINTS
 62
     0
100
AcDbPoint
 10
284.6432844803785
 20
-312.0
 30
0.0
  0
ENDBLK
  5
177B
330
2E65
100
AcDbEntity
  8
0
100
AcDbBlockEnd
  0
BLOCK
  5
2E68
330
2E67
100
AcDbEntity
  8
0
100
AcDbBlockBegin
  2
*U62
 70
     1
 10
0.0
 20
0.0
 30
0.0
  3
*U62
  1

  0
TEXT
  5
1F45
330
2E67
100
AcDbEntity
  8
SIZE
 62
     0
100
AcDbText
 10
274.6432844803785
 20
-428.2857142857142
 30
0.0
 40
64.0
  1
12
 50
90.0
 41
0.9
100
AcDbText
  0
ENDBLK
  5
1F47
330
2E67
100
AcDbEntity
  8
0
100
AcDbBlockEnd
  0
BLOCK
  5
2E6A
330
2E69
100
AcDbEntity
  8
0
100
AcDbBlockBegin
  2
*U63
 70
     1
 10
0.0
 20
0.0
 30
0.0
  3
*U63
  1

  0
ENDBLK
  5
1D57
330
2E69
100
AcDbEntity
  8
0
100
AcDbBlockEnd
  0
BLOCK
  5
2E6C
330
2E6B
100
AcDbEntity
  8
0
100
AcDbBlockBegin
  2
*U64
 70
     1
 10
0.0
 20
0.0
 30
0.0
  3
*U64
  1

  0
INSERT
  5
2088
330
2E6B
100
AcDbEntity
  8
NOTE
100
AcDbBlockReference
  2
_OPEN30
 10
-140.0
 20
0.0
 30
0.0
 41
12.0
 42
12.0
 43
12.0
 50
312.6090116116894
  0
POLYLINE
  5
2089
330
2E6B
100
AcDbEntity
  8
NOTE
100
AcDb2dPolyline
 66
     1
 10
0.0
 20
0.0
 30
0.0
  0
VERTEX
  5
2124
330
2089
100
AcDbEntity
  8
NOTE
100
AcDbVertex
100
AcDb2dVertex
 10
-148.1239008361894
 20
8.831887408915472
 30
0.0
  0
VERTEX
  5
2125
330
2089
100
AcDbEntity
  8
NOTE
100
AcDbVertex
100
AcDb2dVertex
 10
-227.8693999922543
 20
95.52709505801338
 30
0.0
  0
VERTEX
  5
2126
330
2089
100
AcDbEntity
  8
NOTE
100
AcDbVertex
100
AcDb2dVertex
 10
-773.7093999922541
 20
95.52709505801338
 30
0.0
  0
SEQEND
  5
2127
330
2089
100
AcDbEntity
  8
NOTE
  0
ENDBLK
  5
208A
330
2E6B
100
AcDbEntity
  8
0
100
AcDbBlockEnd
  0
BLOCK
  5
2E6E
330
2E6D
100
AcDbEntity
  8
0
100
AcDbBlockBegin
  2
*U65
 70
     1
 10
0.0
 20
0.0
 30
0.0
  3
*U65
  1

  0
TEXT
  5
208D
330
2E6D
100
AcDbEntity
  8
NOTE
100
AcDbText
 10
-773.7093999922541
 20
113.5270950580134
 30
0.0
 40
64.0
  1
4×φ10取付穴
 41
0.9
100
AcDbText
  0
ENDBLK
  5
208E
330
2E6D
100
AcDbEntity
  8
0
100
AcDbBlockEnd
  0
BLOCK
  5
2E70
330
2E6F
100
AcDbEntity
  8
0
100
AcDbBlockBegin
  2
*U66
 70
     1
 10
0.0
 20
0.0
 30
0.0
  3
*U66
  1

  0
INSERT
  5
25A0
330
2E6F
100
AcDbEntity
  8
NOTE
100
AcDbBlockReference
  2
_OPEN30
 10
-605.0
 20
0.0
 30
0.0
 41
12.0
 42
12.0
 43
12.0
 50
312.6090116116894
  0
POLYLINE
  5
25A1
330
2E6F
100
AcDbEntity
  8
NOTE
100
AcDb2dPolyline
 66
     1
 10
0.0
 20
0.0
 30
0.0
  0
VERTEX
  5
25A2
330
25A1
100
AcDbEntity
  8
NOTE
100
AcDbVertex
100
AcDb2dVertex
 10
-613.1239008361895
 20
8.831887408915475
 30
0.0
  0
VERTEX
  5
25A3
330
25A1
100
AcDbEntity
  8
NOTE
100
AcDbVertex
100
AcDb2dVertex
 10
-692.8693999922542
 20
95.52709505801338
 30
0.0
  0
VERTEX
  5
25A4
330
25A1
100
AcDbEntity
  8
NOTE
100
AcDbVertex
100
AcDb2dVertex
 10
-1282.595114277969
 20
95.52709505801338
 30
0.0
  0
SEQEND
  5
25A5
330
25A1
100
AcDbEntity
  8
NOTE
  0
ENDBLK
  5
25A6
330
2E6F
100
AcDbEntity
  8
0
100
AcDbBlockEnd
  0
BLOCK
  5
2E72
330
2E71
100
AcDbEntity
  8
0
100
AcDbBlockBegin
  2
*U67
 70
     1
 10
0.0
 20
0.0
 30
0.0
  3
*U67
  1

  0
TEXT
  5
25A9
330
2E71
100
AcDbEntity
  8
NOTE
100
AcDbText
 10
-1282.595114277969
 20
113.5270950580134
 30
0.0
 40
64.0
  1
10×φ15取付穴
 41
0.9
100
AcDbText
  0
ENDBLK
  5
25AA
330
2E71
100
AcDbEntity
  8
0
100
AcDbBlockEnd
  0
BLOCK
  5
2E74
330
2E73
100
AcDbEntity
  8
0
100
AcDbBlockBegin
  2
*U68
 70
     1
 10
0.0
 20
0.0
 30
0.0
  3
*U68
  1

  0
INSERT
  5
288C
330
2E73
100
AcDbEntity
  8
NOTE
100
AcDbBlockReference
  2
_OPEN30
 10
-605.0000004251701
 20
0.0000000000009095
 30
0.0
 41
12.0
 42
12.0
 43
12.0
 50
312.6090116116894
  0
POLYLINE
  5
288D
330
2E73
100
AcDbEntity
  8
NOTE
100
AcDb2dPolyline
 66
     1
 10
0.0
 20
0.0
 30
0.0
  0
VERTEX
  5
288E
330
288D
100
AcDbEntity
  8
NOTE
100
AcDbVertex
100
AcDb2dVertex
 10
-613.1239012613596
 20
8.831887408916385
 30
0.0
  0
VERTEX
  5
288F
330
288D
100
AcDbEntity
  8
NOTE
100
AcDbVertex
100
AcDb2dVertex
 10
-692.8694004174243
 20
95.52709505801429
 30
0.0
  0
VERTEX
  5
2890
330
288D
100
AcDbEntity
  8
NOTE
100
AcDbVertex
100
AcDb2dVertex
 10
-1282.595114703139
 20
95.52709505801429
 30
0.0
  0
SEQEND
  5
2891
330
288D
100
AcDbEntity
  8
NOTE
  0
ENDBLK
  5
2892
330
2E73
100
AcDbEntity
  8
0
100
AcDbBlockEnd
  0
BLOCK
  5
2E76
330
2E75
100
AcDbEntity
  8
0
100
AcDbBlockBegin
  2
*U69
 70
     1
 10
0.0
 20
0.0
 30
0.0
  3
*U69
  1

  0
TEXT
  5
2895
330
2E75
100
AcDbEntity
  8
NOTE
100
AcDbText
 10
-1282.595114703139
 20
113.5270950580143
 30
0.0
 40
64.0
  1
10×φ15取付穴
 41
0.9
100
AcDbText
  0
ENDBLK
  5
2896
330
2E75
100
AcDbEntity
  8
0
100
AcDbBlockEnd
  0
BLOCK
  5
2E78
330
2E77
100
AcDbEntity
  8
0
100
AcDbBlockBegin
  2
*X70
 70
     1
 10
0.0
 20
0.0
 30
0.0
  3
*X70
  1

  0
LINE
  5
2899
330
2E77
100
AcDbEntity
  8
0
 62
     0
100
AcDbLine
 10
-556.4999623299391
 20
-1027.25320185938
 30
0.0
 11
-540.2316776555489
 21
-1035.000000000002
 31
0.0
  0
LINE
  5
289A
330
2E77
100
AcDbEntity
  8
0
 62
     0
100
AcDbLine
 10
-556.4999623299391
 20
-1017.253250115245
 30
0.0
 11
-519.2317679185577
 21
-1035.000000000001
 31
0.0
  0
LINE
  5
289B
330
2E77
100
AcDbEntity
  8
0
 62
     0
100
AcDbLine
 10
-556.4999623299391
 20
-1007.253298371112
 30
0.0
 11
-498.2318581815689
 21
-1035.000000000003
 31
0.0
  0
LINE
  5
289C
330
2E77
100
AcDbEntity
  8
0
 62
     0
100
AcDbLine
 10
-556.4999623299407
 20
-997.2533466269767
 30
0.0
 11
-477.2319484445777
 21
-1035.000000000002
 31
0.0
  0
LINE
  5
289D
330
2E77
100
AcDbEntity
  8
0
 62
     0
100
AcDbLine
 10
-556.4999623299391
 20
-987.2533948828431
 30
0.0
 11
-456.2320387075869
 21
-1035.000000000002
 31
0.0
  0
LINE
  5
289E
330
2E77
100
AcDbEntity
  8
0
 62
     0
100
AcDbLine
 10
-556.4999623299407
 20
-977.2534431387073
 30
0.0
 11
-435.2321289705978
 21
-1035.000000000002
 31
0.0
  0
LINE
  5
289F
330
2E77
100
AcDbEntity
  8
0
 62
     0
100
AcDbLine
 10
-556.4999623299407
 20
-967.2534913945726
 30
0.0
 11
-414.2322192336051
 21
-1035.000000000002
 31
0.0
  0
LINE
  5
28A0
330
2E77
100
AcDbEntity
  8
0
 62
     0
100
AcDbLine
 10
-556.4999623299391
 20
-957.2535396504399
 30
0.0
 11
-393.2323094966159
 21
-1035.000000000003
 31
0.0
  0
LINE
  5
28A1
330
2E77
100
AcDbEntity
  8
0
 62
     0
100
AcDbLine
 10
-556.4999623299407
 20
-947.2535879063052
 30
0.0
 11
-372.2323997596248
 21
-1035.000000000003
 31
0.0
  0
LINE
  5
28A2
330
2E77
100
AcDbEntity
  8
0
 62
     0
100
AcDbLine
 10
-556.4999623299391
 20
-937.2536361621705
 30
0.0
 11
-351.2324900226322
 21
-1035.000000000002
 31
0.0
  0
LINE
  5
28A3
330
2E77
100
AcDbEntity
  8
0
 62
     0
100
AcDbLine
 10
-556.4999623299391
 20
-927.2536844180358
 30
0.0
 11
-330.2325802856412
 21
-1035.000000000002
 31
0.0
  0
LINE
  5
28A4
330
2E77
100
AcDbEntity
  8
0
 62
     0
100
AcDbLine
 10
-556.4999623299391
 20
-917.2537326739011
 30
0.0
 11
-309.2326705486502
 21
-1035.000000000002
 31
0.0
  0
LINE
  5
28A5
330
2E77
100
AcDbEntity
  8
0
 62
     0
100
AcDbLine
 10
-556.4999623299391
 20
-907.2537809297656
 30
0.0
 11
-288.2327608116575
 21
-1035.000000000002
 31
0.0
  0
LINE
  5
28A6
330
2E77
100
AcDbEntity
  8
0
 62
     0
100
AcDbLine
 10
-556.4999623299391
 20
-897.2538291856336
 30
0.0
 11
-267.2328510746701
 21
-1035.000000000003
 31
0.0
  0
LINE
  5
28A7
330
2E77
100
AcDbEntity
  8
0
 62
     0
100
AcDbLine
 10
-556.4999623299391
 20
-887.2538774414978
 30
0.0
 11
-246.2329413376792
 21
-1035.000000000002
 31
0.0
  0
LINE
  5
28A8
330
2E77
100
AcDbEntity
  8
0
 62
     0
100
AcDbLine
 10
-556.4999623299391
 20
-877.253925697363
 30
0.0
 11
-225.2330316006883
 21
-1035.000000000002
 31
0.0
  0
LINE
  5
28A9
330
2E77
100
AcDbEntity
  8
0
 62
     0
100
AcDbLine
 10
-556.4999623299407
 20
-867.2539739532295
 30
0.0
 11
-204.2331218636991
 21
-1035.000000000002
 31
0.0
  0
LINE
  5
28AA
330
2E77
100
AcDbEntity
  8
0
 62
     0
100
AcDbLine
 10
-556.4999623299391
 20
-857.2540222090948
 30
0.0
 11
-183.2332121267062
 21
-1035.000000000002
 31
0.0
  0
LINE
  5
28AB
330
2E77
100
AcDbEntity
  8
0
 62
     0
100
AcDbLine
 10
-556.4999623299391
 20
-847.2540704649619
 30
0.0
 11
-162.2333023897154
 21
-1035.000000000003
 31
0.0
  0
LINE
  5
28AC
330
2E77
100
AcDbEntity
  8
0
 62
     0
100
AcDbLine
 10
-556.4999623299407
 20
-837.2541187208272
 30
0.0
 11
-141.2333926527244
 21
-1035.000000000003
 31
0.0
  0
LINE
  5
28AD
330
2E77
100
AcDbEntity
  8
0
 62
     0
100
AcDbLine
 10
-556.4999623299391
 20
-827.2541669766924
 30
0.0
 11
-120.2334829157353
 21
-1035.000000000003
 31
0.0
  0
LINE
  5
28AE
330
2E77
100
AcDbEntity
  8
0
 62
     0
100
AcDbLine
 10
-556.4999623299391
 20
-817.2542152325577
 30
0.0
 11
-99.23357317874252
 21
-1035.000000000002
 31
0.0
  0
LINE
  5
28AF
330
2E77
100
AcDbEntity
  8
0
 62
     0
100
AcDbLine
 10
-556.4999623299391
 20
-807.254263488423
 30
0.0
 11
-78.23366344175339
 21
-1035.000000000002
 31
0.0
  0
LINE
  5
28B0
330
2E77
100
AcDbEntity
  8
0
 62
     0
100
AcDbLine
 10
-556.4999623299407
 20
-797.2543117442874
 30
0.0
 11
-57.23375370476242
 21
-1035.000000000002
 31
0.0
  0
LINE
  5
28B1
330
2E77
100
AcDbEntity
  8
0
 62
     0
100
AcDbLine
 10
-556.4999623299391
 20
-787.2543600001553
 30
0.0
 11
-36.23384396776965
 21
-1035.000000000003
 31
0.0
  0
LINE
  5
28B2
330
2E77
100
AcDbEntity
  8
0
 62
     0
100
AcDbLine
 10
-556.4999623299407
 20
-777.2544082560199
 30
0.0
 11
-15.2339342307805
 21
-1035.000000000003
 31
0.0
  0
LINE
  5
28B3
330
2E77
100
AcDbEntity
  8
0
 62
     0
100
AcDbLine
 10
-556.4999623299391
 20
-767.2544565118851
 30
0.0
 11
5.765975506212271
 21
-1035.000000000003
 31
0.0
  0
LINE
  5
28B4
330
2E77
100
AcDbEntity
  8
0
 62
     0
100
AcDbLine
 10
-556.4999623299391
 20
-757.2545047677504
 30
0.0
 11
26.76588524319959
 21
-1035.000000000002
 31
0.0
  0
LINE
  5
28B5
330
2E77
100
AcDbEntity
  8
0
 62
     0
100
AcDbLine
 10
-556.4999623299391
 20
-747.2545530236157
 30
0.0
 11
47.76579498019237
 21
-1035.000000000002
 31
0.0
  0
LINE
  5
28B6
330
2E77
100
AcDbEntity
  8
0
 62
     0
100
AcDbLine
 10
-556.4999623299372
 20
-737.2546012794829
 30
0.0
 11
68.76570471718332
 21
-1035.000000000003
 31
0.0
  0
LINE
  5
28B7
330
2E77
100
AcDbEntity
  8
0
 62
     0
100
AcDbLine
 10
-556.4999623299391
 20
-727.2546495353481
 30
0.0
 11
89.76561445417427
 21
-1035.000000000003
 31
0.0
  0
LINE
  5
28B8
330
2E77
100
AcDbEntity
  8
0
 62
     0
100
AcDbLine
 10
-556.4999623299391
 20
-717.2546977912134
 30
0.0
 11
110.7655241911652
 21
-1035.000000000003
 31
0.0
  0
LINE
  5
28B9
330
2E77
100
AcDbEntity
  8
0
 62
     0
100
AcDbLine
 10
-556.4999623299372
 20
-707.2547460470786
 30
0.0
 11
131.7654339281562
 21
-1035.000000000003
 31
0.0
  0
LINE
  5
28BA
330
2E77
100
AcDbEntity
  8
0
 62
     0
100
AcDbLine
 10
-556.4999623299391
 20
-697.2547943029439
 30
0.0
 11
152.7653436651453
 21
-1035.000000000002
 31
0.0
  0
LINE
  5
28BB
330
2E77
100
AcDbEntity
  8
0
 62
     0
100
AcDbLine
 10
-556.4999623299391
 20
-687.2548425588099
 30
0.0
 11
173.7652534021345
 21
-1035.000000000003
 31
0.0
  0
LINE
  5
28BC
330
2E77
100
AcDbEntity
  8
0
 62
     0
100
AcDbLine
 10
-556.4999623299391
 20
-677.2548908146752
 30
0.0
 11
194.7651631391272
 21
-1035.000000000003
 31
0.0
  0
LINE
  5
28BD
330
2E77
100
AcDbEntity
  8
0
 62
     0
100
AcDbLine
 10
-556.4999623299407
 20
-667.2549390705407
 30
0.0
 11
215.7650728761164
 21
-1035.000000000003
 31
0.0
  0
LINE
  5
28BE
330
2E77
100
AcDbEntity
  8
0
 62
     0
100
AcDbLine
 10
-556.4999623299391
 20
-657.2549873264058
 30
0.0
 11
236.7649826131092
 21
-1035.000000000003
 31
0.0
  0
LINE
  5
28BF
330
2E77
100
AcDbEntity
  8
0
 62
     0
100
AcDbLine
 10
-556.4999623299391
 20
-647.2550355822712
 30
0.0
 11
257.7648923501001
 21
-1035.000000000003
 31
0.0
  0
LINE
  5
28C0
330
2E77
100
AcDbEntity
  8
0
 62
     0
100
AcDbLine
 10
-556.4999623299391
 20
-637.2550838381365
 30
0.0
 11
278.7648020870893
 21
-1035.000000000002
 31
0.0
  0
LINE
  5
28C1
330
2E77
100
AcDbEntity
  8
0
 62
     0
100
AcDbLine
 10
-556.4999623299372
 20
-627.2551320940045
 30
0.0
 11
299.764711824082
 21
-1035.000000000003
 31
0.0
  0
LINE
  5
28C2
330
2E77
100
AcDbEntity
  8
0
 62
     0
100
AcDbLine
 10
-556.4999623299391
 20
-617.2551803498699
 30
0.0
 11
320.764621561073
 21
-1035.000000000003
 31
0.0
  0
LINE
  5
28C3
330
2E77
100
AcDbEntity
  8
0
 62
     0
100
AcDbLine
 10
-556.4999623299391
 20
-607.2552286057352
 30
0.0
 11
341.7645312980603
 21
-1035.000000000003
 31
0.0
  0
LINE
  5
28C4
330
2E77
100
AcDbEntity
  8
0
 62
     0
100
AcDbLine
 10
-556.4999623299391
 20
-597.2552768615996
 30
0.0
 11
362.7644410350531
 21
-1035.000000000003
 31
0.0
  0
LINE
  5
28C5
330
2E77
100
AcDbEntity
  8
0
 62
     0
100
AcDbLine
 10
-556.4999623299372
 20
-587.2553251174656
 30
0.0
 11
383.7643507720441
 21
-1035.000000000002
 31
0.0
  0
LINE
  5
28C6
330
2E77
100
AcDbEntity
  8
0
 62
     0
100
AcDbLine
 10
-556.4999623299391
 20
-577.2553733733319
 30
0.0
 11
404.764260509035
 21
-1035.000000000004
 31
0.0
  0
LINE
  5
28C7
330
2E77
100
AcDbEntity
  8
0
 62
     0
100
AcDbLine
 10
-556.4999623299391
 20
-567.2554216291971
 30
0.0
 11
425.764170246026
 21
-1035.000000000003
 31
0.0
  0
LINE
  5
28C8
330
2E77
100
AcDbEntity
  8
0
 62
     0
100
AcDbLine
 10
-556.4999623299391
 20
-557.2554698850625
 30
0.0
 11
446.7640799830149
 21
-1035.000000000003
 31
0.0
  0
LINE
  5
28C9
330
2E77
100
AcDbEntity
  8
0
 62
     0
100
AcDbLine
 10
-556.4999623299391
 20
-547.2555181409279
 30
0.0
 11
467.7639897200077
 21
-1035.000000000003
 31
0.0
  0
LINE
  5
28CA
330
2E77
100
AcDbEntity
  8
0
 62
     0
100
AcDbLine
 10
-556.4999623299372
 20
-537.2555663967932
 30
0.0
 11
488.7638994569988
 21
-1035.000000000003
 31
0.0
  0
LINE
  5
28CB
330
2E77
100
AcDbEntity
  8
0
 62
     0
100
AcDbLine
 10
-556.4999623299391
 20
-527.2556146526585
 30
0.0
 11
509.7638091939879
 21
-1035.000000000002
 31
0.0
  0
LINE
  5
28CC
330
2E77
100
AcDbEntity
  8
0
 62
     0
100
AcDbLine
 10
-556.4999623299391
 20
-517.2556629085256
 30
0.0
 11
530.7637189309788
 21
-1035.000000000003
 31
0.0
  0
LINE
  5
28CD
330
2E77
100
AcDbEntity
  8
0
 62
     0
100
AcDbLine
 10
-556.4999623299391
 20
-507.25571116439
 30
0.0
 11
551.7636286679699
 21
-1035.000000000003
 31
0.0
  0
LINE
  5
28CE
330
2E77
100
AcDbEntity
  8
0
 62
     0
100
AcDbLine
 10
-556.4999623299391
 20
-497.255759420256
 30
0.0
 11
556.499999574822
 21
-1027.255461784023
 31
0.0
  0
LINE
  5
28CF
330
2E77
100
AcDbEntity
  8
0
 62
     0
100
AcDbLine
 10
-556.4999623299391
 20
-487.2558076761205
 30
0.0
 11
556.4999995748239
 21
-1017.255510039889
 31
0.0
  0
LINE
  5
28D0
330
2E77
100
AcDbEntity
  8
0
 62
     0
100
AcDbLine
 10
-556.4999623299391
 20
-477.2558559319858
 30
0.0
 11
556.499999574822
 21
-1007.255558295754
 31
0.0
  0
LINE
  5
28D1
330
2E77
100
AcDbEntity
  8
0
 62
     0
100
AcDbLine
 10
-556.4999623299407
 20
-467.2559041878527
 30
0.0
 11
556.499999574822
 21
-997.2556065516211
 31
0.0
  0
LINE
  5
28D2
330
2E77
100
AcDbEntity
  8
0
 62
     0
100
AcDbLine
 10
-556.4999623299372
 20
-457.2559524437183
 30
0.0
 11
556.4999995748239
 21
-987.2556548074866
 31
0.0
  0
LINE
  5
28D3
330
2E77
100
AcDbEntity
  8
0
 62
     0
100
AcDbLine
 10
-556.4999623299391
 20
-447.2560006995835
 30
0.0
 11
556.4999995748239
 21
-977.2557030633519
 31
0.0
  0
LINE
  5
28D4
330
2E77
100
AcDbEntity
  8
0
 62
     0
100
AcDbLine
 10
-556.4999623299391
 20
-437.2560489554488
 30
0.0
 11
556.499999574822
 21
-967.2557513192172
 31
0.0
  0
LINE
  5
28D5
330
2E77
100
AcDbEntity
  8
0
 62
     0
100
AcDbLine
 10
-556.4999623299372
 20
-427.2560972113142
 30
0.0
 11
556.499999574822
 21
-957.2557995750816
 31
0.0
  0
LINE
  5
28D6
330
2E77
100
AcDbEntity
  8
0
 62
     0
100
AcDbLine
 10
-556.4999623299391
 20
-417.2561454671812
 30
0.0
 11
556.4999995748239
 21
-947.2558478309498
 31
0.0
  0
LINE
  5
28D7
330
2E77
100
AcDbEntity
  8
0
 62
     0
100
AcDbLine
 10
-556.4999623299372
 20
-407.2561937230466
 30
0.0
 11
556.499999574822
 21
-937.2558960868142
 31
0.0
  0
LINE
  5
28D8
330
2E77
100
AcDbEntity
  8
0
 62
     0
100
AcDbLine
 10
-556.4999623299391
 20
-397.256241978912
 30
0.0
 11
556.4999995748239
 21
-927.2559443426796
 31
0.0
  0
LINE
  5
28D9
330
2E77
100
AcDbEntity
  8
0
 62
     0
100
AcDbLine
 10
-556.4999623299391
 20
-387.2562902347772
 30
0.0
 11
556.499999574822
 21
-917.2559925985451
 31
0.0
  0
LINE
  5
28DA
330
2E77
100
AcDbEntity
  8
0
 62
     0
100
AcDbLine
 10
-556.4999623299391
 20
-377.2563384906425
 30
0.0
 11
556.499999574822
 21
-907.2560408544104
 31
0.0
  0
LINE
  5
28DB
330
2E77
100
AcDbEntity
  8
0
 62
     0
100
AcDbLine
 10
-556.4999623299372
 20
-367.2563867465078
 30
0.0
 11
556.4999995748239
 21
-897.2560891102755
 31
0.0
  0
LINE
  5
28DC
330
2E77
100
AcDbEntity
  8
0
 62
     0
100
AcDbLine
 10
-556.4999623299391
 20
-357.2564350023749
 30
0.0
 11
556.499999574822
 21
-887.2561373661428
 31
0.0
  0
LINE
  5
28DD
330
2E77
100
AcDbEntity
  8
0
 62
     0
100
AcDbLine
 10
-556.4999623299407
 20
-347.2564832582392
 30
0.0
 11
556.4999995748239
 21
-877.2561856220081
 31
0.0
  0
LINE
  5
28DE
330
2E77
100
AcDbEntity
  8
0
 62
     0
100
AcDbLine
 10
-556.4999623299372
 20
-337.2565315141055
 30
0.0
 11
556.499999574822
 21
-867.2562338778725
 31
0.0
  0
LINE
  5
28DF
330
2E77
100
AcDbEntity
  8
0
 62
     0
100
AcDbLine
 10
-556.4999623299407
 20
-327.2565797699698
 30
0.0
 11
556.499999574822
 21
-857.2562821337387
 31
0.0
  0
LINE
  5
28E0
330
2E77
100
AcDbEntity
  8
0
 62
     0
100
AcDbLine
 10
-556.4999623299391
 20
-317.2566280258352
 30
0.0
 11
556.499999574822
 21
-847.2563303896031
 31
0.0
  0
LINE
  5
28E1
330
2E77
100
AcDbEntity
  8
0
 62
     0
100
AcDbLine
 10
-556.4999623299391
 20
-307.2566762817023
 30
0.0
 11
556.499999574822
 21
-837.2563786454701
 31
0.0
  0
LINE
  5
28E2
330
2E77
100
AcDbEntity
  8
0
 62
     0
100
AcDbLine
 10
-556.4999623299407
 20
-297.2567245375676
 30
0.0
 11
556.499999574822
 21
-827.2564269013354
 31
0.0
  0
LINE
  5
28E3
330
2E77
100
AcDbEntity
  8
0
 62
     0
100
AcDbLine
 10
-556.4999623299372
 20
-287.2567727934329
 30
0.0
 11
556.4999995748239
 21
-817.2564751572005
 31
0.0
  0
LINE
  5
28E4
330
2E77
100
AcDbEntity
  8
0
 62
     0
100
AcDbLine
 10
-556.4999623299391
 20
-277.2568210492982
 30
0.0
 11
556.499999574822
 21
-807.2565234130662
 31
0.0
  0
LINE
  5
28E5
330
2E77
100
AcDbEntity
  8
0
 62
     0
100
AcDbLine
 10
-556.4999623299391
 20
-267.2568693051634
 30
0.0
 11
556.499999574822
 21
-797.2565716689314
 31
0.0
  0
LINE
  5
28E6
330
2E77
100
AcDbEntity
  8
0
 62
     0
100
AcDbLine
 10
-556.4999623299391
 20
-257.2569175610297
 30
0.0
 11
556.4999995748239
 21
-787.256619924799
 31
0.0
  0
LINE
  5
28E7
330
2E77
100
AcDbEntity
  8
0
 62
     0
100
AcDbLine
 10
-556.4999623299391
 20
-247.2569658168959
 30
0.0
 11
556.4999995748239
 21
-777.2566681806644
 31
0.0
  0
LINE
  5
28E8
330
2E77
100
AcDbEntity
  8
0
 62
     0
100
AcDbLine
 10
-556.4999623299391
 20
-237.2570140727603
 30
0.0
 11
556.4999995748239
 21
-767.2567164365297
 31
0.0
  0
LINE
  5
28E9
330
2E77
100
AcDbEntity
  8
0
 62
     0
100
AcDbLine
 10
-556.4999623299391
 20
-227.2570623286256
 30
0.0
 11
556.499999574822
 21
-757.2567646923937
 31
0.0
  0
LINE
  5
28EA
330
2E77
100
AcDbEntity
  8
0
 62
     0
100
AcDbLine
 10
-556.4999623299391
 20
-217.2571105844909
 30
0.0
 11
556.499999574822
 21
-747.2568129482588
 31
0.0
  0
LINE
  5
28EB
330
2E77
100
AcDbEntity
  8
0
 62
     0
100
AcDbLine
 10
-556.4999623299391
 20
-207.2571588403572
 30
0.0
 11
556.499999574822
 21
-737.2568612041244
 31
0.0
  0
LINE
  5
28EC
330
2E77
100
AcDbEntity
  8
0
 62
     0
100
AcDbLine
 10
-556.4999623299391
 20
-197.2572070962241
 30
0.0
 11
556.4999995748239
 21
-727.2569094599913
 31
0.0
  0
LINE
  5
28ED
330
2E77
100
AcDbEntity
  8
0
 62
     0
100
AcDbLine
 10
-556.4999623299391
 20
-187.2572553520894
 30
0.0
 11
556.499999574822
 21
-717.256957715857
 31
0.0
  0
LINE
  5
28EE
330
2E77
100
AcDbEntity
  8
0
 62
     0
100
AcDbLine
 10
-556.4999623299391
 20
-177.2573036079546
 30
0.0
 11
556.499999574822
 21
-707.2570059717222
 31
0.0
  0
LINE
  5
28EF
330
2E77
100
AcDbEntity
  8
0
 62
     0
100
AcDbLine
 10
-556.4999623299372
 20
-167.25735186382
 30
0.0
 11
556.4999995748239
 21
-697.2570542275875
 31
0.0
  0
LINE
  5
28F0
330
2E77
100
AcDbEntity
  8
0
 62
     0
100
AcDbLine
 10
-556.4999623299391
 20
-157.2574001196853
 30
0.0
 11
556.499999574822
 21
-687.2571024834532
 31
0.0
  0
LINE
  5
28F1
330
2E77
100
AcDbEntity
  8
0
 62
     0
100
AcDbLine
 10
-556.4999623299407
 20
-147.2574483755514
 30
0.0
 11
556.4999995748239
 21
-677.2571507393204
 31
0.0
  0
LINE
  5
28F2
330
2E77
100
AcDbEntity
  8
0
 62
     0
100
AcDbLine
 10
-556.4999623299391
 20
-137.2574966314168
 30
0.0
 11
556.499999574822
 21
-667.2571989951848
 31
0.0
  0
LINE
  5
28F3
330
2E77
100
AcDbEntity
  8
0
 62
     0
100
AcDbLine
 10
-556.4999623299407
 20
-127.2575448872821
 30
0.0
 11
556.499999574822
 21
-657.2572472510501
 31
0.0
  0
LINE
  5
28F4
330
2E77
100
AcDbEntity
  8
0
 62
     0
100
AcDbLine
 10
-556.4999623299372
 20
-117.2575931431474
 30
0.0
 11
556.4999995748239
 21
-647.2572955069153
 31
0.0
  0
LINE
  5
28F5
330
2E77
100
AcDbEntity
  8
0
 62
     0
100
AcDbLine
 10
-556.4999623299391
 20
-107.2576413990127
 30
0.0
 11
556.499999574822
 21
-637.2573437627806
 31
0.0
  0
LINE
  5
28F6
330
2E77
100
AcDbEntity
  8
0
 62
     0
100
AcDbLine
 10
-540.2411020310665
 20
-105.0000000000009
 30
0.0
 11
556.499999574822
 21
-627.2573920186458
 31
0.0
  0
LINE
  5
28F7
330
2E77
100
AcDbEntity
  8
0
 62
     0
100
AcDbLine
 10
-519.2411922940737
 20
-105.0000000000027
 30
0.0
 11
556.4999995748239
 21
-617.2574402745131
 31
0.0
  0
LINE
  5
28F8
330
2E77
100
AcDbEntity
  8
0
 62
     0
100
AcDbLine
 10
-498.2412825570864
 20
-105.0000000000018
 30
0.0
 11
556.4999995748239
 21
-607.2574885303784
 31
0.0
  0
LINE
  5
28F9
330
2E77
100
AcDbEntity
  8
0
 62
     0
100
AcDbLine
 10
-477.2413728200936
 20
-105.0000000000018
 30
0.0
 11
556.4999995748239
 21
-597.2575367862433
 31
0.0
  0
LINE
  5
28FA
330
2E77
100
AcDbEntity
  8
0
 62
     0
100
AcDbLine
 10
-456.2414630831026
 20
-105.0000000000018
 30
0.0
 11
556.4999995748239
 21
-587.257585042109
 31
0.0
  0
LINE
  5
28FB
330
2E77
100
AcDbEntity
  8
0
 62
     0
100
AcDbLine
 10
-435.2415533461116
 20
-105.0000000000018
 30
0.0
 11
556.499999574822
 21
-577.2576332979731
 31
0.0
  0
LINE
  5
28FC
330
2E77
100
AcDbEntity
  8
0
 62
     0
100
AcDbLine
 10
-414.2416436091225
 20
-105.0000000000027
 30
0.0
 11
556.4999995748239
 21
-567.2576815538413
 31
0.0
  0
LINE
  5
28FD
330
2E77
100
AcDbEntity
  8
0
 62
     0
100
AcDbLine
 10
-393.2417338721298
 20
-105.0000000000018
 30
0.0
 11
556.4999995748239
 21
-557.2577298097058
 31
0.0
  0
LINE
  5
28FE
330
2E77
100
AcDbEntity
  8
0
 62
     0
100
AcDbLine
 10
-372.2418241351405
 20
-105.0000000000018
 30
0.0
 11
556.499999574822
 21
-547.257778065571
 31
0.0
  0
LINE
  5
28FF
330
2E77
100
AcDbEntity
  8
0
 62
     0
100
AcDbLine
 10
-351.2419143981497
 20
-105.0000000000009
 30
0.0
 11
556.499999574822
 21
-537.2578263214372
 31
0.0
  0
LINE
  5
2900
330
2E77
100
AcDbEntity
  8
0
 62
     0
100
AcDbLine
 10
-330.2420046611588
 20
-105.0000000000009
 30
0.0
 11
556.4999995748239
 21
-527.2578745773023
 31
0.0
  0
LINE
  5
2901
330
2E77
100
AcDbEntity
  8
0
 62
     0
100
AcDbLine
 10
-309.2420949241696
 20
-105.0000000000027
 30
0.0
 11
556.499999574822
 21
-517.2579228331697
 31
0.0
  0
LINE
  5
2902
330
2E77
100
AcDbEntity
  8
0
 62
     0
100
AcDbLine
 10
-288.2421851871768
 20
-105.0000000000027
 30
0.0
 11
556.499999574822
 21
-507.2579710890336
 31
0.0
  0
LINE
  5
2903
330
2E77
100
AcDbEntity
  8
0
 62
     0
100
AcDbLine
 10
-267.2422754501857
 20
-105.0000000000027
 30
0.0
 11
556.499999574822
 21
-497.2580193448991
 31
0.0
  0
LINE
  5
2904
330
2E77
100
AcDbEntity
  8
0
 62
     0
100
AcDbLine
 10
-246.2423657131967
 20
-105.0000000000018
 30
0.0
 11
556.4999995748203
 21
-487.2580676007646
 31
0.0
  0
LINE
  5
2905
330
2E77
100
AcDbEntity
  8
0
 62
     0
100
AcDbLine
 10
-225.2424559762039
 20
-105.0000000000018
 30
0.0
 11
556.4999995748239
 21
-477.2581158566297
 31
0.0
  0
LINE
  5
2906
330
2E77
100
AcDbEntity
  8
0
 62
     0
100
AcDbLine
 10
-204.2425462392148
 20
-105.0000000000009
 30
0.0
 11
556.499999574822
 21
-467.2581641124952
 31
0.0
  0
LINE
  5
2907
330
2E77
100
AcDbEntity
  8
0
 62
     0
100
AcDbLine
 10
-183.2426365022238
 20
-105.0000000000027
 30
0.0
 11
556.4999995748239
 21
-457.2582123683623
 31
0.0
  0
LINE
  5
2908
330
2E77
100
AcDbEntity
  8
0
 62
     0
100
AcDbLine
 10
-162.242726765231
 20
-105.0000000000027
 30
0.0
 11
556.4999995748239
 21
-447.2582606242274
 31
0.0
  0
LINE
  5
2909
330
2E77
100
AcDbEntity
  8
0
 62
     0
100
AcDbLine
 10
-141.2428170282419
 20
-105.0000000000018
 30
0.0
 11
556.499999574822
 21
-437.2583088800928
 31
0.0
  0
LINE
  5
290A
330
2E77
100
AcDbEntity
  8
0
 62
     0
100
AcDbLine
 10
-120.2429072912509
 20
-105.0000000000018
 30
0.0
 11
556.4999995748239
 21
-427.2583571359581
 31
0.0
  0
LINE
  5
290B
330
2E77
100
AcDbEntity
  8
0
 62
     0
100
AcDbLine
 10
-99.2429975542582
 20
-105.0000000000018
 30
0.0
 11
556.499999574822
 21
-417.2584053918225
 31
0.0
  0
LINE
  5
290C
330
2E77
100
AcDbEntity
  8
0
 62
     0
100
AcDbLine
 10
-78.24308781727265
 20
-105.0000000000018
 30
0.0
 11
556.4999995748239
 21
-407.2584536476906
 31
0.0
  0
LINE
  5
290D
330
2E77
100
AcDbEntity
  8
0
 62
     0
100
AcDbLine
 10
340.6999995748229
 20
-294.4966513331709
 30
0.0
 11
349.7370365408551
 21
-298.8000000000028
 31
0.0
  0
LINE
  5
290E
330
2E77
100
AcDbEntity
  8
0
 62
     0
100
AcDbLine
 10
349.7370365408569
 20
-298.8000000000038
 30
0.0
 11
556.499999574822
 21
-397.2585019035548
 31
0.0
  0
LINE
  5
290F
330
2E77
100
AcDbEntity
  8
0
 62
     0
100
AcDbLine
 10
-57.2431780802799
 20
-105.0000000000018
 30
0.0
 11
340.6999995748229
 21
-294.4966513331709
 31
0.0
  0
LINE
  5
2910
330
2E77
100
AcDbEntity
  8
0
 62
     0
100
AcDbLine
 10
340.6999995748229
 20
-284.4966995890364
 30
0.0
 11
370.7369462778461
 21
-298.8000000000028
 31
0.0
  0
LINE
  5
2911
330
2E77
100
AcDbEntity
  8
0
 62
     0
100
AcDbLine
 10
370.7369462778479
 20
-298.8000000000038
 30
0.0
 11
556.499999574822
 21
-387.2585501594202
 31
0.0
  0
LINE
  5
2912
330
2E77
100
AcDbEntity
  8
0
 62
     0
100
AcDbLine
 10
-36.24326834328896
 20
-105.0000000000018
 30
0.0
 11
340.6999995748229
 21
-284.4966995890364
 31
0.0
  0
LINE
  5
2913
330
2E77
100
AcDbEntity
  8
0
 62
     0
100
AcDbLine
 10
340.6999995748229
 20
-274.4967478449016
 30
0.0
 11
391.736856014837
 21
-298.8000000000028
 31
0.0
  0
LINE
  5
2914
330
2E77
100
AcDbEntity
  8
0
 62
     0
100
AcDbLine
 10
391.7368560148389
 20
-298.8000000000038
 30
0.0
 11
556.499999574822
 21
-377.2585984152856
 31
0.0
  0
LINE
  5
2915
330
2E77
100
AcDbEntity
  8
0
 62
     0
100
AcDbLine
 10
-15.24335860629799
 20
-105.0000000000018
 30
0.0
 11
340.6999995748229
 21
-274.4967478449016
 31
0.0
  0
LINE
  5
2916
330
2E77
100
AcDbEntity
  8
0
 62
     0
100
AcDbLine
 10
340.6999995748229
 20
-264.4967961007669
 30
0.0
 11
412.736765751828
 21
-298.8000000000028
 31
0.0
  0
LINE
  5
2917
330
2E77
100
AcDbEntity
  8
0
 62
     0
100
AcDbLine
 10
412.7367657518297
 20
-298.8000000000038
 30
0.0
 11
556.499999574822
 21
-367.2586466711509
 31
0.0
  0
LINE
  5
2918
330
2E77
100
AcDbEntity
  8
0
 62
     0
100
AcDbLine
 10
5.756551130692968
 20
-105.0000000000018
 30
0.0
 11
340.6999995748229
 21
-264.4967961007669
 31
0.0
  0
LINE
  5
2919
330
2E77
100
AcDbEntity
  8
0
 62
     0
100
AcDbLine
 10
340.6999995748247
 20
-254.4968443566322
 30
0.0
 11
433.7366754888207
 21
-298.8000000000028
 31
0.0
  0
LINE
  5
291A
330
2E77
100
AcDbEntity
  8
0
 62
     0
100
AcDbLine
 10
433.7366754888207
 20
-298.8000000000028
 30
0.0
 11
556.4999995748239
 21
-357.2586949270162
 31
0.0
  0
LINE
  5
291B
330
2E77
100
AcDbEntity
  8
0
 62
     0
100
AcDbLine
 10
26.75646086768575
 20
-105.0000000000018
 30
0.0
 11
340.6999995748229
 21
-254.4968443566313
 31
0.0
  0
LINE
  5
291C
330
2E77
100
AcDbEntity
  8
0
 62
     0
100
AcDbLine
 10
340.6999995748247
 20
-244.4968926125002
 30
0.0
 11
454.7365852258097
 21
-298.8000000000038
 31
0.0
  0
LINE
  5
291D
330
2E77
100
AcDbEntity
  8
0
 62
     0
100
AcDbLine
 10
454.7365852258097
 20
-298.8000000000038
 30
0.0
 11
556.499999574822
 21
-347.2587431828832
 31
0.0
  0
LINE
  5
291E
330
2E77
100
AcDbEntity
  8
0
 62
     0
100
AcDbLine
 10
47.75637060467306
 20
-105.0000000000027
 30
0.0
 11
340.6999995748229
 21
-244.4968926124992
 31
0.0
  0
LINE
  5
291F
330
2E77
100
AcDbEntity
  8
0
 62
     0
100
AcDbLine
 10
340.6999995748247
 20
-234.4969408683655
 30
0.0
 11
475.7364949627988
 21
-298.8000000000038
 31
0.0
  0
LINE
  5
2920
330
2E77
100
AcDbEntity
  8
0
 62
     0
100
AcDbLine
 10
475.7364949628009
 20
-298.8000000000038
 30
0.0
 11
556.499999574822
 21
-337.2587914387486
 31
0.0
  0
LINE
  5
2921
330
2E77
100
AcDbEntity
  8
0
 62
     0
100
AcDbLine
 10
68.75628034166584
 20
-105.0000000000027
 30
0.0
 11
340.6999995748209
 21
-234.4969408683637
 31
0.0
  0
LINE
  5
2922
330
2E77
100
AcDbEntity
  8
0
 62
     0
100
AcDbLine
 10
340.6999995748247
 20
-224.4969891242299
 30
0.0
 11
496.7364046997918
 21
-298.8000000000028
 31
0.0
  0
LINE
  5
2923
330
2E77
100
AcDbEntity
  8
0
 62
     0
100
AcDbLine
 10
496.7364046997936
 20
-298.8000000000038
 30
0.0
 11
556.499999574822
 21
-327.2588396946139
 31
0.0
  0
LINE
  5
2924
330
2E77
100
AcDbEntity
  8
0
 62
     0
100
AcDbLine
 10
89.75619007865679
 20
-105.0000000000027
 30
0.0
 11
340.6999995748229
 21
-224.496989124229
 31
0.0
  0
LINE
  5
2925
330
2E77
100
AcDbEntity
  8
0
 62
     0
100
AcDbLine
 10
340.6999995748229
 20
-214.4970373800952
 30
0.0
 11
517.7363144367791
 21
-298.800000000002
 31
0.0
  0
LINE
  5
2926
330
2E77
100
AcDbEntity
  8
0
 62
     0
100
AcDbLine
 10
517.7363144367825
 20
-298.8000000000038
 30
0.0
 11
556.4999995748203
 21
-317.2588879504792
 31
0.0
  0
LINE
  5
2927
330
2E77
100
AcDbEntity
  8
0
 62
     0
100
AcDbLine
 10
110.7560998156441
 20
-105.0000000000018
 30
0.0
 11
340.6999995748209
 21
-214.4970373800943
 31
0.0
  0
LINE
  5
2928
330
2E77
100
AcDbEntity
  8
0
 62
     0
100
AcDbLine
 10
340.6999995748247
 20
-204.4970856359605
 30
0.0
 11
538.7362241737736
 21
-298.800000000002
 31
0.0
  0
LINE
  5
2929
330
2E77
100
AcDbEntity
  8
0
 62
     0
100
AcDbLine
 10
538.7362241737774
 20
-298.8000000000038
 30
0.0
 11
556.4999995748239
 21
-307.2589362063445
 31
0.0
  0
LINE
  5
292A
330
2E77
100
AcDbEntity
  8
0
 62
     0
100
AcDbLine
 10
131.7560095526387
 20
-105.0000000000009
 30
0.0
 11
340.6999995748247
 21
-204.4970856359596
 31
0.0
  0
LINE
  5
292B
330
2E77
100
AcDbEntity
  8
0
 62
     0
100
AcDbLine
 10
340.6999995748247
 20
-194.4971338918276
 30
0.0
 11
556.499999574822
 21
-297.2589844622116
 31
0.0
  0
LINE
  5
292C
330
2E77
100
AcDbEntity
  8
0
 62
     0
100
AcDbLine
 10
152.7559192896278
 20
-105.0000000000027
 30
0.0
 11
340.6999995748229
 21
-194.4971338918267
 31
0.0
  0
LINE
  5
292D
330
2E77
100
AcDbEntity
  8
0
 62
     0
100
AcDbLine
 10
340.6999995748247
 20
-184.4971821476929
 30
0.0
 11
556.4999995748239
 21
-287.2590327180769
 31
0.0
  0
LINE
  5
292E
330
2E77
100
AcDbEntity
  8
0
 62
     0
100
AcDbLine
 10
173.7558290266206
 20
-105.0000000000027
 30
0.0
 11
340.6999995748229
 21
-184.497182147692
 31
0.0
  0
LINE
  5
292F
330
2E77
100
AcDbEntity
  8
0
 62
     0
100
AcDbLine
 10
340.6999995748265
 20
-174.4972304035582
 30
0.0
 11
556.4999995748239
 21
-277.2590809739423
 31
0.0
  0
LINE
  5
2930
330
2E77
100
AcDbEntity
  8
0
 62
     0
100
AcDbLine
 10
194.7557387636097
 20
-105.0000000000018
 30
0.0
 11
340.6999995748247
 21
-174.4972304035573
 31
0.0
  0
LINE
  5
2931
330
2E77
100
AcDbEntity
  8
0
 62
     0
100
AcDbLine
 10
340.6999995748247
 20
-164.4972786594235
 30
0.0
 11
556.499999574822
 21
-267.2591292298076
 31
0.0
  0
LINE
  5
2932
330
2E77
100
AcDbEntity
  8
0
 62
     0
100
AcDbLine
 10
215.7556485006007
 20
-105.0000000000018
 30
0.0
 11
340.6999995748229
 21
-164.4972786594226
 31
0.0
  0
LINE
  5
2933
330
2E77
100
AcDbEntity
  8
0
 62
     0
100
AcDbLine
 10
340.6999995748247
 20
-154.4973269152888
 30
0.0
 11
556.499999574822
 21
-257.2591774856719
 31
0.0
  0
LINE
  5
2934
330
2E77
100
AcDbEntity
  8
0
 62
     0
100
AcDbLine
 10
236.7555582375917
 20
-105.0000000000018
 30
0.0
 11
340.6999995748247
 21
-154.4973269152879
 31
0.0
  0
LINE
  5
2935
330
2E77
100
AcDbEntity
  8
0
 62
     0
100
AcDbLine
 10
340.6999995748265
 20
-144.4973751711559
 30
0.0
 11
556.4999995748239
 21
-247.2592257415399
 31
0.0
  0
LINE
  5
2936
330
2E77
100
AcDbEntity
  8
0
 62
     0
100
AcDbLine
 10
257.7554679745825
 20
-105.0000000000027
 30
0.0
 11
340.6999995748229
 21
-144.4973751711541
 31
0.0
  0
LINE
  5
2937
330
2E77
100
AcDbEntity
  8
0
 62
     0
100
AcDbLine
 10
340.6999995748229
 20
-134.4974234270203
 30
0.0
 11
556.499999574822
 21
-237.2592739974043
 31
0.0
  0
LINE
  5
2938
330
2E77
100
AcDbEntity
  8
0
 62
     0
100
AcDbLine
 10
278.7553777115717
 20
-105.0000000000027
 30
0.0
 11
340.6999995748209
 21
-134.4974234270194
 31
0.0
  0
LINE
  5
2939
330
2E77
100
AcDbEntity
  8
0
 62
     0
100
AcDbLine
 10
340.6999995748247
 20
-124.4974716828856
 30
0.0
 11
556.499999574822
 21
-227.2593222532696
 31
0.0
  0
LINE
  5
293A
330
2E77
100
AcDbEntity
  8
0
 62
     0
100
AcDbLine
 10
299.7552874485628
 20
-105.0000000000027
 30
0.0
 11
340.6999995748229
 21
-124.4974716828846
 31
0.0
  0
LINE
  5
293B
330
2E77
100
AcDbEntity
  8
0
 62
     0
100
AcDbLine
 10
340.6999995748247
 20
-114.4975199387509
 30
0.0
 11
556.499999574822
 21
-217.2593705091349
 31
0.0
  0
LINE
  5
293C
330
2E77
100
AcDbEntity
  8
0
 62
     0
100
AcDbLine
 10
320.7551971855537
 20
-105.0000000000018
 30
0.0
 11
340.6999995748229
 21
-114.4975199387499
 31
0.0
  0
LINE
  5
293D
330
2E77
100
AcDbEntity
  8
0
 62
     0
100
AcDbLine
 10
341.7551069225465
 20
-105.0000000000027
 30
0.0
 11
556.499999574822
 21
-207.2594187650002
 31
0.0
  0
LINE
  5
293E
330
2E77
100
AcDbEntity
  8
0
 62
     0
100
AcDbLine
 10
362.7550166595392
 20
-105.0000000000027
 30
0.0
 11
556.499999574822
 21
-197.2594670208655
 31
0.0
  0
LINE
  5
293F
330
2E77
100
AcDbEntity
  8
0
 62
     0
100
AcDbLine
 10
383.7549263965284
 20
-105.0000000000036
 30
0.0
 11
556.4999995748239
 21
-187.2595152767326
 31
0.0
  0
LINE
  5
2940
330
2E77
100
AcDbEntity
  8
0
 62
     0
100
AcDbLine
 10
404.7548361335192
 20
-105.0000000000036
 30
0.0
 11
556.499999574822
 21
-177.2595635325979
 31
0.0
  0
LINE
  5
2941
330
2E77
100
AcDbEntity
  8
0
 62
     0
100
AcDbLine
 10
425.7547458705118
 20
-105.0000000000036
 30
0.0
 11
556.499999574822
 21
-167.2596117884623
 31
0.0
  0
LINE
  5
2942
330
2E77
100
AcDbEntity
  8
0
 62
     0
100
AcDbLine
 10
446.7546556075012
 20
-105.0000000000027
 30
0.0
 11
556.4999995748239
 21
-157.2596600443285
 31
0.0
  0
LINE
  5
2943
330
2E77
100
AcDbEntity
  8
0
 62
     0
100
AcDbLine
 10
467.7545653444902
 20
-105.0000000000027
 30
0.0
 11
556.4999995748203
 21
-147.2597083001929
 31
0.0
  0
LINE
  5
2944
330
2E77
100
AcDbEntity
  8
0
 62
     0
100
AcDbLine
 10
488.7544750814831
 20
-105.0000000000045
 30
0.0
 11
556.4999995748239
 21
-137.2597565560599
 31
0.0
  0
LINE
  5
2945
330
2E77
100
AcDbEntity
  8
0
 62
     0
100
AcDbLine
 10
509.754384818474
 20
-105.0000000000045
 30
0.0
 11
556.499999574822
 21
-127.2598048119252
 31
0.0
  0
LINE
  5
2946
330
2E77
100
AcDbEntity
  8
0
 62
     0
100
AcDbLine
 10
530.7542945554651
 20
-105.0000000000045
 30
0.0
 11
556.499999574822
 21
-117.2598530677905
 31
0.0
  0
LINE
  5
2947
330
2E77
100
AcDbEntity
  8
0
 62
     0
100
AcDbLine
 10
551.754204292456
 20
-105.0000000000036
 30
0.0
 11
556.4999995748239
 21
-107.2599013236567
 31
0.0
  0
ENDBLK
  5
2948
330
2E77
100
AcDbEntity
  8
0
100
AcDbBlockEnd
  0
BLOCK
  5
2E7A
330
2E79
100
AcDbEntity
  8
0
100
AcDbBlockBegin
  2
*X71
 70
     1
 10
0.0
 20
0.0
 30
0.0
  3
*X71
  1

  0
LINE
  5
294B
330
2E79
100
AcDbEntity
  8
0
 62
     0
100
AcDbLine
 10
548.7710956414519
 20
-1035.0
 30
0.0
 11
556.4999995748292
 21
-1031.31957149641
 31
0.0
  0
LINE
  5
294C
330
2E79
100
AcDbEntity
  8
0
 62
     0
100
AcDbLine
 10
527.771185904461
 20
-1034.999999999999
 30
0.0
 11
556.4999995748292
 21
-1021.319619752275
 31
0.0
  0
LINE
  5
294D
330
2E79
100
AcDbEntity
  8
0
 62
     0
100
AcDbLine
 10
506.771276167468
 20
-1035.0
 30
0.0
 11
556.4999995748276
 21
-1011.319668008142
 31
0.0
  0
LINE
  5
294E
330
2E79
100
AcDbEntity
  8
0
 62
     0
100
AcDbLine
 10
485.7713664304774
 20
-1035.0
 30
0.0
 11
556.4999995748292
 21
-1001.319716264006
 31
0.0
  0
LINE
  5
294F
330
2E79
100
AcDbEntity
  8
0
 62
     0
100
AcDbLine
 10
464.7714566934864
 20
-1035.0
 30
0.0
 11
556.4999995748292
 21
-991.3197645198717
 31
0.0
  0
LINE
  5
2950
330
2E79
100
AcDbEntity
  8
0
 62
     0
100
AcDbLine
 10
443.7715469564955
 20
-1035.000000000001
 30
0.0
 11
556.4999995748292
 21
-981.3198127757376
 31
0.0
  0
LINE
  5
2951
330
2E79
100
AcDbEntity
  8
0
 62
     0
100
AcDbLine
 10
422.7716372195064
 20
-1034.999999999999
 30
0.0
 11
556.4999995748276
 21
-971.3198610316029
 31
0.0
  0
LINE
  5
2952
330
2E79
100
AcDbEntity
  8
0
 62
     0
100
AcDbLine
 10
401.7717274825169
 20
-1035.0
 30
0.0
 11
556.4999995748292
 21
-961.3199092874692
 31
0.0
  0
LINE
  5
2953
330
2E79
100
AcDbEntity
  8
0
 62
     0
100
AcDbLine
 10
380.7718177455263
 20
-1035.0
 30
0.0
 11
556.4999995748292
 21
-951.3199575433343
 31
0.0
  0
LINE
  5
2954
330
2E79
100
AcDbEntity
  8
0
 62
     0
100
AcDbLine
 10
359.7719080085335
 20
-1035.0
 30
0.0
 11
556.4999995748276
 21
-941.3200057991996
 31
0.0
  0
LINE
  5
2955
330
2E79
100
AcDbEntity
  8
0
 62
     0
100
AcDbLine
 10
338.7719982715426
 20
-1035.000000000001
 30
0.0
 11
556.4999995748292
 21
-931.320054055066
 31
0.0
  0
LINE
  5
2956
330
2E79
100
AcDbEntity
  8
0
 62
     0
100
AcDbLine
 10
317.7720885345516
 20
-1035.000000000001
 30
0.0
 11
556.4999995748292
 21
-921.3201023109313
 31
0.0
  0
LINE
  5
2957
330
2E79
100
AcDbEntity
  8
0
 62
     0
100
AcDbLine
 10
296.7721787975606
 20
-1035.000000000001
 30
0.0
 11
556.4999995748292
 21
-911.3201505667975
 31
0.0
  0
LINE
  5
2958
330
2E79
100
AcDbEntity
  8
0
 62
     0
100
AcDbLine
 10
275.7722690605715
 20
-1035.0
 30
0.0
 11
556.4999995748292
 21
-901.3201988226628
 31
0.0
  0
LINE
  5
2959
330
2E79
100
AcDbEntity
  8
0
 62
     0
100
AcDbLine
 10
254.7723593235823
 20
-1034.999999999999
 30
0.0
 11
556.4999995748292
 21
-891.3202470785281
 31
0.0
  0
LINE
  5
295A
330
2E79
100
AcDbEntity
  8
0
 62
     0
100
AcDbLine
 10
233.7724495865896
 20
-1035.0
 30
0.0
 11
556.4999995748292
 21
-881.3202953343942
 31
0.0
  0
LINE
  5
295B
330
2E79
100
AcDbEntity
  8
0
 62
     0
100
AcDbLine
 10
212.7725398495986
 20
-1035.0
 30
0.0
 11
556.4999995748276
 21
-871.3203435902595
 31
0.0
  0
LINE
  5
295C
330
2E79
100
AcDbEntity
  8
0
 62
     0
100
AcDbLine
 10
191.7726301126076
 20
-1035.0
 30
0.0
 11
556.4999995748292
 21
-861.3203918461238
 31
0.0
  0
LINE
  5
295D
330
2E79
100
AcDbEntity
  8
0
 62
     0
100
AcDbLine
 10
170.7727203756167
 20
-1035.000000000001
 30
0.0
 11
556.4999995748292
 21
-851.3204401019908
 31
0.0
  0
LINE
  5
295E
330
2E79
100
AcDbEntity
  8
0
 62
     0
100
AcDbLine
 10
149.7728106386294
 20
-1034.999999999999
 30
0.0
 11
556.4999995748292
 21
-841.3204883578554
 31
0.0
  0
LINE
  5
295F
330
2E79
100
AcDbEntity
  8
0
 62
     0
100
AcDbLine
 10
128.7729009016366
 20
-1034.999999999999
 30
0.0
 11
556.4999995748292
 21
-831.3205366137205
 31
0.0
  0
LINE
  5
2960
330
2E79
100
AcDbEntity
  8
0
 62
     0
100
AcDbLine
 10
107.7729911646474
 20
-1035.0
 30
0.0
 11
556.4999995748292
 21
-821.3205848695869
 31
0.0
  0
LINE
  5
2961
330
2E79
100
AcDbEntity
  8
0
 62
     0
100
AcDbLine
 10
86.77308142765467
 20
-1035.0
 30
0.0
 11
556.4999995748292
 21
-811.3206331254525
 31
0.0
  0
LINE
  5
2962
330
2E79
100
AcDbEntity
  8
0
 62
     0
100
AcDbLine
 10
65.77317169066373
 20
-1035.000000000001
 30
0.0
 11
556.4999995748292
 21
-801.3206813813186
 31
0.0
  0
LINE
  5
2963
330
2E79
100
AcDbEntity
  8
0
 62
     0
100
AcDbLine
 10
44.77326195367459
 20
-1035.000000000001
 30
0.0
 11
556.4999995748292
 21
-791.3207296371838
 31
0.0
  0
LINE
  5
2964
330
2E79
100
AcDbEntity
  8
0
 62
     0
100
AcDbLine
 10
23.77335221668182
 20
-1035.0
 30
0.0
 11
556.4999995748292
 21
-781.3207778930491
 31
0.0
  0
LINE
  5
2965
330
2E79
100
AcDbEntity
  8
0
 62
     0
100
AcDbLine
 10
2.773442479694494
 20
-1035.0
 30
0.0
 11
556.4999995748276
 21
-771.3208261489154
 31
0.0
  0
LINE
  5
2966
330
2E79
100
AcDbEntity
  8
0
 62
     0
100
AcDbLine
 10
-18.2264672573001
 20
-1035.0
 30
0.0
 11
556.4999995748276
 21
-761.3208744047806
 31
0.0
  0
LINE
  5
2967
330
2E79
100
AcDbEntity
  8
0
 62
     0
100
AcDbLine
 10
-39.22637699428924
 20
-1035.000000000001
 30
0.0
 11
556.4999995748292
 21
-751.3209226606459
 31
0.0
  0
LINE
  5
2968
330
2E79
100
AcDbEntity
  8
0
 62
     0
100
AcDbLine
 10
-60.22628673128203
 20
-1035.000000000001
 30
0.0
 11
556.4999995748292
 21
-741.3209709165112
 31
0.0
  0
LINE
  5
2969
330
2E79
100
AcDbEntity
  8
0
 62
     0
100
AcDbLine
 10
-81.22619646827299
 20
-1035.000000000001
 30
0.0
 11
556.4999995748292
 21
-731.3210191723774
 31
0.0
  0
LINE
  5
296A
330
2E79
100
AcDbEntity
  8
0
 62
     0
100
AcDbLine
 10
-102.2261062052621
 20
-1035.000000000002
 30
0.0
 11
556.4999995748292
 21
-721.3210674282435
 31
0.0
  0
LINE
  5
296B
330
2E79
100
AcDbEntity
  8
0
 62
     0
100
AcDbLine
 10
-123.2260159422512
 20
-1035.0
 30
0.0
 11
556.4999995748292
 21
-711.3211156841089
 31
0.0
  0
LINE
  5
296C
330
2E79
100
AcDbEntity
  8
0
 62
     0
100
AcDbLine
 10
-144.225925679244
 20
-1035.0
 30
0.0
 11
556.4999995748276
 21
-701.3211639399742
 31
0.0
  0
LINE
  5
296D
330
2E79
100
AcDbEntity
  8
0
 62
     0
100
AcDbLine
 10
-165.2258354162331
 20
-1035.0
 30
0.0
 11
556.4999995748276
 21
-691.3212121958403
 31
0.0
  0
LINE
  5
296E
330
2E79
100
AcDbEntity
  8
0
 62
     0
100
AcDbLine
 10
-186.2257451532223
 20
-1035.0
 30
0.0
 11
556.4999995748292
 21
-681.3212604517056
 31
0.0
  0
LINE
  5
296F
330
2E79
100
AcDbEntity
  8
0
 62
     0
100
AcDbLine
 10
-207.2256548902151
 20
-1035.000000000001
 30
0.0
 11
556.4999995748276
 21
-671.3213087075719
 31
0.0
  0
LINE
  5
2970
330
2E79
100
AcDbEntity
  8
0
 62
     0
100
AcDbLine
 10
-228.225564627206
 20
-1035.000000000001
 30
0.0
 11
556.4999995748292
 21
-661.3213569634361
 31
0.0
  0
LINE
  5
2971
330
2E79
100
AcDbEntity
  8
0
 62
     0
100
AcDbLine
 10
-249.225474364197
 20
-1035.000000000001
 30
0.0
 11
556.4999995748292
 21
-651.3214052193013
 31
0.0
  0
LINE
  5
2972
330
2E79
100
AcDbEntity
  8
0
 62
     0
100
AcDbLine
 10
-270.2253841011879
 20
-1035.000000000001
 30
0.0
 11
556.4999995748292
 21
-641.3214534751678
 31
0.0
  0
LINE
  5
2973
330
2E79
100
AcDbEntity
  8
0
 62
     0
100
AcDbLine
 10
-291.2252938381771
 20
-1035.0
 30
0.0
 11
556.4999995748292
 21
-631.3215017310327
 31
0.0
  0
LINE
  5
2974
330
2E79
100
AcDbEntity
  8
0
 62
     0
100
AcDbLine
 10
-312.2252035751681
 20
-1034.999999999999
 30
0.0
 11
556.4999995748276
 21
-621.3215499868984
 31
0.0
  0
LINE
  5
2975
330
2E79
100
AcDbEntity
  8
0
 62
     0
100
AcDbLine
 10
-333.225113312159
 20
-1035.0
 30
0.0
 11
556.4999995748292
 21
-611.3215982427645
 31
0.0
  0
LINE
  5
2976
330
2E79
100
AcDbEntity
  8
0
 62
     0
100
AcDbLine
 10
-354.22502304915
 20
-1035.0
 30
0.0
 11
556.4999995748276
 21
-601.3216464986299
 31
0.0
  0
LINE
  5
2977
330
2E79
100
AcDbEntity
  8
0
 62
     0
100
AcDbLine
 10
-375.2249327861409
 20
-1035.000000000001
 30
0.0
 11
556.4999995748276
 21
-591.321694754496
 31
0.0
  0
LINE
  5
2978
330
2E79
100
AcDbEntity
  8
0
 62
     0
100
AcDbLine
 10
-396.224842523132
 20
-1035.000000000001
 30
0.0
 11
556.4999995748292
 21
-581.3217430103613
 31
0.0
  0
LINE
  5
2979
330
2E79
100
AcDbEntity
  8
0
 62
     0
100
AcDbLine
 10
-417.2247522601228
 20
-1035.000000000001
 30
0.0
 11
556.4999995748292
 21
-571.3217912662257
 31
0.0
  0
LINE
  5
297A
330
2E79
100
AcDbEntity
  8
0
 62
     0
100
AcDbLine
 10
-438.2246619971156
 20
-1035.000000000002
 30
0.0
 11
556.4999995748292
 21
-561.3218395220918
 31
0.0
  0
LINE
  5
297B
330
2E79
100
AcDbEntity
  8
0
 62
     0
100
AcDbLine
 10
-459.2245717341011
 20
-1035.0
 30
0.0
 11
556.4999995748292
 21
-551.3218877779568
 31
0.0
  0
LINE
  5
297C
330
2E79
100
AcDbEntity
  8
0
 62
     0
100
AcDbLine
 10
-480.2244814710936
 20
-1035.0
 30
0.0
 11
556.4999995748292
 21
-541.3219360338224
 31
0.0
  0
LINE
  5
297D
330
2E79
100
AcDbEntity
  8
0
 62
     0
100
AcDbLine
 10
-501.2243912080847
 20
-1035.000000000001
 30
0.0
 11
556.4999995748292
 21
-531.3219842896887
 31
0.0
  0
LINE
  5
297E
330
2E79
100
AcDbEntity
  8
0
 62
     0
100
AcDbLine
 10
-522.2243009450776
 20
-1035.000000000001
 30
0.0
 11
556.4999995748276
 21
-521.3220325455539
 31
0.0
  0
LINE
  5
297F
330
2E79
100
AcDbEntity
  8
0
 62
     0
100
AcDbLine
 10
-543.2242106820666
 20
-1035.000000000001
 30
0.0
 11
556.4999995748292
 21
-511.3220808014203
 31
0.0
  0
LINE
  5
2980
330
2E79
100
AcDbEntity
  8
0
 62
     0
100
AcDbLine
 10
-556.4999623299335
 20
-1031.321831421054
 30
0.0
 11
556.4999995748258
 21
-501.3221290572865
 31
0.0
  0
LINE
  5
2981
330
2E79
100
AcDbEntity
  8
0
 62
     0
100
AcDbLine
 10
-556.4999623299318
 20
-1021.321879676919
 30
0.0
 11
556.4999995748276
 21
-491.3221773131509
 31
0.0
  0
LINE
  5
2982
330
2E79
100
AcDbEntity
  8
0
 62
     0
100
AcDbLine
 10
-556.4999623299318
 20
-1011.321927932786
 30
0.0
 11
556.4999995748292
 21
-481.3222255690178
 31
0.0
  0
LINE
  5
2983
330
2E79
100
AcDbEntity
  8
0
 62
     0
100
AcDbLine
 10
-556.4999623299318
 20
-1001.32197618865
 30
0.0
 11
556.4999995748276
 21
-471.322273824883
 31
0.0
  0
LINE
  5
2984
330
2E79
100
AcDbEntity
  8
0
 62
     0
100
AcDbLine
 10
-556.4999623299296
 20
-991.3220244445144
 30
0.0
 11
556.4999995748276
 21
-461.3223220807482
 31
0.0
  0
LINE
  5
2985
330
2E79
100
AcDbEntity
  8
0
 62
     0
100
AcDbLine
 10
-556.4999623299335
 20
-981.3220727003818
 30
0.0
 11
556.4999995748258
 21
-451.3223703366147
 31
0.0
  0
LINE
  5
2986
330
2E79
100
AcDbEntity
  8
0
 62
     0
100
AcDbLine
 10
-556.4999623299335
 20
-971.322120956248
 30
0.0
 11
556.4999995748276
 21
-441.32241859248
 31
0.0
  0
LINE
  5
2987
330
2E79
100
AcDbEntity
  8
0
 62
     0
100
AcDbLine
 10
-556.4999623299335
 20
-961.3221692121134
 30
0.0
 11
556.4999995748276
 21
-431.3224668483463
 31
0.0
  0
LINE
  5
2988
330
2E79
100
AcDbEntity
  8
0
 62
     0
100
AcDbLine
 10
-556.4999623299318
 20
-951.3222174679775
 30
0.0
 11
556.4999995748258
 21
-421.3225151042115
 31
0.0
  0
LINE
  5
2989
330
2E79
100
AcDbEntity
  8
0
 62
     0
100
AcDbLine
 10
-556.4999623299318
 20
-941.3222657238435
 30
0.0
 11
556.4999995748276
 21
-411.3225633600768
 31
0.0
  0
LINE
  5
298A
330
2E79
100
AcDbEntity
  8
0
 62
     0
100
AcDbLine
 10
-556.4999623299318
 20
-931.32231397971
 30
0.0
 11
556.4999995748276
 21
-401.3226116159421
 31
0.0
  0
LINE
  5
298B
330
2E79
100
AcDbEntity
  8
0
 62
     0
100
AcDbLine
 10
-556.4999623299335
 20
-921.3223622355753
 30
0.0
 11
556.4999995748276
 21
-391.3226598718074
 31
0.0
  0
LINE
  5
298C
330
2E79
100
AcDbEntity
  8
0
 62
     0
100
AcDbLine
 10
-556.4999623299335
 20
-911.3224104914404
 30
0.0
 11
556.4999995748276
 21
-381.3227081276727
 31
0.0
  0
LINE
  5
298D
330
2E79
100
AcDbEntity
  8
0
 62
     0
100
AcDbLine
 10
-556.4999623299335
 20
-901.3224587473068
 30
0.0
 11
556.4999995748276
 21
-371.3227563835389
 31
0.0
  0
LINE
  5
298E
330
2E79
100
AcDbEntity
  8
0
 62
     0
100
AcDbLine
 10
-556.4999623299318
 20
-891.3225070031717
 30
0.0
 11
556.4999995748276
 21
-361.3228046394042
 31
0.0
  0
LINE
  5
298F
330
2E79
100
AcDbEntity
  8
0
 62
     0
100
AcDbLine
 10
-556.4999623299351
 20
-881.3225552590393
 30
0.0
 11
556.4999995748258
 21
-351.3228528952704
 31
0.0
  0
LINE
  5
2990
330
2E79
100
AcDbEntity
  8
0
 62
     0
100
AcDbLine
 10
-556.4999623299318
 20
-871.3226035149036
 30
0.0
 11
556.4999995748276
 21
-341.3229011511357
 31
0.0
  0
LINE
  5
2991
330
2E79
100
AcDbEntity
  8
0
 62
     0
100
AcDbLine
 10
-556.4999623299318
 20
-861.3226517707678
 30
0.0
 11
556.4999995748276
 21
-331.3229494070001
 31
0.0
  0
LINE
  5
2992
330
2E79
100
AcDbEntity
  8
0
 62
     0
100
AcDbLine
 10
-556.4999623299335
 20
-851.3227000266349
 30
0.0
 11
556.4999995748258
 21
-321.3229976628672
 31
0.0
  0
LINE
  5
2993
330
2E79
100
AcDbEntity
  8
0
 62
     0
100
AcDbLine
 10
-556.4999623299296
 20
-841.3227482824993
 30
0.0
 11
556.4999995748292
 21
-311.3230459187316
 31
0.0
  0
LINE
  5
2994
330
2E79
100
AcDbEntity
  8
0
 62
     0
100
AcDbLine
 10
-556.4999623299335
 20
-831.3227965383656
 30
0.0
 11
556.4999995748276
 21
-301.3230941745969
 31
0.0
  0
LINE
  5
2995
330
2E79
100
AcDbEntity
  8
0
 62
     0
100
AcDbLine
 10
540.7985903986554
 20
-298.8000000000011
 30
0.0
 11
556.4999995748276
 21
-291.3231424304631
 31
0.0
  0
LINE
  5
2996
330
2E79
100
AcDbEntity
  8
0
 62
     0
100
AcDbLine
 10
-556.4999623299318
 20
-821.3228447942308
 30
0.0
 11
540.7985903986554
 21
-298.800000000002
 31
0.0
  0
LINE
  5
2997
330
2E79
100
AcDbEntity
  8
0
 62
     0
100
AcDbLine
 10
519.7986806616645
 20
-298.8000000000011
 30
0.0
 11
556.4999995748258
 21
-281.3231906863284
 31
0.0
  0
LINE
  5
2998
330
2E79
100
AcDbEntity
  8
0
 62
     0
100
AcDbLine
 10
-556.4999623299351
 20
-811.3228930500971
 30
0.0
 11
519.7986806616645
 21
-298.8000000000011
 31
0.0
  0
LINE
  5
2999
330
2E79
100
AcDbEntity
  8
0
 62
     0
100
AcDbLine
 10
498.7987709246772
 20
-298.8000000000002
 30
0.0
 11
556.4999995748276
 21
-271.3232389421946
 31
0.0
  0
LINE
  5
299A
330
2E79
100
AcDbEntity
  8
0
 62
     0
100
AcDbLine
 10
-556.4999623299318
 20
-801.3229413059626
 30
0.0
 11
498.7987709246753
 21
-298.8000000000011
 31
0.0
  0
LINE
  5
299B
330
2E79
100
AcDbEntity
  8
0
 62
     0
100
AcDbLine
 10
477.7988611876862
 20
-298.8000000000002
 30
0.0
 11
556.4999995748276
 21
-261.3232871980599
 31
0.0
  0
LINE
  5
299C
330
2E79
100
AcDbEntity
  8
0
 62
     0
100
AcDbLine
 10
-556.4999623299335
 20
-791.3229895618286
 30
0.0
 11
477.7988611876842
 21
-298.8000000000002
 31
0.0
  0
LINE
  5
299D
330
2E79
100
AcDbEntity
  8
0
 62
     0
100
AcDbLine
 10
456.7989514506952
 20
-298.7999999999992
 30
0.0
 11
556.4999995748258
 21
-251.3233354539252
 31
0.0
  0
LINE
  5
299E
330
2E79
100
AcDbEntity
  8
0
 62
     0
100
AcDbLine
 10
-556.4999623299335
 20
-781.3230378176931
 30
0.0
 11
456.7989514506932
 21
-298.8000000000002
 31
0.0
  0
LINE
  5
299F
330
2E79
100
AcDbEntity
  8
0
 62
     0
100
AcDbLine
 10
435.799041713706
 20
-298.8000000000002
 30
0.0
 11
556.4999995748276
 21
-241.3233837097914
 31
0.0
  0
LINE
  5
29A0
330
2E79
100
AcDbEntity
  8
0
 62
     0
100
AcDbLine
 10
-556.4999623299296
 20
-771.3230860735582
 30
0.0
 11
435.7990417137023
 21
-298.8000000000011
 31
0.0
  0
LINE
  5
29A1
330
2E79
100
AcDbEntity
  8
0
 62
     0
100
AcDbLine
 10
414.7991319767148
 20
-298.7999999999992
 30
0.0
 11
556.4999995748276
 21
-231.3234319656576
 31
0.0
  0
LINE
  5
29A2
330
2E79
100
AcDbEntity
  8
0
 62
     0
100
AcDbLine
 10
-556.4999623299335
 20
-761.3231343294246
 30
0.0
 11
414.7991319767132
 21
-298.8000000000002
 31
0.0
  0
LINE
  5
29A3
330
2E79
100
AcDbEntity
  8
0
 62
     0
100
AcDbLine
 10
393.7992222397244
 20
-298.7999999999992
 30
0.0
 11
556.4999995748276
 21
-221.3234802215229
 31
0.0
  0
LINE
  5
29A4
330
2E79
100
AcDbEntity
  8
0
 62
     0
100
AcDbLine
 10
-556.4999623299318
 20
-751.3231825852899
 30
0.0
 11
393.7992222397206
 21
-298.8000000000011
 31
0.0
  0
LINE
  5
29A5
330
2E79
100
AcDbEntity
  8
0
 62
     0
100
AcDbLine
 10
372.7993125027351
 20
-298.7999999999983
 30
0.0
 11
556.4999995748258
 21
-211.3235284773891
 31
0.0
  0
LINE
  5
29A6
330
2E79
100
AcDbEntity
  8
0
 62
     0
100
AcDbLine
 10
-556.4999623299335
 20
-741.3232308411561
 30
0.0
 11
372.7993125027314
 21
-298.8000000000002
 31
0.0
  0
LINE
  5
29A7
330
2E79
100
AcDbEntity
  8
0
 62
     0
100
AcDbLine
 10
351.7994027657441
 20
-298.7999999999983
 30
0.0
 11
556.4999995748276
 21
-201.3235767332535
 31
0.0
  0
LINE
  5
29A8
330
2E79
100
AcDbEntity
  8
0
 62
     0
100
AcDbLine
 10
-556.4999623299318
 20
-731.3232790970205
 30
0.0
 11
351.7994027657423
 21
-298.7999999999992
 31
0.0
  0
LINE
  5
29A9
330
2E79
100
AcDbEntity
  8
0
 62
     0
100
AcDbLine
 10
340.699999574832
 20
-294.0854755595028
 30
0.0
 11
556.4999995748276
 21
-191.3236249891197
 31
0.0
  0
LINE
  5
29AA
330
2E79
100
AcDbEntity
  8
0
 62
     0
100
AcDbLine
 10
-556.4999623299335
 20
-721.3233273528875
 30
0.0
 11
340.6999995748284
 21
-294.0854755595046
 31
0.0
  0
LINE
  5
29AB
330
2E79
100
AcDbEntity
  8
0
 62
     0
100
AcDbLine
 10
340.6999995748301
 20
-284.0855238153681
 30
0.0
 11
556.4999995748258
 21
-181.323673244985
 31
0.0
  0
LINE
  5
29AC
330
2E79
100
AcDbEntity
  8
0
 62
     0
100
AcDbLine
 10
-556.4999623299335
 20
-711.323375608752
 30
0.0
 11
340.6999995748284
 21
-284.0855238153691
 31
0.0
  0
LINE
  5
29AD
330
2E79
100
AcDbEntity
  8
0
 62
     0
100
AcDbLine
 10
340.699999574832
 20
-274.0855720712334
 30
0.0
 11
556.4999995748276
 21
-171.3237215008503
 31
0.0
  0
LINE
  5
29AE
330
2E79
100
AcDbEntity
  8
0
 62
     0
100
AcDbLine
 10
-556.4999623299335
 20
-701.3234238646182
 30
0.0
 11
340.6999995748301
 21
-274.0855720712343
 31
0.0
  0
LINE
  5
29AF
330
2E79
100
AcDbEntity
  8
0
 62
     0
100
AcDbLine
 10
340.699999574832
 20
-264.0856203270987
 30
0.0
 11
556.4999995748276
 21
-161.3237697567165
 31
0.0
  0
LINE
  5
29B0
330
2E79
100
AcDbEntity
  8
0
 62
     0
100
AcDbLine
 10
-556.4999623299318
 20
-691.3234721204835
 30
0.0
 11
340.6999995748284
 21
-264.0856203271005
 31
0.0
  0
LINE
  5
29B1
330
2E79
100
AcDbEntity
  8
0
 62
     0
100
AcDbLine
 10
340.6999995748301
 20
-254.0856685829649
 30
0.0
 11
556.4999995748258
 21
-151.3238180125818
 31
0.0
  0
LINE
  5
29B2
330
2E79
100
AcDbEntity
  8
0
 62
     0
100
AcDbLine
 10
-556.4999623299318
 20
-681.3235203763487
 30
0.0
 11
340.6999995748284
 21
-254.0856685829658
 31
0.0
  0
LINE
  5
29B3
330
2E79
100
AcDbEntity
  8
0
 62
     0
100
AcDbLine
 10
340.699999574832
 20
-244.0857168388301
 30
0.0
 11
556.4999995748276
 21
-141.323866268448
 31
0.0
  0
LINE
  5
29B4
330
2E79
100
AcDbEntity
  8
0
 62
     0
100
AcDbLine
 10
-556.4999623299318
 20
-671.3235686322161
 30
0.0
 11
340.6999995748301
 21
-244.085716838832
 31
0.0
  0
LINE
  5
29B5
330
2E79
100
AcDbEntity
  8
0
 62
     0
100
AcDbLine
 10
340.6999995748301
 20
-234.0857650946964
 30
0.0
 11
556.4999995748276
 21
-131.3239145243124
 31
0.0
  0
LINE
  5
29B6
330
2E79
100
AcDbEntity
  8
0
 62
     0
100
AcDbLine
 10
-556.4999623299318
 20
-661.3236168880803
 30
0.0
 11
340.6999995748301
 21
-234.0857650946964
 31
0.0
  0
LINE
  5
29B7
330
2E79
100
AcDbEntity
  8
0
 62
     0
100
AcDbLine
 10
340.6999995748301
 20
-224.0858133505617
 30
0.0
 11
556.4999995748276
 21
-121.3239627801776
 31
0.0
  0
LINE
  5
29B8
330
2E79
100
AcDbEntity
  8
0
 62
     0
100
AcDbLine
 10
-556.4999623299335
 20
-651.3236651439465
 30
0.0
 11
340.6999995748284
 21
-224.0858133505626
 31
0.0
  0
LINE
  5
29B9
330
2E79
100
AcDbEntity
  8
0
 62
     0
100
AcDbLine
 10
340.6999995748284
 20
-214.0858616064279
 30
0.0
 11
556.4999995748276
 21
-111.3240110360439
 31
0.0
  0
LINE
  5
29BA
330
2E79
100
AcDbEntity
  8
0
 62
     0
100
AcDbLine
 10
-556.4999623299335
 20
-641.3237133998118
 30
0.0
 11
340.6999995748284
 21
-214.0858616064279
 31
0.0
  0
LINE
  5
29BB
330
2E79
100
AcDbEntity
  8
0
 62
     0
100
AcDbLine
 10
340.6999995748301
 20
-204.0859098622932
 30
0.0
 11
548.7805200169677
 21
-105.0
 31
0.0
  0
LINE
  5
29BC
330
2E79
100
AcDbEntity
  8
0
 62
     0
100
AcDbLine
 10
-556.4999623299335
 20
-631.323761655678
 30
0.0
 11
340.6999995748301
 21
-204.0859098622932
 31
0.0
  0
LINE
  5
29BD
330
2E79
100
AcDbEntity
  8
0
 62
     0
100
AcDbLine
 10
340.6999995748301
 20
-194.0859581181584
 30
0.0
 11
527.780610279975
 21
-105.0
 31
0.0
  0
LINE
  5
29BE
330
2E79
100
AcDbEntity
  8
0
 62
     0
100
AcDbLine
 10
-556.4999623299318
 20
-621.3238099115423
 30
0.0
 11
340.6999995748301
 21
-194.0859581181584
 31
0.0
  0
LINE
  5
29BF
330
2E79
100
AcDbEntity
  8
0
 62
     0
100
AcDbLine
 10
340.6999995748284
 20
-184.0860063740247
 30
0.0
 11
506.7807005429855
 21
-105.0
 31
0.0
  0
LINE
  5
29C0
330
2E79
100
AcDbEntity
  8
0
 62
     0
100
AcDbLine
 10
-556.4999623299351
 20
-611.3238581674095
 30
0.0
 11
340.6999995748284
 21
-184.0860063740247
 31
0.0
  0
LINE
  5
29C1
330
2E79
100
AcDbEntity
  8
0
 62
     0
100
AcDbLine
 10
340.699999574832
 20
-174.0860546298891
 30
0.0
 11
485.7807908059948
 21
-105.0
 31
0.0
  0
LINE
  5
29C2
330
2E79
100
AcDbEntity
  8
0
 62
     0
100
AcDbLine
 10
-556.4999623299318
 20
-601.3239064232736
 30
0.0
 11
340.6999995748301
 21
-174.08605462989
 31
0.0
  0
LINE
  5
29C3
330
2E79
100
AcDbEntity
  8
0
 62
     0
100
AcDbLine
 10
340.6999995748301
 20
-164.0861028857553
 30
0.0
 11
464.7808810690039
 21
-105.0000000000009
 31
0.0
  0
LINE
  5
29C4
330
2E79
100
AcDbEntity
  8
0
 62
     0
100
AcDbLine
 10
-556.4999623299318
 20
-591.3239546791392
 30
0.0
 11
340.6999995748284
 21
-164.0861028857562
 31
0.0
  0
LINE
  5
29C5
330
2E79
100
AcDbEntity
  8
0
 62
     0
100
AcDbLine
 10
340.699999574832
 20
-154.0861511416206
 30
0.0
 11
443.7809713320127
 21
-105.0000000000009
 31
0.0
  0
LINE
  5
29C6
330
2E79
100
AcDbEntity
  8
0
 62
     0
100
AcDbLine
 10
-556.4999623299335
 20
-581.3240029350055
 30
0.0
 11
340.6999995748284
 21
-154.0861511416215
 31
0.0
  0
LINE
  5
29C7
330
2E79
100
AcDbEntity
  8
0
 62
     0
100
AcDbLine
 10
340.6999995748301
 20
-144.0861993974858
 30
0.0
 11
422.7810615950202
 21
-105.0000000000009
 31
0.0
  0
LINE
  5
29C8
330
2E79
100
AcDbEntity
  8
0
 62
     0
100
AcDbLine
 10
-556.4999623299351
 20
-571.3240511908716
 30
0.0
 11
340.6999995748284
 21
-144.0861993974858
 31
0.0
  0
LINE
  5
29C9
330
2E79
100
AcDbEntity
  8
0
 62
     0
100
AcDbLine
 10
340.699999574832
 20
-134.0862476533521
 30
0.0
 11
401.7811518580328
 21
-105.0000000000009
 31
0.0
  0
LINE
  5
29CA
330
2E79
100
AcDbEntity
  8
0
 62
     0
100
AcDbLine
 10
-556.4999623299335
 20
-561.3240994467369
 30
0.0
 11
340.6999995748284
 21
-134.086247653353
 31
0.0
  0
LINE
  5
29CB
330
2E79
100
AcDbEntity
  8
0
 62
     0
100
AcDbLine
 10
340.699999574832
 20
-124.0862959092174
 30
0.0
 11
380.78124212104
 21
-105.0000000000009
 31
0.0
  0
LINE
  5
29CC
330
2E79
100
AcDbEntity
  8
0
 62
     0
100
AcDbLine
 10
-556.4999623299318
 20
-551.3241477026013
 30
0.0
 11
340.6999995748301
 21
-124.0862959092174
 31
0.0
  0
LINE
  5
29CD
330
2E79
100
AcDbEntity
  8
0
 62
     0
100
AcDbLine
 10
340.6999995748301
 20
-114.0863441650826
 30
0.0
 11
359.7813323840492
 21
-105.0
 31
0.0
  0
LINE
  5
29CE
330
2E79
100
AcDbEntity
  8
0
 62
     0
100
AcDbLine
 10
-556.4999623299351
 20
-541.3241959584675
 30
0.0
 11
340.6999995748284
 21
-114.0863441650826
 31
0.0
  0
LINE
  5
29CF
330
2E79
100
AcDbEntity
  8
0
 62
     0
100
AcDbLine
 10
-556.4999623299318
 20
-531.3242442143327
 30
0.0
 11
338.7814226470582
 21
-105.0000000000009
 31
0.0
  0
LINE
  5
29D0
330
2E79
100
AcDbEntity
  8
0
 62
     0
100
AcDbLine
 10
-556.4999623299335
 20
-521.3242924701988
 30
0.0
 11
317.7815129100692
 21
-105.0
 31
0.0
  0
LINE
  5
29D1
330
2E79
100
AcDbEntity
  8
0
 62
     0
100
AcDbLine
 10
-556.4999623299335
 20
-511.3243407260642
 30
0.0
 11
296.7816031730781
 21
-105.0000000000009
 31
0.0
  0
LINE
  5
29D2
330
2E79
100
AcDbEntity
  8
0
 62
     0
100
AcDbLine
 10
-556.4999623299318
 20
-501.3243889819285
 30
0.0
 11
275.7816934360853
 21
-105.0000000000009
 31
0.0
  0
LINE
  5
29D3
330
2E79
100
AcDbEntity
  8
0
 62
     0
100
AcDbLine
 10
-556.4999623299335
 20
-491.3244372377948
 30
0.0
 11
254.781783699098
 21
-105.0
 31
0.0
  0
LINE
  5
29D4
330
2E79
100
AcDbEntity
  8
0
 62
     0
100
AcDbLine
 10
-556.4999623299318
 20
-481.3244854936609
 30
0.0
 11
233.7818739621052
 21
-105.0000000000009
 31
0.0
  0
LINE
  5
29D5
330
2E79
100
AcDbEntity
  8
0
 62
     0
100
AcDbLine
 10
-556.4999623299335
 20
-471.3245337495264
 30
0.0
 11
212.7819642251143
 21
-105.0000000000009
 31
0.0
  0
LINE
  5
29D6
330
2E79
100
AcDbEntity
  8
0
 62
     0
100
AcDbLine
 10
-556.4999623299318
 20
-461.3245820053917
 30
0.0
 11
191.7820544881233
 21
-105.0000000000009
 31
0.0
  0
LINE
  5
29D7
330
2E79
100
AcDbEntity
  8
0
 62
     0
100
AcDbLine
 10
-556.4999623299335
 20
-451.3246302612578
 30
0.0
 11
170.7821447511341
 21
-105.0000000000009
 31
0.0
  0
LINE
  5
29D8
330
2E79
100
AcDbEntity
  8
0
 62
     0
100
AcDbLine
 10
-556.4999623299335
 20
-441.3246785171232
 30
0.0
 11
149.7822350141414
 21
-105.0000000000009
 31
0.0
  0
LINE
  5
29D9
330
2E79
100
AcDbEntity
  8
0
 62
     0
100
AcDbLine
 10
-556.4999623299335
 20
-431.3247267729899
 30
0.0
 11
128.7823252771541
 21
-105.0000000000009
 31
0.0
  0
LINE
  5
29DA
330
2E79
100
AcDbEntity
  8
0
 62
     0
100
AcDbLine
 10
-556.4999623299318
 20
-421.3247750288545
 30
0.0
 11
107.7824155401613
 21
-105.0000000000009
 31
0.0
  0
LINE
  5
29DB
330
2E79
100
AcDbEntity
  8
0
 62
     0
100
AcDbLine
 10
-556.4999623299318
 20
-411.3248232847188
 30
0.0
 11
86.78250580317032
 21
-105.0
 31
0.0
  0
LINE
  5
29DC
330
2E79
100
AcDbEntity
  8
0
 62
     0
100
AcDbLine
 10
-556.4999623299335
 20
-401.3248715405861
 30
0.0
 11
65.78259606617939
 21
-105.0000000000009
 31
0.0
  0
LINE
  5
29DD
330
2E79
100
AcDbEntity
  8
0
 62
     0
100
AcDbLine
 10
-556.4999623299318
 20
-391.3249197964506
 30
0.0
 11
44.78268632919025
 21
-105.0
 31
0.0
  0
LINE
  5
29DE
330
2E79
100
AcDbEntity
  8
0
 62
     0
100
AcDbLine
 10
-556.4999623299335
 20
-381.3249680523167
 30
0.0
 11
23.7827765921993
 21
-105.0
 31
0.0
  0
LINE
  5
29DF
330
2E79
100
AcDbEntity
  8
0
 62
     0
100
AcDbLine
 10
-556.4999623299335
 20
-371.325016308182
 30
0.0
 11
2.78286685520652
 21
-105.0000000000009
 31
0.0
  0
LINE
  5
29E0
330
2E79
100
AcDbEntity
  8
0
 62
     0
100
AcDbLine
 10
-556.4999623299335
 20
-361.3250645640483
 30
0.0
 11
-18.2170428817808
 21
-105.0
 31
0.0
  0
LINE
  5
29E1
330
2E79
100
AcDbEntity
  8
0
 62
     0
100
AcDbLine
 10
-556.4999623299318
 20
-351.3251128199136
 30
0.0
 11
-39.21695261877358
 21
-105.0000000000009
 31
0.0
  0
LINE
  5
29E2
330
2E79
100
AcDbEntity
  8
0
 62
     0
100
AcDbLine
 10
-556.4999623299351
 20
-341.3251610757797
 30
0.0
 11
-60.21686235576453
 21
-105.0000000000009
 31
0.0
  0
LINE
  5
29E3
330
2E79
100
AcDbEntity
  8
0
 62
     0
100
AcDbLine
 10
-556.4999623299335
 20
-331.325209331644
 30
0.0
 11
-81.21677209275731
 21
-105.0000000000009
 31
0.0
  0
LINE
  5
29E4
330
2E79
100
AcDbEntity
  8
0
 62
     0
100
AcDbLine
 10
-556.4999623299318
 20
-321.3252575875094
 30
0.0
 11
-102.2166818297446
 21
-105.0000000000009
 31
0.0
  0
LINE
  5
29E5
330
2E79
100
AcDbEntity
  8
0
 62
     0
100
AcDbLine
 10
-556.4999623299335
 20
-311.3253058433756
 30
0.0
 11
-123.2165915667356
 21
-105.0000000000009
 31
0.0
  0
LINE
  5
29E6
330
2E79
100
AcDbEntity
  8
0
 62
     0
100
AcDbLine
 10
-556.4999623299318
 20
-301.32535409924
 30
0.0
 11
-144.2165013037264
 21
-105.0
 31
0.0
  0
LINE
  5
29E7
330
2E79
100
AcDbEntity
  8
0
 62
     0
100
AcDbLine
 10
-556.4999623299335
 20
-291.3254023551072
 30
0.0
 11
-165.2164110407157
 21
-105.0000000000009
 31
0.0
  0
LINE
  5
29E8
330
2E79
100
AcDbEntity
  8
0
 62
     0
100
AcDbLine
 10
-556.4999623299318
 20
-281.3254506109715
 30
0.0
 11
-186.2163207777084
 21
-105.0000000000009
 31
0.0
  0
LINE
  5
29E9
330
2E79
100
AcDbEntity
  8
0
 62
     0
100
AcDbLine
 10
-556.4999623299335
 20
-271.3254988668386
 30
0.0
 11
-207.2162305146993
 21
-105.0000000000009
 31
0.0
  0
LINE
  5
29EA
330
2E79
100
AcDbEntity
  8
0
 62
     0
100
AcDbLine
 10
-556.4999623299335
 20
-261.325547122703
 30
0.0
 11
-228.2161402516904
 21
-105.0
 31
0.0
  0
LINE
  5
29EB
330
2E79
100
AcDbEntity
  8
0
 62
     0
100
AcDbLine
 10
-556.4999623299335
 20
-251.3255953785692
 30
0.0
 11
-249.2160499886795
 21
-105.0
 31
0.0
  0
LINE
  5
29EC
330
2E79
100
AcDbEntity
  8
0
 62
     0
100
AcDbLine
 10
-556.4999623299335
 20
-241.3256436344354
 30
0.0
 11
-270.2159597256723
 21
-105.0000000000009
 31
0.0
  0
LINE
  5
29ED
330
2E79
100
AcDbEntity
  8
0
 62
     0
100
AcDbLine
 10
-556.4999623299318
 20
-231.3256918902998
 30
0.0
 11
-291.2158694626614
 21
-105.0
 31
0.0
  0
LINE
  5
29EE
330
2E79
100
AcDbEntity
  8
0
 62
     0
100
AcDbLine
 10
-556.4999623299335
 20
-221.3257401461669
 30
0.0
 11
-312.2157791996524
 21
-105.0000000000009
 31
0.0
  0
LINE
  5
29EF
330
2E79
100
AcDbEntity
  8
0
 62
     0
100
AcDbLine
 10
-556.4999623299318
 20
-211.3257884020313
 30
0.0
 11
-333.2156889366434
 21
-105.0000000000009
 31
0.0
  0
LINE
  5
29F0
330
2E79
100
AcDbEntity
  8
0
 62
     0
100
AcDbLine
 10
-556.4999623299335
 20
-201.3258366578975
 30
0.0
 11
-354.2155986736325
 21
-105.0
 31
0.0
  0
LINE
  5
29F1
330
2E79
100
AcDbEntity
  8
0
 62
     0
100
AcDbLine
 10
-556.4999623299318
 20
-191.3258849137628
 30
0.0
 11
-375.2155084106234
 21
-105.0000000000009
 31
0.0
  0
LINE
  5
29F2
330
2E79
100
AcDbEntity
  8
0
 62
     0
100
AcDbLine
 10
-556.4999623299318
 20
-181.3259331696281
 30
0.0
 11
-396.2154181476143
 21
-105.0000000000009
 31
0.0
  0
LINE
  5
29F3
330
2E79
100
AcDbEntity
  8
0
 62
     0
100
AcDbLine
 10
-556.4999623299335
 20
-171.3259814254934
 30
0.0
 11
-417.2153278846053
 21
-105.0
 31
0.0
  0
LINE
  5
29F4
330
2E79
100
AcDbEntity
  8
0
 62
     0
100
AcDbLine
 10
-556.4999623299335
 20
-161.3260296813596
 30
0.0
 11
-438.2152376215961
 21
-105.0000000000009
 31
0.0
  0
LINE
  5
29F5
330
2E79
100
AcDbEntity
  8
0
 62
     0
100
AcDbLine
 10
-556.4999623299318
 20
-151.3260779372249
 30
0.0
 11
-459.2151473585873
 21
-105.0000000000009
 31
0.0
  0
LINE
  5
29F6
330
2E79
100
AcDbEntity
  8
0
 62
     0
100
AcDbLine
 10
-556.4999623299335
 20
-141.3261261930902
 30
0.0
 11
-480.215057095578
 21
-105.0
 31
0.0
  0
LINE
  5
29F7
330
2E79
100
AcDbEntity
  8
0
 62
     0
100
AcDbLine
 10
-556.4999623299335
 20
-131.3261744489564
 30
0.0
 11
-501.2149668325688
 21
-105.0
 31
0.0
  0
LINE
  5
29F8
330
2E79
100
AcDbEntity
  8
0
 62
     0
100
AcDbLine
 10
-556.4999623299318
 20
-121.3262227048208
 30
0.0
 11
-522.2148765695583
 21
-105.0
 31
0.0
  0
LINE
  5
29F9
330
2E79
100
AcDbEntity
  8
0
 62
     0
100
AcDbLine
 10
-556.4999623299335
 20
-111.3262709606879
 30
0.0
 11
-543.2147863065489
 21
-105.0000000000009
 31
0.0
  0
ENDBLK
  5
29FA
330
2E79
100
AcDbEntity
  8
0
100
AcDbBlockEnd
  0
ENDSEC
  0
SECTION
  2
ENTITIES
  0
TEXT
  5
953
330
2DA0
100
AcDbEntity
  8
OUTLINE
  6
Continuous
 62
     3
100
AcDbText
 10
-418.231467
 20
13.715189
 30
0.0
 40
64.0
  1
 
 41
0.9
100
AcDbText
  0
TEXT
  5
954
330
2DA0
100
AcDbEntity
  8
OUTLINE
  6
Continuous
 62
     3
100
AcDbText
 10
-418.231467
 20
13.715189
 30
0.0
 40
64.0
  1
 
 41
0.9
100
AcDbText
  0
TEXT
  5
955
330
2DA0
100
AcDbEntity
  8
OUTLINE
  6
Continuous
 62
     3
100
AcDbText
 10
1341.41903
 20
-706.0588199999997
 30
0.0
 40
64.0
  1
 
 41
0.9
100
AcDbText
  0
TEXT
  5
956
330
2DA0
100
AcDbEntity
  8
OUTLINE
  6
Continuous
 62
     3
100
AcDbText
 10
1341.41903
 20
-706.0588199999997
 30
0.0
 40
64.0
  1
 
 41
0.9
100
AcDbText
  0
TEXT
  5
957
330
2DA0
100
AcDbEntity
  8
OUTLINE
  6
Continuous
 62
     3
100
AcDbText
 10
1341.41903
 20
-706.0588199999997
 30
0.0
 40
64.0
  1
 
 41
0.9
100
AcDbText
  0
TEXT
  5
958
330
2DA0
100
AcDbEntity
  8
OUTLINE
  6
Continuous
 62
     3
100
AcDbText
 10
1341.41903
 20
-706.0588199999997
 30
0.0
 40
64.0
  1
 
 41
0.9
100
AcDbText
  0
TEXT
  5
2A47
330
2DA0
100
AcDbEntity
  8
ETC
100
AcDbText
 10
972.9903614194313
 20
289.1962291764757
 30
0.0
 40
64.0
  1
システム部材
 41
0.9
100
AcDbText
  0
TEXT
  5
2A48
330
2DA0
100
AcDbEntity
  8
ETC
100
AcDbText
 10
979.198359419432
 20
390.0795551764759
 30
0.0
 40
64.0
  1
W-105TA-A_6
 41
0.9
100
AcDbText
  0
TEXT
  5
2A49
330
2DA0
100
AcDbEntity
  8
ETC
100
AcDbText
 10
979.198359419432
 20
190.0795551764757
 30
0.0
 40
64.0
  1
W-105TA-A
 41
0.9
100
AcDbText
  0
CIRCLE
  5
2A4A
330
2DA0
100
AcDbEntity
  8
ARRANGE
100
AcDbCircle
 10
-0.0000004251701284
 20
-0.0000000986728992
 30
0.0
 40
40.0
  0
LINE
  5
2A4B
330
2DA0
100
AcDbEntity
  8
BASIS
100
AcDbLine
 10
-0.0000004251701284
 20
25.0
 30
0.0
 11
0.0000186224483514
 21
-1095.0
 31
0.0
  0
LINE
  5
2A4C
330
2DA0
100
AcDbEntity
  8
DETAIL
100
AcDbLine
 10
591.4999995748295
 20
-1.5
 30
0.0
 11
591.4999995748295
 21
-1070.0
 31
0.0
  0
LINE
  5
2A4D
330
2DA0
100
AcDbEntity
  8
DETAIL
100
AcDbLine
 10
-591.4999623299336
 20
-1.5
 30
0.0
 11
-591.4999623299336
 21
-1070.0
 31
0.0
  0
LINE
  5
2A4E
330
2DA0
100
AcDbEntity
  8
DETAIL
100
AcDbLine
 10
-556.499962329933
 20
-105.0
 30
0.0
 11
-556.499962329933
 21
-1035.0
 31
0.0
  0
LINE
  5
2A4F
330
2DA0
100
AcDbEntity
  8
DETAIL
100
AcDbLine
 10
556.4999995748296
 20
-105.0
 30
0.0
 11
556.4999995748296
 21
-1035.0
 31
0.0
  0
LINE
  5
2A50
330
2DA0
100
AcDbEntity
  8
DETAIL
100
AcDbLine
 10
629.9999995748295
 20
-1.5
 30
0.0
 11
-630.0000004251701
 21
-1.5
 31
0.0
  0
LINE
  5
2A51
330
2DA0
100
AcDbEntity
  8
DETAIL
100
AcDbLine
 10
629.9999995748295
 20
0.0
 30
0.0
 11
-630.0000004251701
 21
0.0
 31
0.0
  0
LINE
  5
2A52
330
2DA0
100
AcDbEntity
  8
DETAIL
100
AcDbLine
 10
556.4999995748296
 20
-105.0
 30
0.0
 11
-556.499962329933
 21
-105.0
 31
0.0
  0
LINE
  5
2A53
330
2DA0
100
AcDbEntity
  8
NOTE
100
AcDbLine
 10
-605.0000004251701
 20
-12.5
 30
0.0
 11
-605.0000004251701
 21
12.5
 31
0.0
  0
LINE
  5
2A54
330
2DA0
100
AcDbEntity
  8
DETAIL
100
AcDbLine
 10
-630.0000004251701
 20
-1.5
 30
0.0
 11
-630.0000004251701
 21
0.0
 31
0.0
  0
LINE
  5
2A55
330
2DA0
100
AcDbEntity
  8
NOTE
100
AcDbLine
 10
604.9999995748295
 20
-12.5
 30
0.0
 11
604.9999995748295
 21
12.5
 31
0.0
  0
LINE
  5
2A56
330
2DA0
100
AcDbEntity
  8
DETAIL
100
AcDbLine
 10
629.9999995748295
 20
-1.5
 30
0.0
 11
629.9999995748295
 21
0.0
 31
0.0
  0
LINE
  5
2A57
330
2DA0
100
AcDbEntity
  8
DETAIL
100
AcDbLine
 10
-591.4999623299336
 20
-1070.0
 30
0.0
 11
591.4999995748295
 21
-1070.0
 31
0.0
  0
LINE
  5
2A58
330
2DA0
100
AcDbEntity
  8
DETAIL
100
AcDbLine
 10
-556.499962329933
 20
-1035.0
 30
0.0
 11
556.4999995748296
 21
-1035.0
 31
0.0
  0
POINT
  5
2A59
330
2DA0
100
AcDbEntity
  8
ARRANGE
100
AcDbPoint
 10
-0.0000004251701284
 20
0.0
 30
0.0
 39
50.0
  0
LINE
  5
2A5A
330
2DA0
100
AcDbEntity
  8
DETAIL
100
AcDbLine
 10
-591.4999623299336
 20
-40.0
 30
0.0
 11
591.4999995748295
 21
-40.0
 31
0.0
  0
LINE
  5
2A5B
330
2DA0
100
AcDbEntity
  8
DETAIL
100
AcDbLine
 10
-591.4999623299336
 20
-70.0
 30
0.0
 11
591.4999995748295
 21
-70.0
 31
0.0
  0
INSERT
  5
2A5C
330
2DA0
100
AcDbEntity
  8
0
100
AcDbBlockReference
  2
*U68
 10
-0.0000000000004547
 20
0.0
 30
0.0
1001
ACAD
1000
DSTYLE
1002
{
1070
    41
1040
12.0
1070
    42
1040
20.0
1070
    43
1040
200.0
1070
    44
1040
20.0
1070
    73
1070
     0
1070
    74
1070
     0
1070
    77
1070
     1
1070
    78
1070
     8
1070
   140
1040
64.0
1070
   147
1040
50.0
1070
   172
1070
     1
1070
   174
1070
     1
1070
   275
1070
     0
1070
   284
1070
     0
1070
   285
1070
     0
1070
   286
1070
     0
1070
   341
1005
0
1070
   342
1005
0
1002
}
  0
INSERT
  5
2A5D
330
2DA0
100
AcDbEntity
  8
0
100
AcDbBlockReference
  2
*U69
 10
-0.0000000000004547
 20
0.0
 30
0.0
  0
LINE
  5
2A5E
330
2DA0
100
AcDbEntity
  8
NOTE
100
AcDbLine
 39
50.0
 10
-617.5000004251701
 20
0.0
 30
0.0
 11
-592.5000004251701
 21
0.0
 31
0.0
  0
LINE
  5
2A5F
330
2DA0
100
AcDbEntity
  8
NOTE
100
AcDbLine
 39
50.0
 10
592.4999995748295
 20
0.0
 30
0.0
 11
617.4999995748295
 21
0.0
 31
0.0
  0
LINE
  5
2A60
330
2DA0
100
AcDbEntity
  8
OUTLINE
100
AcDbLine
 39
50.0
 10
-630.0000004251701
 20
0.0
 30
0.0
 11
629.9999995748295
 21
0.0
 31
0.0
  0
LINE
  5
2A61
330
2DA0
100
AcDbEntity
  8
OUTLINE
100
AcDbLine
 10
591.4999995748295
 20
-1.5
 30
0.0
 11
591.4999995748295
 21
-1070.0
 31
0.0
  0
LINE
  5
2A62
330
2DA0
100
AcDbEntity
  8
OUTLINE
100
AcDbLine
 10
-591.4999623299336
 20
-1.5
 30
0.0
 11
-591.4999623299336
 21
-1070.0
 31
0.0
  0
LINE
  5
2A63
330
2DA0
100
AcDbEntity
  8
OUTLINE
100
AcDbLine
 10
629.9999995748295
 20
-1.5
 30
0.0
 11
-630.0000004251701
 21
-1.5
 31
0.0
  0
LINE
  5
2A64
330
2DA0
100
AcDbEntity
  8
OUTLINE
100
AcDbLine
 10
-630.0000004251701
 20
-1.5
 30
0.0
 11
-630.0000004251701
 21
0.0
 31
0.0
  0
LINE
  5
2A65
330
2DA0
100
AcDbEntity
  8
OUTLINE
100
AcDbLine
 10
629.9999995748295
 20
-1.5
 30
0.0
 11
629.9999995748295
 21
0.0
 31
0.0
  0
LINE
  5
2A66
330
2DA0
100
AcDbEntity
  8
OUTLINE
100
AcDbLine
 10
-591.4999623299336
 20
-1070.0
 30
0.0
 11
591.4999995748295
 21
-1070.0
 31
0.0
  0
LINE
  5
2A67
330
2DA0
100
AcDbEntity
  8
OUTLINE
100
AcDbLine
 10
-591.4999623299336
 20
-40.0
 30
0.0
 11
591.4999995748295
 21
-40.0
 31
0.0
  0
LINE
  5
2A68
330
2DA0
100
AcDbEntity
  8
OUTLINE
100
AcDbLine
 10
-591.4999623299336
 20
-70.0
 30
0.0
 11
591.4999995748295
 21
-70.0
 31
0.0
  0
LINE
  5
2A69
330
2DA0
100
AcDbEntity
  8
DETAIL
100
AcDbLine
 10
-556.499962329933
 20
-105.0
 30
0.0
 11
-556.499962329933
 21
-1035.0
 31
0.0
  0
LINE
  5
2A6A
330
2DA0
100
AcDbEntity
  8
DETAIL
100
AcDbLine
 10
556.4999995748296
 20
-105.0
 30
0.0
 11
556.4999995748296
 21
-1035.0
 31
0.0
  0
LINE
  5
2A6B
330
2DA0
100
AcDbEntity
  8
DETAIL
100
AcDbLine
 10
556.4999995748296
 20
-105.0
 30
0.0
 11
-556.499962329933
 21
-105.0
 31
0.0
  0
LINE
  5
2A6C
330
2DA0
100
AcDbEntity
  8
DETAIL
100
AcDbLine
 10
-556.499962329933
 20
-1035.0
 30
0.0
 11
556.4999995748296
 21
-1035.0
 31
0.0
  0
INSERT
  5
2A6D
330
2DA0
100
AcDbEntity
  8
DETAIL
100
AcDbBlockReference
  2
*X70
 10
-0.0000000000004547
 20
0.0
 30
0.0
1001
ACADANNOTATIVE
1000
AnnotativeData
1002
{
1070
     1
1070
     0
1002
}
1001
ACAD
1000
HATCH
1002
{
1070
    19
1000
LINE
1040
72.22849999999998
1040
5.838766301980094
1000
R14_HATCH_DATA
1000
8C1E
1011
0.9999999999995452
1021
0.0
1031
0.0
1011
-0.0000000000004547
1021
1.0
1031
0.0
1011
-0.0000000000004547
1021
0.0
1031
1.0
1040
0.0
1010
0.0
1020
0.0
1030
1.0
1000
LINE
1070
     0
1070
     0
1071
        2
1071
        7
1070
     0
1070
     1
1071
        6
1040
556.4999995748296
1040
-298.8000000000002
1040
340.6999995748288
1040
-298.8000000000002
1040
340.6999995748306
1040
-104.9999999999991
1040
-556.499962329933
1040
-104.9999999999991
1040
-556.499962329933
1040
-1034.999999999999
1040
556.4999995748296
1040
-1035.0
1071
        0
1071
       23
1070
     0
1070
     1
1071
        4
1040
556.499999574828
1040
-298.8000000000002
1040
556.4999995748296
1040
-105.0
1040
340.6999995748288
1040
-105.0
1040
340.6999995748288
1040
-298.8000000000002
1071
        0
1070
     0
1070
     1
1040
5.838766301980094
1040
72.22849999999998
1070
     0
1070
     1
1040
5.838766301980094
1040
14462.70756291105
1040
6360.676822275127
1040
3.881680532789153
1040
8.151533417570705
1070
     0
1040
2.571534151965094
1071
        2
1040
-86.925167430672
1040
-406.8781045450577
1040
0.0
1040
454.8751660519267
1040
-221.7013186024042
1040
0.0
1002
}
  0
INSERT
  5
2A6E
330
2DA0
100
AcDbEntity
  8
DETAIL
100
AcDbBlockReference
  2
*X71
 10
-0.0000000000004547
 20
0.0
 30
0.0
1001
ACADANNOTATIVE
1000
AnnotativeData
1002
{
1070
     1
1070
     0
1002
}
1001
ACAD
1000
HATCH
1002
{
1070
    19
1000
LINE
1040
72.22849999999998
1040
0.4444190051994898
1000
R14_HATCH_DATA
1000
8C24
1011
0.9999999999995452
1021
0.0
1031
0.0
1011
-0.0000000000004547
1021
1.0
1031
0.0
1011
-0.0000000000004547
1021
0.0
1031
1.0
1040
0.0
1010
0.0
1020
0.0
1030
1.0
1000
LINE
1070
     0
1070
     0
1071
        2
1071
        7
1070
     0
1070
     1
1071
        6
1040
556.499999574828
1040
-298.8000000000011
1040
340.6999995748288
1040
-298.7999999999983
1040
340.6999995748324
1040
-105.0000000000009
1040
-556.499962329933
1040
-105.0000000000009
1040
-556.499962329933
1040
-1035.000000000001
1040
556.4999995748296
1040
-1035.0
1071
        0
1071
        7
1070
     0
1070
     1
1071
        4
1040
556.499999574828
1040
-105.0
1040
340.6999995748288
1040
-105.0000000000009
1040
340.6999995748324
1040
-298.8000000000002
1040
556.499999574828
1040
-298.800000000002
1071
        0
1070
     0
1070
     1
1040
0.4444190051994898
1040
72.22849999999998
1070
     0
1070
     1
1040
0.4444190051994898
1040
14462.70756291105
1040
6360.676822275127
1040
-3.881680532789157
1040
8.151533417570702
1070
     0
1040
4.032466171683577
1071
        2
1040
-100.6130440292248
1040
-574.3550395138496
1040
0.0
1040
479.8675568869008
1040
-221.3238295722176
1040
0.0
1002
}
  0
LINE
  5
2A6F
330
2DA0
100
AcDbEntity
  8
SIZE
100
AcDbLine
 10
629.9999995748295
 20
20.0
 30
0.0
 11
629.9999995748295
 21
298.8865929365175
 31
0.0
  0
LINE
  5
2A70
330
2DA0
100
AcDbEntity
  8
SIZE
100
AcDbLine
 10
-630.0000004251701
 20
20.0
 30
0.0
 11
-630.0000004251701
 21
298.8865929365175
 31
0.0
  0
LINE
  5
2A71
330
2DA0
100
AcDbEntity
  8
SIZE
100
AcDbLine
 10
617.9999995748295
 20
278.8865929365174
 30
0.0
 11
-618.0000004251701
 21
278.8865929365174
 31
0.0
  0
INSERT
  5
2A72
330
2DA0
100
AcDbEntity
  8
SIZE
100
AcDbBlockReference
  2
_DOTBLANK
 10
629.9999995748295
 20
278.8865929365174
 30
0.0
 41
12.0
 42
12.0
 43
12.0
  0
INSERT
  5
2A73
330
2DA0
100
AcDbEntity
  8
SIZE
100
AcDbBlockReference
  2
_DOTBLANK
 10
-630.0000004251701
 20
278.8865929365174
 30
0.0
 41
12.0
 42
12.0
 43
12.0
 50
180.0
  0
LINE
  5
2A74
330
2DA0
100
AcDbEntity
  8
SIZE
100
AcDbLine
 10
604.9999995748295
 20
32.5
 30
0.0
 11
604.9999995748295
 21
180.3320910096181
 31
0.0
  0
LINE
  5
2A75
330
2DA0
100
AcDbEntity
  8
SIZE
100
AcDbLine
 10
-605.0000004251701
 20
32.5
 30
0.0
 11
-605.0000004251701
 21
180.3320910096181
 31
0.0
  0
LINE
  5
2A76
330
2DA0
100
AcDbEntity
  8
SIZE
100
AcDbLine
 10
592.9999995748295
 20
160.3320910096181
 30
0.0
 11
-593.0000004251701
 21
160.3320910096181
 31
0.0
  0
INSERT
  5
2A77
330
2DA0
100
AcDbEntity
  8
SIZE
100
AcDbBlockReference
  2
_DOTBLANK
 10
604.9999995748295
 20
160.3320910096181
 30
0.0
 41
12.0
 42
12.0
 43
12.0
  0
INSERT
  5
2A78
330
2DA0
100
AcDbEntity
  8
SIZE
100
AcDbBlockReference
  2
_DOTBLANK
 10
-605.0000004251701
 20
160.3320910096181
 30
0.0
 41
12.0
 42
12.0
 43
12.0
 50
180.0
  0
LINE
  5
2A79
330
2DA0
100
AcDbEntity
  8
SIZE
100
AcDbLine
 10
-611.4999623299336
 20
-1070.0
 30
0.0
 11
-873.2165304566548
 21
-1070.0
 31
0.0
  0
LINE
  5
2A7A
330
2DA0
100
AcDbEntity
  8
SIZE
100
AcDbLine
 10
-650.0000004251701
 20
0.0
 30
0.0
 11
-873.2165304566548
 21
0.0
 31
0.0
  0
LINE
  5
2A7B
330
2DA0
100
AcDbEntity
  8
SIZE
100
AcDbLine
 10
-853.2165304566548
 20
-1058.0
 30
0.0
 11
-853.2165304566548
 21
-12.0
 31
0.0
  0
INSERT
  5
2A7C
330
2DA0
100
AcDbEntity
  8
SIZE
100
AcDbBlockReference
  2
_DOTBLANK
 10
-853.2165304566548
 20
-1070.0
 30
0.0
 41
12.0
 42
12.0
 43
12.0
 50
270.0
  0
INSERT
  5
2A7D
330
2DA0
100
AcDbEntity
  8
SIZE
100
AcDbBlockReference
  2
_DOTBLANK
 10
-853.2165304566548
 20
0.0
 30
0.0
 41
12.0
 42
12.0
 43
12.0
 50
90.0
  0
LINE
  5
2A7E
330
2DA0
100
AcDbEntity
  8
SIZE
100
AcDbLine
 10
591.4999995748295
 20
-1090.0
 30
0.0
 11
591.4999995748295
 21
-1352.864089238022
 31
0.0
  0
LINE
  5
2A7F
330
2DA0
100
AcDbEntity
  8
SIZE
100
AcDbLine
 10
-591.4999623299336
 20
-1090.0
 30
0.0
 11
-591.4999623299336
 21
-1352.864089238022
 31
0.0
  0
LINE
  5
2A80
330
2DA0
100
AcDbEntity
  8
SIZE
100
AcDbLine
 10
579.4999995748295
 20
-1332.864089238023
 30
0.0
 11
-579.4999623299331
 21
-1332.864089238023
 31
0.0
  0
INSERT
  5
2A81
330
2DA0
100
AcDbEntity
  8
SIZE
100
AcDbBlockReference
  2
_DOTBLANK
 10
591.4999995748295
 20
-1332.864089238023
 30
0.0
 41
12.0
 42
12.0
 43
12.0
  0
INSERT
  5
2A82
330
2DA0
100
AcDbEntity
  8
SIZE
100
AcDbBlockReference
  2
_DOTBLANK
 10
-591.4999623299336
 20
-1332.864089238023
 30
0.0
 41
12.0
 42
12.0
 43
12.0
 50
180.0
  0
TEXT
  5
2A83
330
2DA0
100
AcDbEntity
  8
SIZE
100
AcDbText
 10
-80.1596169398199
 20
-1322.864089238022
 30
0.0
 40
64.0
  1
1183
 41
0.9
100
AcDbText
  0
TEXT
  5
2A84
330
2DA0
100
AcDbEntity
  8
SIZE
100
AcDbText
 10
-863.216530456655
 20
-631.0
 30
0.0
 40
64.0
  1
1070
 50
90.0
 41
0.9
100
AcDbText
  0
TEXT
  5
2A85
330
2DA0
100
AcDbEntity
  8
SIZE
100
AcDbText
 10
-96.00000042517011
 20
288.8865929365175
 30
0.0
 40
64.0
  1
1260
 41
0.9
100
AcDbText
  0
TEXT
  5
2A86
330
2DA0
100
AcDbEntity
  8
SIZE
100
AcDbText
 10
-91.07016377345098
 20
170.3320910096181
 30
0.0
 40
64.0
  1
1210
 41
0.9
100
AcDbText
  0
ENDSEC
  0
SECTION
  2
OBJECTS
  0
DICTIONARY
  5
2D38
330
0
100
AcDbDictionary
281
     1
  3
ACAD_2007HEADERVARS_RT
350
2F86
  3
ACAD_COLOR
350
2D96
  3
ACAD_GROUP
350
2D39
  3
ACAD_LAYOUT
350
2D95
  3
ACAD_MATERIAL
350
2D3C
  3
ACAD_MLEADERSTYLE
350
2D99
  3
ACAD_MLINESTYLE
350
2D92
  3
ACAD_PLOTSETTINGS
350
2D94
  3
ACAD_PLOTSTYLENAME
350
2D3A
  3
ACAD_SCALELIST
350
2D66
  3
ACAD_TABLESTYLE
350
2D97
  3
ACAD_VISUALSTYLE
350
2D55
  3
ACDB_RECOMPOSE_DATA
350
2F84
  3
AcDbVariableDictionary
350
2F7B
  3
AcmDictionary
350
2F2E
  3
AMG
350
2E7B
  3
DWGPROPS
350
2F85
  3
MAPISURF_MODULE
350
2EFB
  0
DICTIONARY
  5
2F56
330
2D88
100
AcDbDictionary
280
     1
281
     1
  3
ADSK_XREC_LAYER_RECONCILED
360
2F57
  0
DICTIONARY
  5
2F58
330
2DB7
100
AcDbDictionary
280
     1
281
     1
  3
ADSK_XREC_LAYER_RECONCILED
360
2F59
  0
DICTIONARY
  5
2F5A
330
2DB8
100
AcDbDictionary
280
     1
281
     1
  3
ADSK_XREC_LAYER_RECONCILED
360
2F5B
  0
DICTIONARY
  5
2F5C
330
2DB9
100
AcDbDictionary
280
     1
281
     1
  3
ADSK_XREC_LAYER_RECONCILED
360
2F5D
  0
DICTIONARY
  5
2F5E
330
2DBA
100
AcDbDictionary
280
     1
281
     1
  3
ADSK_XREC_LAYER_RECONCILED
360
2F5F
  0
DICTIONARY
  5
2F60
330
2DBB
100
AcDbDictionary
280
     1
281
     1
  3
ADSK_XREC_LAYER_RECONCILED
360
2F61
  0
DICTIONARY
  5
2F62
330
2DBD
100
AcDbDictionary
280
     1
281
     1
  3
ADSK_XREC_LAYER_RECONCILED
360
2F63
  0
DICTIONARY
  5
2F64
330
2DBE
100
AcDbDictionary
280
     1
281
     1
  3
ADSK_XREC_LAYER_RECONCILED
360
2F65
  0
DICTIONARY
  5
2F66
330
2DBF
100
AcDbDictionary
280
     1
281
     1
  3
ADSK_XREC_LAYER_RECONCILED
360
2F67
  0
DICTIONARY
  5
2F68
330
2DC0
100
AcDbDictionary
280
     1
281
     1
  3
ADSK_XREC_LAYER_RECONCILED
360
2F69
  0
DICTIONARY
  5
2F6A
330
2DC1
100
AcDbDictionary
280
     1
281
     1
  3
ADSK_XREC_LAYER_RECONCILED
360
2F6B
  0
DICTIONARY
  5
2F6C
330
2DA0
100
AcDbDictionary
280
     1
281
     1
  3
ACAD_INDEX
360
2F6D
  0
DICTIONARY
  5
2F86
102
{ACAD_REACTORS
330
2D38
102
}
330
2D38
100
AcDbDictionary
281
     1
  3
DIMARCSYM
350
2F87
  3
DIMLTEX1
350
2F89
  3
DIMLTEX2
350
2F8A
  3
DIMLTYPE
350
2F88
  0
DICTIONARY
  5
2D96
102
{ACAD_REACTORS
330
2D38
102
}
330
2D38
100
AcDbDictionary
281
     1
  0
DICTIONARY
  5
2D39
102
{ACAD_REACTORS
330
2D38
102
}
330
2D38
100
AcDbDictionary
281
     1
  0
DICTIONARY
  5
2D95
102
{ACAD_REACTORS
330
2D38
102
}
330
2D38
100
AcDbDictionary
281
     1
  3
Model
350
2DA3
  3
レイアウト1
350
2D9F
  0
DICTIONARY
  5
2D3C
102
{ACAD_REACTORS
330
2D38
102
}
330
2D38
100
AcDbDictionary
281
     1
  3
ByBlock
350
2D45
  3
ByLayer
350
2D3D
  3
Global
350
2D4D
  0
DICTIONARY
  5
2D99
102
{ACAD_REACTORS
330
2D38
102
}
330
2D38
100
AcDbDictionary
281
     1
  3
Standard
350
2D9A
  0
DICTIONARY
  5
2D92
102
{ACAD_REACTORS
330
2D38
102
}
330
2D38
100
AcDbDictionary
281
     1
  3
Standard
350
2D93
  0
DICTIONARY
  5
2D94
102
{ACAD_REACTORS
330
2D38
102
}
330
2D38
100
AcDbDictionary
281
     1
  0
ACDBDICTIONARYWDFLT
  5
2D3A
102
{ACAD_REACTORS
330
2D38
102
}
330
2D38
100
AcDbDictionary
281
     1
  3
Normal
350
2D3B
100
AcDbDictionaryWithDefault
340
2D3B
  0
DICTIONARY
  5
2D66
102
{ACAD_REACTORS
330
2D38
102
}
330
2D38
100
AcDbDictionary
281
     1
  3
A0
350
2D67
  3
A1
350
2D68
  3
A2
350
2D69
  3
A3
350
2D6A
  3
A4
350
2D6B
  3
A5
350
2D6C
  3
A6
350
2D6D
  3
A7
350
2D6E
  3
A8
350
2D6F
  3
A9
350
2D70
  3
B0
350
2D71
  3
B1
350
2D72
  3
B2
350
2D73
  3
B3
350
2D74
  3
B4
350
2D75
  3
B5
350
2D76
  3
B6
350
2D77
  3
B7
350
2D78
  3
B8
350
2D79
  3
B9
350
2D7A
  3
C0
350
2D7B
  3
C1
350
2D7C
  3
C2
350
2D7D
  3
C3
350
2D7E
  3
C4
350
2D7F
  3
C5
350
2D80
  3
C6
350
2D81
  3
C7
350
2D82
  3
C8
350
2D83
  3
C9
350
2D84
  3
D0
350
2D85
  3
D1
350
2D86
  3
D2
350
2D87
  0
DICTIONARY
  5
2D97
102
{ACAD_REACTORS
330
2D38
102
}
330
2D38
100
AcDbDictionary
281
     1
  3
Standard
350
2D98
  0
DICTIONARY
  5
2D55
102
{ACAD_REACTORS
330
2D38
102
}
330
2D38
100
AcDbDictionary
281
     1
  3
2dWireframe
350
2D5B
  3
3D Hidden
350
2D5D
  3
3dWireframe
350
2D5C
  3
Basic
350
2D5A
  3
Brighten
350
2D61
  3
ColorChange
350
2D65
  3
Conceptual
350
2D5E
  3
Dim
350
2D60
  3
Facepattern
350
2D64
  3
Flat
350
2D56
  3
FlatWithEdges
350
2D57
  3
Gouraud
350
2D58
  3
GouraudWithEdges
350
2D59
  3
Linepattern
350
2D63
  3
Realistic
350
2D5F
  3
Thicken
350
2D62
  0
XRECORD
  5
2F84
102
{ACAD_REACTORS
330
2D38
102
}
330
2D38
100
AcDbXrecord
280
     1
 90
        1
330
2D98
  0
DICTIONARY
  5
2F7B
102
{ACAD_REACTORS
330
2D38
102
}
330
2D38
100
AcDbDictionary
281
     1
  3
CANNOSCALE
350
2F7E
  3
CMLEADERSTYLE
350
2F7D
  3
CTABLESTYLE
350
2F7C
  3
DIMASSOC
350
2F81
  3
INDEXCTL
350
2F80
  3
SORTENTS
350
2F7F
  0
DICTIONARY
  5
2F2E
102
{ACAD_REACTORS
330
2D38
102
}
330
2D38
100
AcDbDictionary
281
     1
  3
AcmStdDictionary
350
2F3C
  0
DICTIONARY
  5
2E7B
102
{ACAD_REACTORS
330
2D38
102
}
330
2D38
100
AcDbDictionary
281
     1
  3
AcMgSettings
350
2E7C
  0
XRECORD
  5
2F85
102
{ACAD_REACTORS
330
2D38
102
}
330
2D38
100
AcDbXrecord
280
     1
  1
DWGPROPS COOKIE
  2

  3

  4

  6

  7

  8
A090053
  9

300
AmdtFileType=84
301
=
302
=
303
=
304
=
305
=
306
=
307
=
308
=
309
=
 40
1.041571539351851
 41
2452321.396199653
 42
2456210.803672986
  1

 90
        1
  0
XRECORD
  5
2F57
102
{ACAD_REACTORS
330
2F56
102
}
330
2F56
100
AcDbXrecord
280
     1
290
     1
  0
XRECORD
  5
2F59
102
{ACAD_REACTORS
330
2F58
102
}
330
2F58
100
AcDbXrecord
280
     1
290
     1
  0
XRECORD
  5
2F5B
102
{ACAD_REACTORS
330
2F5A
102
}
330
2F5A
100
AcDbXrecord
280
     1
290
     1
  0
XRECORD
  5
2F5D
102
{ACAD_REACTORS
330
2F5C
102
}
330
2F5C
100
AcDbXrecord
280
     1
290
     1
  0
XRECORD
  5
2F5F
102
{ACAD_REACTORS
330
2F5E
102
}
330
2F5E
100
AcDbXrecord
280
     1
290
     1
  0
XRECORD
  5
2F61
102
{ACAD_REACTORS
330
2F60
102
}
330
2F60
100
AcDbXrecord
280
     1
290
     1
  0
XRECORD
  5
2F63
102
{ACAD_REACTORS
330
2F62
102
}
330
2F62
100
AcDbXrecord
280
     1
290
     1
  0
XRECORD
  5
2F65
102
{ACAD_REACTORS
330
2F64
102
}
330
2F64
100
AcDbXrecord
280
     1
290
     1
  0
XRECORD
  5
2F67
102
{ACAD_REACTORS
330
2F66
102
}
330
2F66
100
AcDbXrecord
280
     1
290
     1
  0
XRECORD
  5
2F69
102
{ACAD_REACTORS
330
2F68
102
}
330
2F68
100
AcDbXrecord
280
     1
290
     1
  0
XRECORD
  5
2F6B
102
{ACAD_REACTORS
330
2F6A
102
}
330
2F6A
100
AcDbXrecord
280
     1
290
     1
  0
DICTIONARY
  5
2F6D
102
{ACAD_REACTORS
330
2F6C
102
}
330
2F6C
100
AcDbDictionary
281
     1
  3
*A1
350
2F6E
  0
XRECORD
  5
2F87
102
{ACAD_REACTORS
330
2F86
102
}
330
2F86
100
AcDbXrecord
280
     1
 70
     1
  0
XRECORD
  5
2F89
102
{ACAD_REACTORS
330
2F86
102
}
330
2F86
100
AcDbXrecord
280
     1
340
2D8E
  0
XRECORD
  5
2F8A
102
{ACAD_REACTORS
330
2F86
102
}
330
2F86
100
AcDbXrecord
280
     1
340
2D8E
  0
XRECORD
  5
2F88
102
{ACAD_REACTORS
330
2F86
102
}
330
2F86
100
AcDbXrecord
280
     1
340
2D8E
  0
LAYOUT
  5
2DA3
102
{ACAD_XDICTIONARY
360
2F91
102
}
102
{ACAD_REACTORS
330
2D95
102
}
330
2D95
100
AcDbPlotSettings
  1

  2
自動 EPSON LP-9600S (W2450527 上)
  4

  6

 40
0.0
 41
0.0
 42
0.0
 43
0.0
 44
0.0
 45
0.0
 46
0.0
 47
0.0
 48
0.0
 49
0.0
140
0.0
141
0.0
142
1.0
143
1.0
 70
  1712
 72
     0
 73
     0
 74
     0
  7

 75
     0
147
1.0
148
0.0
149
0.0
100
AcDbLayout
  1
Model
 70
     1
 71
     0
 10
0.0
 20
0.0
 11
12.0
 21
9.0
 12
0.0
 22
0.0
 32
0.0
 14
0.0
 24
0.0
 34
0.0
 15
0.0
 25
0.0
 35
0.0
146
0.0
 13
0.0
 23
0.0
 33
0.0
 16
1.0
 26
0.0
 36
0.0
 17
0.0
 27
1.0
 37
0.0
 76
     0
330
2DA0
331
2DA4
  0
LAYOUT
  5
2D9F
102
{ACAD_XDICTIONARY
360
2F8F
102
}
102
{ACAD_REACTORS
330
2D95
102
}
330
2D95
100
AcDbPlotSettings
  1

  2
自動 EPSON LP-9600S (W2450527 上)
  4

  6

 40
0.0
 41
0.0
 42
0.0
 43
0.0
 44
0.0
 45
0.0
 46
0.0
 47
0.0
 48
0.0
 49
0.0
140
0.0
141
0.0
142
1.0
143
1.0
 70
   688
 72
     0
 73
     0
 74
     5
  7

 75
    16
147
1.0
148
0.0
149
0.0
100
AcDbLayout
  1
レイアウト1
 70
     1
 71
     1
 10
0.0
 20
0.0
 11
12.0
 21
9.0
 12
0.0
 22
0.0
 32
0.0
 14
1.000000000000000E+20
 24
1.000000000000000E+20
 34
1.000000000000000E+20
 15
-1.000000000000000E+20
 25
-1.000000000000000E+20
 35
-1.000000000000000E+20
146
0.0
 13
0.0
 23
0.0
 33
0.0
 16
1.0
 26
0.0
 36
0.0
 17
0.0
 27
1.0
 37
0.0
 76
     0
330
2D9C
  0
MATERIAL
  5
2D45
102
{ACAD_XDICTIONARY
360
2D46
102
}
102
{ACAD_REACTORS
330
2D3C
102
}
330
2D3C
100
AcDbMaterial
  1
ByBlock
 72
     0
 43
0.0208333333333333
 43
0.0
 43
0.0
 43
0.0
 43
0.0
 43
0.0208333333333333
 43
0.0
 43
0.0
 43
0.0
 43
0.0
 43
1.0
 43
0.0
 43
0.0
 43
0.0
 43
0.0
 43
1.0
 77
     0
 47
0.0208333333333333
 47
0.0
 47
0.0
 47
0.0
 47
0.0
 47
0.0208333333333333
 47
0.0
 47
0.0
 47
0.0
 47
0.0
 47
1.0
 47
0.0
 47
0.0
 47
0.0
 47
0.0
 47
1.0
171
     0
 49
0.0208333333333333
 49
0.0
 49
0.0
 49
0.0
 49
0.0
 49
0.0208333333333333
 49
0.0
 49
0.0
 49
0.0
 49
0.0
 49
1.0
 49
0.0
 49
0.0
 49
0.0
 49
0.0
 49
1.0
175
     0
142
0.0208333333333333
142
0.0
142
0.0
142
0.0
142
0.0
142
0.0208333333333333
142
0.0
142
0.0
142
0.0
142
0.0
142
1.0
142
0.0
142
0.0
142
0.0
142
0.0
142
1.0
179
     0
144
0.0208333333333333
144
0.0
144
0.0
144
0.0
144
0.0
144
0.0208333333333333
144
0.0
144
0.0
144
0.0
144
0.0
144
1.0
144
0.0
144
0.0
144
0.0
144
0.0
144
1.0
147
0.0208333333333333
147
0.0
147
0.0
147
0.0
147
0.0
147
0.0208333333333333
147
0.0
147
0.0
147
0.0
147
0.0
147
1.0
147
0.0
147
0.0
147
0.0
147
0.0
147
1.0
  0
MATERIAL
  5
2D3D
102
{ACAD_XDICTIONARY
360
2D3E
102
}
102
{ACAD_REACTORS
330
2D3C
102
}
330
2D3C
100
AcDbMaterial
  1
ByLayer
 72
     0
 43
0.0208333333333333
 43
0.0
 43
0.0
 43
0.0
 43
0.0
 43
0.0208333333333333
 43
0.0
 43
0.0
 43
0.0
 43
0.0
 43
1.0
 43
0.0
 43
0.0
 43
0.0
 43
0.0
 43
1.0
 77
     0
 47
0.0208333333333333
 47
0.0
 47
0.0
 47
0.0
 47
0.0
 47
0.0208333333333333
 47
0.0
 47
0.0
 47
0.0
 47
0.0
 47
1.0
 47
0.0
 47
0.0
 47
0.0
 47
0.0
 47
1.0
171
     0
 49
0.0208333333333333
 49
0.0
 49
0.0
 49
0.0
 49
0.0
 49
0.0208333333333333
 49
0.0
 49
0.0
 49
0.0
 49
0.0
 49
1.0
 49
0.0
 49
0.0
 49
0.0
 49
0.0
 49
1.0
175
     0
142
0.0208333333333333
142
0.0
142
0.0
142
0.0
142
0.0
142
0.0208333333333333
142
0.0
142
0.0
142
0.0
142
0.0
142
1.0
142
0.0
142
0.0
142
0.0
142
0.0
142
1.0
179
     0
144
0.0208333333333333
144
0.0
144
0.0
144
0.0
144
0.0
144
0.0208333333333333
144
0.0
144
0.0
144
0.0
144
0.0
144
1.0
144
0.0
144
0.0
144
0.0
144
0.0
144
1.0
147
0.0208333333333333
147
0.0
147
0.0
147
0.0
147
0.0
147
0.0208333333333333
147
0.0
147
0.0
147
0.0
147
0.0
147
1.0
147
0.0
147
0.0
147
0.0
147
0.0
147
1.0
  0
MATERIAL
  5
2D4D
102
{ACAD_XDICTIONARY
360
2D4E
102
}
102
{ACAD_REACTORS
330
2D3C
102
}
330
2D3C
100
AcDbMaterial
  1
Global
 72
     0
 43
0.0208333333333333
 43
0.0
 43
0.0
 43
0.0
 43
0.0
 43
0.0208333333333333
 43
0.0
 43
0.0
 43
0.0
 43
0.0
 43
1.0
 43
0.0
 43
0.0
 43
0.0
 43
0.0
 43
1.0
 77
     0
 47
0.0208333333333333
 47
0.0
 47
0.0
 47
0.0
 47
0.0
 47
0.0208333333333333
 47
0.0
 47
0.0
 47
0.0
 47
0.0
 47
1.0
 47
0.0
 47
0.0
 47
0.0
 47
0.0
 47
1.0
171
     0
 49
0.0208333333333333
 49
0.0
 49
0.0
 49
0.0
 49
0.0
 49
0.0208333333333333
 49
0.0
 49
0.0
 49
0.0
 49
0.0
 49
1.0
 49
0.0
 49
0.0
 49
0.0
 49
0.0
 49
1.0
175
     0
142
0.0208333333333333
142
0.0
142
0.0
142
0.0
142
0.0
142
0.0208333333333333
142
0.0
142
0.0
142
0.0
142
0.0
142
1.0
142
0.0
142
0.0
142
0.0
142
0.0
142
1.0
179
     0
144
0.0208333333333333
144
0.0
144
0.0
144
0.0
144
0.0
144
0.0208333333333333
144
0.0
144
0.0
144
0.0
144
0.0
144
1.0
144
0.0
144
0.0
144
0.0
144
0.0
144
1.0
147
0.0208333333333333
147
0.0
147
0.0
147
0.0
147
0.0
147
0.0208333333333333
147
0.0
147
0.0
147
0.0
147
0.0
147
1.0
147
0.0
147
0.0
147
0.0
147
0.0
147
1.0
  0
MLEADERSTYLE
  5
2D9A
102
{ACAD_REACTORS
330
2D99
102
}
330
2D99
100
AcDbMLeaderStyle
170
     2
171
     1
172
     0
 90
        2
 40
0.0
 41
0.0
173
     1
 91
-1056964608
340
2D8E
 92
       -2
290
     1
 42
0.09
291
     1
 43
0.36
  3
Standard
 44
0.18
300

342
2D89
174
     1
178
     6
175
     1
176
     0
 93
-1056964608
 45
0.18
292
     0
297
     0
 46
0.18
 94
-1056964608
 47
1.0
 49
1.0
140
1.0
293
     1
141
0.0
294
     1
177
     0
142
1.0
295
     0
296
     0
143
0.125
1001
ACAD_MLEADERVER
1070
     2
  0
MLINESTYLE
  5
2D93
102
{ACAD_REACTORS
330
2D92
102
}
330
2D92
100
AcDbMlineStyle
  2
STANDARD
 70
     0
  3

 62
   256
 51
90.0
 52
90.0
 71
     2
 49
0.5
 62
   256
  6
BYLAYER
 49
-0.5
 62
   256
  6
BYLAYER
  0
ACDBPLACEHOLDER
  5
2D3B
102
{ACAD_REACTORS
330
2D3A
102
}
330
2D3A
  0
SCALE
  5
2D67
102
{ACAD_REACTORS
330
2D66
102
}
330
2D66
100
AcDbScale
 70
     0
300
1:1
140
1.0
141
1.0
290
     1
  0
SCALE
  5
2D68
102
{ACAD_REACTORS
330
2D66
102
}
330
2D66
100
AcDbScale
 70
     0
300
1:2
140
1.0
141
2.0
290
     0
  0
SCALE
  5
2D69
102
{ACAD_REACTORS
330
2D66
102
}
330
2D66
100
AcDbScale
 70
     0
300
1:4
140
1.0
141
4.0
290
     0
  0
SCALE
  5
2D6A
102
{ACAD_REACTORS
330
2D66
102
}
330
2D66
100
AcDbScale
 70
     0
300
1:5
140
1.0
141
5.0
290
     0
  0
SCALE
  5
2D6B
102
{ACAD_REACTORS
330
2D66
102
}
330
2D66
100
AcDbScale
 70
     0
300
1:8
140
1.0
141
8.0
290
     0
  0
SCALE
  5
2D6C
102
{ACAD_REACTORS
330
2D66
102
}
330
2D66
100
AcDbScale
 70
     0
300
1:10
140
1.0
141
10.0
290
     0
  0
SCALE
  5
2D6D
102
{ACAD_REACTORS
330
2D66
102
}
330
2D66
100
AcDbScale
 70
     0
300
1:16
140
1.0
141
16.0
290
     0
  0
SCALE
  5
2D6E
102
{ACAD_REACTORS
330
2D66
102
}
330
2D66
100
AcDbScale
 70
     0
300
1:20
140
1.0
141
20.0
290
     0
  0
SCALE
  5
2D6F
102
{ACAD_REACTORS
330
2D66
102
}
330
2D66
100
AcDbScale
 70
     0
300
1:30
140
1.0
141
30.0
290
     0
  0
SCALE
  5
2D70
102
{ACAD_REACTORS
330
2D66
102
}
330
2D66
100
AcDbScale
 70
     0
300
1:40
140
1.0
141
40.0
290
     0
  0
SCALE
  5
2D71
102
{ACAD_REACTORS
330
2D66
102
}
330
2D66
100
AcDbScale
 70
     0
300
1:50
140
1.0
141
50.0
290
     0
  0
SCALE
  5
2D72
102
{ACAD_REACTORS
330
2D66
102
}
330
2D66
100
AcDbScale
 70
     0
300
1:100
140
1.0
141
100.0
290
     0
  0
SCALE
  5
2D73
102
{ACAD_REACTORS
330
2D66
102
}
330
2D66
100
AcDbScale
 70
     0
300
2:1
140
2.0
141
1.0
290
     0
  0
SCALE
  5
2D74
102
{ACAD_REACTORS
330
2D66
102
}
330
2D66
100
AcDbScale
 70
     0
300
4:1
140
4.0
141
1.0
290
     0
  0
SCALE
  5
2D75
102
{ACAD_REACTORS
330
2D66
102
}
330
2D66
100
AcDbScale
 70
     0
300
8:1
140
8.0
141
1.0
290
     0
  0
SCALE
  5
2D76
102
{ACAD_REACTORS
330
2D66
102
}
330
2D66
100
AcDbScale
 70
     0
300
10:1
140
10.0
141
1.0
290
     0
  0
SCALE
  5
2D77
102
{ACAD_REACTORS
330
2D66
102
}
330
2D66
100
AcDbScale
 70
     0
300
100:1
140
100.0
141
1.0
290
     0
  0
SCALE
  5
2D78
102
{ACAD_REACTORS
330
2D66
102
}
330
2D66
100
AcDbScale
 70
     0
300
1/128" = 1'-0"
140
0.0078125
141
12.0
290
     0
  0
SCALE
  5
2D79
102
{ACAD_REACTORS
330
2D66
102
}
330
2D66
100
AcDbScale
 70
     0
300
1/64" = 1'-0"
140
0.015625
141
12.0
290
     0
  0
SCALE
  5
2D7A
102
{ACAD_REACTORS
330
2D66
102
}
330
2D66
100
AcDbScale
 70
     0
300
1/32" = 1'-0"
140
0.03125
141
12.0
290
     0
  0
SCALE
  5
2D7B
102
{ACAD_REACTORS
330
2D66
102
}
330
2D66
100
AcDbScale
 70
     0
300
1/16" = 1'-0"
140
0.0625
141
12.0
290
     0
  0
SCALE
  5
2D7C
102
{ACAD_REACTORS
330
2D66
102
}
330
2D66
100
AcDbScale
 70
     0
300
3/32" = 1'-0"
140
0.09375
141
12.0
290
     0
  0
SCALE
  5
2D7D
102
{ACAD_REACTORS
330
2D66
102
}
330
2D66
100
AcDbScale
 70
     0
300
1/8" = 1'-0"
140
0.125
141
12.0
290
     0
  0
SCALE
  5
2D7E
102
{ACAD_REACTORS
330
2D66
102
}
330
2D66
100
AcDbScale
 70
     0
300
3/16" = 1'-0"
140
0.1875
141
12.0
290
     0
  0
SCALE
  5
2D7F
102
{ACAD_REACTORS
330
2D66
102
}
330
2D66
100
AcDbScale
 70
     0
300
1/4" = 1'-0"
140
0.25
141
12.0
290
     0
  0
SCALE
  5
2D80
102
{ACAD_REACTORS
330
2D66
102
}
330
2D66
100
AcDbScale
 70
     0
300
3/8" = 1'-0"
140
0.375
141
12.0
290
     0
  0
SCALE
  5
2D81
102
{ACAD_REACTORS
330
2D66
102
}
330
2D66
100
AcDbScale
 70
     0
300
1/2" = 1'-0"
140
0.5
141
12.0
290
     0
  0
SCALE
  5
2D82
102
{ACAD_REACTORS
330
2D66
102
}
330
2D66
100
AcDbScale
 70
     0
300
3/4" = 1'-0"
140
0.75
141
12.0
290
     0
  0
SCALE
  5
2D83
102
{ACAD_REACTORS
330
2D66
102
}
330
2D66
100
AcDbScale
 70
     0
300
1" = 1'-0"
140
1.0
141
12.0
290
     0
  0
SCALE
  5
2D84
102
{ACAD_REACTORS
330
2D66
102
}
330
2D66
100
AcDbScale
 70
     0
300
1-1/2" = 1'-0"
140
1.5
141
12.0
290
     0
  0
SCALE
  5
2D85
102
{ACAD_REACTORS
330
2D66
102
}
330
2D66
100
AcDbScale
 70
     0
300
3" = 1'-0"
140
3.0
141
12.0
290
     0
  0
SCALE
  5
2D86
102
{ACAD_REACTORS
330
2D66
102
}
330
2D66
100
AcDbScale
 70
     0
300
6" = 1'-0"
140
6.0
141
12.0
290
     0
  0
SCALE
  5
2D87
102
{ACAD_REACTORS
330
2D66
102
}
330
2D66
100
AcDbScale
 70
     0
300
1'-0" = 1'-0"
140
12.0
141
12.0
290
     0
  0
TABLESTYLE
  5
2D98
102
{ACAD_XDICTIONARY
360
2F82
102
}
102
{ACAD_REACTORS
330
2D97
102
}
330
2D97
100
AcDbTableStyle
  3
Standard
 70
     0
 71
     0
 40
0.06
 41
0.06
280
     0
281
     0
  7
STANDARD
140
0.18
170
     2
 62
     0
 63
     7
283
     0
274
    -2
284
     1
 64
     0
275
    -2
285
     1
 65
     0
276
    -2
286
     1
 66
     0
277
    -2
287
     1
 67
     0
278
    -2
288
     1
 68
     0
279
    -2
289
     1
 69
     0
  7
STANDARD
140
0.25
170
     5
 62
     0
 63
     7
283
     0
274
    -2
284
     1
 64
     0
275
    -2
285
     1
 65
     0
276
    -2
286
     1
 66
     0
277
    -2
287
     1
 67
     0
278
    -2
288
     1
 68
     0
279
    -2
289
     1
 69
     0
  7
STANDARD
140
0.18
170
     5
 62
     0
 63
     7
283
     0
274
    -2
284
     1
 64
     0
275
    -2
285
     1
 65
     0
276
    -2
286
     1
 66
     0
277
    -2
287
     1
 67
     0
278
    -2
288
     1
 68
     0
279
    -2
289
     1
 69
     0
  0
VISUALSTYLE
  5
2D5B
102
{ACAD_REACTORS
330
2D55
102
}
330
2D55
100
AcDbVisualStyle
  2
2dWireframe
 70
     4
 71
     0
 72
     2
 73
     0
 90
        0
 40
-0.6
 41
-30.0
 62
     5
 63
     7
 74
     1
 91
        4
 64
     7
 65
   257
 75
     1
175
     1
 42
1.0
 92
        0
 66
   257
 43
1.0
 76
     1
 77
     6
 78
     2
 67
     7
 79
     5
170
     0
171
     0
290
     0
174
     0
 93
        1
 44
0.0
173
     0
291
     0
 45
0.0
1001
ACAD
1000
AcDbSavedByObjectVersion
1070
     0
  0
VISUALSTYLE
  5
2D5D
102
{ACAD_REACTORS
330
2D55
102
}
330
2D55
100
AcDbVisualStyle
  2
3D Hidden
 70
     6
 71
     1
 72
     2
 73
     2
 90
        0
 40
-0.6
 41
-30.0
 62
     5
 63
     7
 74
     2
 91
        2
 64
     7
 65
   257
 75
     2
175
     1
 42
40.0
 92
        0
 66
   257
 43
1.0
 76
     1
 77
     6
 78
     2
 67
     7
 79
     3
170
     0
171
     0
290
     0
174
     0
 93
        1
 44
0.0
173
     0
291
     0
 45
0.0
1001
ACAD
1000
AcDbSavedByObjectVersion
1070
     0
  0
VISUALSTYLE
  5
2D5C
102
{ACAD_REACTORS
330
2D55
102
}
330
2D55
100
AcDbVisualStyle
  2
3dWireframe
 70
     5
 71
     0
 72
     2
 73
     0
 90
        0
 40
-0.6
 41
-30.0
 62
     5
 63
     7
 74
     1
 91
        4
 64
     7
 65
   257
 75
     1
175
     1
 42
1.0
 92
        0
 66
   257
 43
1.0
 76
     1
 77
     6
 78
     2
 67
     7
 79
     5
170
     0
171
     0
290
     0
174
     0
 93
        1
 44
0.0
173
     0
291
     0
 45
0.0
1001
ACAD
1000
AcDbSavedByObjectVersion
1070
     0
  0
VISUALSTYLE
  5
2D5A
102
{ACAD_REACTORS
330
2D55
102
}
330
2D55
100
AcDbVisualStyle
  2
Basic
 70
     7
 71
     1
 72
     0
 73
     1
 90
        0
 40
-0.6
 41
-30.0
 62
     5
 63
     7
 74
     0
 91
        4
 64
     7
 65
   257
 75
     1
175
     1
 42
1.0
 92
        8
 66
     7
 43
1.0
 76
     1
 77
     6
 78
     2
 67
     7
 79
     5
170
     0
171
     0
290
     0
174
     0
 93
        1
 44
0.0
173
     0
291
     1
 45
0.0
1001
ACAD
1000
AcDbSavedByObjectVersion
1070
     0
  0
VISUALSTYLE
  5
2D61
102
{ACAD_REACTORS
330
2D55
102
}
330
2D55
100
AcDbVisualStyle
  2
Brighten
 70
    12
 71
     2
 72
     2
 73
     0
 90
        0
 40
-0.6
 41
-30.0
 62
     5
 63
     7
 74
     1
 91
        4
 64
     7
 65
   257
 75
     1
175
     1
 42
1.0
 92
        8
 66
     7
 43
1.0
 76
     1
 77
     6
 78
     2
 67
     7
 79
     5
170
     0
171
     0
290
     0
174
     0
 93
        1
 44
50.0
173
     0
291
     1
 45
0.0
1001
ACAD
1000
AcDbSavedByObjectVersion
1070
     0
  0
VISUALSTYLE
  5
2D65
102
{ACAD_REACTORS
330
2D55
102
}
330
2D55
100
AcDbVisualStyle
  2
ColorChange
 70
    16
 71
     2
 72
     2
 73
     3
 90
        0
 40
-0.6
 41
-30.0
 62
     5
 63
     8
 74
     1
 91
        4
 64
     7
 65
   257
 75
     1
175
     1
 42
1.0
 92
        8
 66
     8
 43
1.0
 76
     1
 77
     6
 78
     2
 67
     7
 79
     5
170
     0
171
     0
290
     0
174
     0
 93
        1
 44
0.0
173
     0
291
     1
 45
0.0
1001
ACAD
1000
AcDbSavedByObjectVersion
1070
     0
  0
VISUALSTYLE
  5
2D5E
102
{ACAD_REACTORS
330
2D55
102
}
330
2D55
100
AcDbVisualStyle
  2
Conceptual
 70
     9
 71
     3
 72
     2
 73
     0
 90
        0
 40
-0.6
 41
-30.0
 62
     5
 63
     7
 74
     2
 91
        2
 64
     7
 65
   257
 75
     1
175
     1
 42
40.0
 92
        8
 66
     7
 43
1.0
 76
     1
 77
     6
 78
     2
 67
     7
 79
     3
170
     0
171
     0
290
     0
174
     0
 93
        1
 44
0.0
173
     0
291
     0
 45
0.0
1001
ACAD
1000
AcDbSavedByObjectVersion
1070
     0
  0
VISUALSTYLE
  5
2D60
102
{ACAD_REACTORS
330
2D55
102
}
330
2D55
100
AcDbVisualStyle
  2
Dim
 70
    11
 71
     2
 72
     2
 73
     0
 90
        0
 40
-0.6
 41
-30.0
 62
     5
 63
     7
 74
     1
 91
        4
 64
     7
 65
   257
 75
     1
175
     1
 42
1.0
 92
        8
 66
     7
 43
1.0
 76
     1
 77
     6
 78
     2
 67
     7
 79
     5
170
     0
171
     0
290
     0
174
     0
 93
        1
 44
-50.0
173
     0
291
     1
 45
0.0
1001
ACAD
1000
AcDbSavedByObjectVersion
1070
     0
  0
VISUALSTYLE
  5
2D64
102
{ACAD_REACTORS
330
2D55
102
}
330
2D55
100
AcDbVisualStyle
  2
Facepattern
 70
    15
 71
     2
 72
     2
 73
     0
 90
        0
 40
-0.6
 41
-30.0
 62
     5
 63
     7
 74
     1
 91
        4
 64
     7
 65
   257
 75
     1
175
     1
 42
1.0
 92
        8
 66
     7
 43
1.0
 76
     1
 77
     6
 78
     2
 67
     7
 79
     5
170
     0
171
     0
290
     0
174
     0
 93
        1
 44
0.0
173
     0
291
     1
 45
0.0
1001
ACAD
1000
AcDbSavedByObjectVersion
1070
     0
  0
VISUALSTYLE
  5
2D56
102
{ACAD_REACTORS
330
2D55
102
}
330
2D55
100
AcDbVisualStyle
  2
Flat
 70
     0
 71
     2
 72
     1
 73
     1
 90
        2
 40
-0.6
 41
30.0
 62
     5
 63
     7
 74
     0
 91
        4
 64
     7
 65
   257
 75
     1
175
     1
 42
1.0
 92
        8
 66
     7
 43
1.0
 76
     1
 77
     6
 78
     2
 67
     7
 79
     5
170
     0
171
     0
290
     0
174
     0
 93
       13
 44
0.0
173
     0
291
     1
 45
0.0
1001
ACAD
1000
AcDbSavedByObjectVersion
1070
     0
  0
VISUALSTYLE
  5
2D57
102
{ACAD_REACTORS
330
2D55
102
}
330
2D55
100
AcDbVisualStyle
  2
FlatWithEdges
 70
     1
 71
     2
 72
     1
 73
     1
 90
        2
 40
-0.6
 41
30.0
 62
     5
 63
     7
 74
     1
 91
        4
 64
     7
 65
   257
 75
     1
175
     1
 42
1.0
 92
        0
 66
   257
 43
1.0
 76
     1
 77
     6
 78
     2
 67
     7
 79
     5
170
     0
171
     0
290
     0
174
     0
 93
       13
 44
0.0
173
     0
291
     1
 45
0.0
1001
ACAD
1000
AcDbSavedByObjectVersion
1070
     0
  0
VISUALSTYLE
  5
2D58
102
{ACAD_REACTORS
330
2D55
102
}
330
2D55
100
AcDbVisualStyle
  2
Gouraud
 70
     2
 71
     2
 72
     2
 73
     1
 90
        2
 40
-0.6
 41
30.0
 62
     5
 63
     7
 74
     0
 91
        4
 64
     7
 65
   257
 75
     1
175
     1
 42
1.0
 92
        0
 66
     7
 43
1.0
 76
     1
 77
     6
 78
     2
 67
     7
 79
     5
170
     0
171
     0
290
     0
174
     0
 93
       13
 44
0.0
173
     0
291
     1
 45
0.0
1001
ACAD
1000
AcDbSavedByObjectVersion
1070
     0
  0
VISUALSTYLE
  5
2D59
102
{ACAD_REACTORS
330
2D55
102
}
330
2D55
100
AcDbVisualStyle
  2
GouraudWithEdges
 70
     3
 71
     2
 72
     2
 73
     1
 90
        2
 40
-0.6
 41
30.0
 62
     5
 63
     7
 74
     1
 91
        4
 64
     7
 65
   257
 75
     1
175
     1
 42
1.0
 92
        0
 66
   257
 43
1.0
 76
     1
 77
     6
 78
     2
 67
     7
 79
     5
170
     0
171
     0
290
     0
174
     0
 93
       13
 44
0.0
173
     0
291
     1
 45
0.0
1001
ACAD
1000
AcDbSavedByObjectVersion
1070
     0
  0
VISUALSTYLE
  5
2D63
102
{ACAD_REACTORS
330
2D55
102
}
330
2D55
100
AcDbVisualStyle
  2
Linepattern
 70
    14
 71
     2
 72
     2
 73
     0
 90
        0
 40
-0.6
 41
-30.0
 62
     5
 63
     7
 74
     1
 91
        4
 64
     7
 65
   257
 75
     7
175
     7
 42
1.0
 92
        8
 66
     7
 43
1.0
 76
     1
 77
     6
 78
     2
 67
     7
 79
     5
170
     0
171
     0
290
     0
174
     0
 93
        1
 44
0.0
173
     0
291
     1
 45
0.0
1001
ACAD
1000
AcDbSavedByObjectVersion
1070
     0
  0
VISUALSTYLE
  5
2D5F
102
{ACAD_REACTORS
330
2D55
102
}
330
2D55
100
AcDbVisualStyle
  2
Realistic
 70
     8
 71
     2
 72
     2
 73
     0
 90
        0
 40
-0.6
 41
-30.0
 62
     5
 63
     7
 74
     1
 91
        0
 64
     7
 65
   257
 75
     1
175
     1
 42
1.0
 92
        8
 66
     8
 43
1.0
 76
     1
 77
     6
 78
     2
 67
     7
 79
     5
170
     0
171
     0
290
     0
174
     0
 93
       13
 44
0.0
173
     0
291
     0
 45
0.0
1001
ACAD
1000
AcDbSavedByObjectVersion
1070
     0
  0
VISUALSTYLE
  5
2D62
102
{ACAD_REACTORS
330
2D55
102
}
330
2D55
100
AcDbVisualStyle
  2
Thicken
 70
    13
 71
     2
 72
     2
 73
     0
 90
        0
 40
-0.6
 41
-30.0
 62
     5
 63
     7
 74
     1
 91
        4
 64
     7
 65
   257
 75
     1
175
     1
 42
1.0
 92
       12
 66
     7
 43
1.0
 76
     1
 77
     6
 78
     2
 67
     7
 79
     5
170
     0
171
     0
290
     0
174
     0
 93
        1
 44
0.0
173
     0
291
     1
 45
0.0
1001
ACAD
1000
AcDbSavedByObjectVersion
1070
     0
  0
DICTIONARYVAR
  5
2F7E
102
{ACAD_REACTORS
330
2F7B
102
}
330
2F7B
100
DictionaryVariables
280
     0
  1
1:1
  0
DICTIONARYVAR
  5
2F7D
102
{ACAD_REACTORS
330
2F7B
102
}
330
2F7B
100
DictionaryVariables
280
     0
  1
STANDARD
  0
DICTIONARYVAR
  5
2F7C
102
{ACAD_REACTORS
330
2F7B
102
}
330
2F7B
100
DictionaryVariables
280
     0
  1
STANDARD
  0
DICTIONARYVAR
  5
2F81
102
{ACAD_REACTORS
330
2F7B
102
}
330
2F7B
100
DictionaryVariables
280
     0
  1
1
  0
DICTIONARYVAR
  5
2F80
102
{ACAD_REACTORS
330
2F7B
102
}
330
2F7B
100
DictionaryVariables
280
     0
  1
1
  0
DICTIONARYVAR
  5
2F7F
102
{ACAD_REACTORS
330
2F7B
102
}
330
2F7B
100
DictionaryVariables
280
     0
  1
127
  0
DICTIONARY
  5
2F3C
102
{ACAD_REACTORS
330
2F2E
102
}
330
2F2E
100
AcDbDictionary
281
     1
  0
DICTIONARY
  5
2E7C
102
{ACAD_REACTORS
330
2E7B
102
}
330
2E7B
100
AcDbDictionary
281
     1
  3
DWGSETTINGS
350
2E7D
  3
TRANSSETTINGS
350
2E7E
  0
LAYER_INDEX
  5
2F6E
102
{ACAD_REACTORS
330
2F6D
102
}
330
2F6D
100
AcDbIndex
 40
2456210.803672986
100
AcDbLayerIndex
  8
0
360
2F6F
 90
        2
  8
OUTLINE
360
2F70
 90
       15
  8
SIZE
360
2F71
 90
       24
  8
BASIS
360
2F72
 90
        1
  8
DETAIL
360
2F73
 90
       19
  8
ARRANGE
360
2F74
 90
        2
  8
DEFPOINTS
360
2F75
 90
        0
  8
ETC
360
2F76
 90
        3
  8
FIX
360
2F77
 90
        0
  8
NOTE
360
2F78
 90
        4
  8
SERVICESPACE
360
2F79
 90
        0
  8
SYMBOLLINE
360
2F7A
 90
        0
  0
DICTIONARY
  5
2F91
330
2DA3
100
AcDbDictionary
280
     1
281
     1
  3
ACAD_XREC_ROUNDTRIP
360
2F92
  0
DICTIONARY
  5
2F8F
330
2D9F
100
AcDbDictionary
280
     1
281
     1
  3
ACAD_XREC_ROUNDTRIP
360
2F90
  0
DICTIONARY
  5
2D46
330
2D45
100
AcDbDictionary
280
     1
281
     1
  3
ACAD_XREC_ROUNDTRIP
360
2F8C
  3
BUMPTILE
360
2D48
  3
DIFFUSETILE
360
2D47
  3
OPACITYTILE
360
2D4B
  3
REFLECTIONTILE
360
2D4A
  3
REFRACTIONTILE
360
2D4C
  3
SPECULARTILE
360
2D49
  0
DICTIONARY
  5
2D3E
330
2D3D
100
AcDbDictionary
280
     1
281
     1
  3
ACAD_XREC_ROUNDTRIP
360
2F8B
  3
BUMPTILE
360
2D40
  3
DIFFUSETILE
360
2D3F
  3
OPACITYTILE
360
2D43
  3
REFLECTIONTILE
360
2D42
  3
REFRACTIONTILE
360
2D44
  3
SPECULARTILE
360
2D41
  0
DICTIONARY
  5
2D4E
330
2D4D
100
AcDbDictionary
280
     1
281
     1
  3
ACAD_XREC_ROUNDTRIP
360
2F8D
  3
BUMPTILE
360
2D50
  3
DIFFUSETILE
360
2D4F
  3
OPACITYTILE
360
2D53
  3
REFLECTIONTILE
360
2D52
  3
REFRACTIONTILE
360
2D54
  3
SPECULARTILE
360
2D51
  0
DICTIONARY
  5
2F82
330
2D98
100
AcDbDictionary
280
     1
281
     1
  3
ACAD_ROUNDTRIP_2008_TABLESTYLE_CELLSTYLEMAP
360
2F83
  3
ACAD_XREC_ROUNDTRIP
360
2F8E
  0
IDBUFFER
  5
2F6F
330
0
100
AcDbIdBuffer
330
2A5C
330
2A5D
  0
IDBUFFER
  5
2F70
330
0
100
AcDbIdBuffer
330
953
330
954
330
955
330
956
330
957
330
958
330
2A60
330
2A61
330
2A62
330
2A63
330
2A64
330
2A65
330
2A66
330
2A67
330
2A68
  0
IDBUFFER
  5
2F71
330
0
100
AcDbIdBuffer
330
2A7F
330
2A80
330
2A81
330
2A82
330
2A83
330
2A84
330
2A85
330
2A86
330
2A6F
330
2A70
330
2A71
330
2A72
330
2A73
330
2A74
330
2A75
330
2A76
330
2A77
330
2A78
330
2A79
330
2A7A
330
2A7B
330
2A7C
330
2A7D
330
2A7E
  0
IDBUFFER
  5
2F72
330
0
100
AcDbIdBuffer
330
2A4B
  0
IDBUFFER
  5
2F73
330
0
100
AcDbIdBuffer
330
2A6C
330
2A6D
330
2A6E
330
2A4C
330
2A4D
330
2A4E
330
2A4F
330
2A50
330
2A51
330
2A52
330
2A54
330
2A56
330
2A57
330
2A58
330
2A5A
330
2A5B
330
2A69
330
2A6A
330
2A6B
  0
IDBUFFER
  5
2F74
330
0
100
AcDbIdBuffer
330
2A4A
330
2A59
  0
IDBUFFER
  5
2F75
330
0
100
AcDbIdBuffer
  0
IDBUFFER
  5
2F76
330
0
100
AcDbIdBuffer
330
2A47
330
2A48
330
2A49
  0
IDBUFFER
  5
2F77
330
0
100
AcDbIdBuffer
  0
IDBUFFER
  5
2F78
330
0
100
AcDbIdBuffer
330
2A53
330
2A55
330
2A5E
330
2A5F
  0
IDBUFFER
  5
2F79
330
0
100
AcDbIdBuffer
  0
IDBUFFER
  5
2F7A
330
0
100
AcDbIdBuffer
  0
XRECORD
  5
2F92
102
{ACAD_REACTORS
330
2F91
102
}
330
2F91
100
AcDbXrecord
280
     1
102
SHADEPLOT
 70
     0
102
SHADEPLOTRESLEVEL
 70
     2
102
SHADEPLOTCUSTOMDPI
 70
   300
  0
XRECORD
  5
2F90
102
{ACAD_REACTORS
330
2F8F
102
}
330
2F8F
100
AcDbXrecord
280
     1
102
SHADEPLOT
 70
     0
102
SHADEPLOTRESLEVEL
 70
     2
102
SHADEPLOTCUSTOMDPI
 70
   300
  0
XRECORD
  5
2F8C
102
{ACAD_REACTORS
330
2D46
102
}
330
2D46
100
AcDbXrecord
280
     1
102
MATERIAL
148
0.0
149
0.0
149
0.0
 93
        0
 94
      127
282
     0
 72
     0
 77
     0
171
     0
175
     0
179
     0
273
     0
  0
XRECORD
  5
2D48
102
{ACAD_REACTORS
330
2D46
102
}
330
2D46
100
AcDbXrecord
280
     1
270
     1
271
     1
  0
XRECORD
  5
2D47
102
{ACAD_REACTORS
330
2D46
102
}
330
2D46
100
AcDbXrecord
280
     1
270
     1
271
     1
  0
XRECORD
  5
2D4B
102
{ACAD_REACTORS
330
2D46
102
}
330
2D46
100
AcDbXrecord
280
     1
270
     1
271
     1
  0
XRECORD
  5
2D4A
102
{ACAD_REACTORS
330
2D46
102
}
330
2D46
100
AcDbXrecord
280
     1
270
     1
271
     1
  0
XRECORD
  5
2D4C
102
{ACAD_REACTORS
330
2D46
102
}
330
2D46
100
AcDbXrecord
280
     1
270
     1
271
     1
  0
XRECORD
  5
2D49
102
{ACAD_REACTORS
330
2D46
102
}
330
2D46
100
AcDbXrecord
280
     1
270
     1
271
     1
  0
XRECORD
  5
2F8B
102
{ACAD_REACTORS
330
2D3E
102
}
330
2D3E
100
AcDbXrecord
280
     1
102
MATERIAL
148
0.0
149
0.0
149
0.0
 93
        0
 94
      127
282
     0
 72
     0
 77
     0
171
     0
175
     0
179
     0
273
     0
  0
XRECORD
  5
2D40
102
{ACAD_REACTORS
330
2D3E
102
}
330
2D3E
100
AcDbXrecord
280
     1
270
     1
271
     1
  0
XRECORD
  5
2D3F
102
{ACAD_REACTORS
330
2D3E
102
}
330
2D3E
100
AcDbXrecord
280
     1
270
     1
271
     1
  0
XRECORD
  5
2D43
102
{ACAD_REACTORS
330
2D3E
102
}
330
2D3E
100
AcDbXrecord
280
     1
270
     1
271
     1
  0
XRECORD
  5
2D42
102
{ACAD_REACTORS
330
2D3E
102
}
330
2D3E
100
AcDbXrecord
280
     1
270
     1
271
     1
  0
XRECORD
  5
2D44
102
{ACAD_REACTORS
330
2D3E
102
}
330
2D3E
100
AcDbXrecord
280
     1
270
     1
271
     1
  0
XRECORD
  5
2D41
102
{ACAD_REACTORS
330
2D3E
102
}
330
2D3E
100
AcDbXrecord
280
     1
270
     1
271
     1
  0
XRECORD
  5
2F8D
102
{ACAD_REACTORS
330
2D4E
102
}
330
2D4E
100
AcDbXrecord
280
     1
102
MATERIAL
148
0.0
149
0.0
149
0.0
 93
        0
 94
      127
282
     0
 72
     0
 77
     0
171
     0
175
     0
179
     0
273
     0
  0
XRECORD
  5
2D50
102
{ACAD_REACTORS
330
2D4E
102
}
330
2D4E
100
AcDbXrecord
280
     1
270
     1
271
     1
  0
XRECORD
  5
2D4F
102
{ACAD_REACTORS
330
2D4E
102
}
330
2D4E
100
AcDbXrecord
280
     1
270
     1
271
     1
  0
XRECORD
  5
2D53
102
{ACAD_REACTORS
330
2D4E
102
}
330
2D4E
100
AcDbXrecord
280
     1
270
     1
271
     1
  0
XRECORD
  5
2D52
102
{ACAD_REACTORS
330
2D4E
102
}
330
2D4E
100
AcDbXrecord
280
     1
270
     1
271
     1
  0
XRECORD
  5
2D54
102
{ACAD_REACTORS
330
2D4E
102
}
330
2D4E
100
AcDbXrecord
280
     1
270
     1
271
     1
  0
XRECORD
  5
2D51
102
{ACAD_REACTORS
330
2D4E
102
}
330
2D4E
100
AcDbXrecord
280
     1
270
     1
271
     1
  0
CELLSTYLEMAP
  5
2F83
102
{ACAD_REACTORS
330
2F82
102
}
330
2F82
100
AcDbCellStyleMap
 90
        3
300
CELLSTYLE
  1
TABLEFORMAT_BEGIN
 90
        5
170
     1
 91
        0
 92
    32768
 62
   257
 93
        1
300
CONTENTFORMAT
  1
CONTENTFORMAT_BEGIN
 90
        0
 91
        0
 92
      512
 93
        0
300

 40
0.0
140
1.0
 94
        5
 62
     0
340
2D89
144
0.25
309
CONTENTFORMAT_END
171
     0
 94
        0
309
TABLEFORMAT_END
  1
CELLSTYLE_BEGIN
 90
        1
 91
        1
300
_TITLE
309
CELLSTYLE_END
300
CELLSTYLE
  1
TABLEFORMAT_BEGIN
 90
        5
170
     1
 91
        0
 92
        0
 62
   257
 93
        1
300
CONTENTFORMAT
  1
CONTENTFORMAT_BEGIN
 90
        0
 91
        0
 92
      512
 93
        0
300

 40
0.0
140
1.0
 94
        5
 62
     0
340
2D89
144
0.18
309
CONTENTFORMAT_END
171
     0
 94
        0
309
TABLEFORMAT_END
  1
CELLSTYLE_BEGIN
 90
        2
 91
        1
300
_HEADER
309
CELLSTYLE_END
300
CELLSTYLE
  1
TABLEFORMAT_BEGIN
 90
        5
170
     1
 91
        0
 92
        0
 62
   257
 93
        1
300
CONTENTFORMAT
  1
CONTENTFORMAT_BEGIN
 90
        0
 91
        0
 92
      512
 93
        0
300

 40
0.0
140
1.0
 94
        2
 62
     0
340
2D89
144
0.18
309
CONTENTFORMAT_END
171
     0
 94
        0
309
TABLEFORMAT_END
  1
CELLSTYLE_BEGIN
 90
        3
 91
        2
300
_DATA
309
CELLSTYLE_END
  0
XRECORD
  5
2F8E
102
{ACAD_REACTORS
330
2F82
102
}
330
2F82
100
AcDbXrecord
280
     1
102
ACAD_ROUNDTRIP_PRE2007_TABLESTYLE
 90
      512
 91
        0
  1

 92
      512
 93
        0
  2

 94
      512
 95
        0
  3

  0
ENDSEC
  0
EOF
