  0
SECTION
  2
HEADER
  9
$ACADVER
  1
AC1015
  9
$ACADMAINTVER
 70
    20
  9
$DWGCODEPAGE
  3
ANSI_932
  9
$INSBASE
 10
0.0
 20
0.0
 30
0.0
  9
$EXTMIN
 10
-1077.595114277968
 20
-949.1579934542924
 30
0.0
  9
$EXTMAX
 10
1189.432466841654
 20
732.7597012417773
 30
50.0
  9
$LIMMIN
 10
-2970.0
 20
-2100.0
  9
$LIMMAX
 10
2970.0
 20
2100.0
  9
$ORTHOMODE
 70
     1
  9
$REGENMODE
 70
     0
  9
$FILLMODE
 70
     1
  9
$QTEXTMODE
 70
     0
  9
$MIRRTEXT
 70
     0
  9
$LTSCALE
 40
20.0
  9
$ATTMODE
 70
     1
  9
$TEXTSIZE
 40
64.0
  9
$TRACEWID
 40
0.05
  9
$TEXTSTYLE
  7
STANDARD
  9
$CLAYER
  8
0
  9
$CELTYPE
  6
ByLayer
  9
$CECOLOR
 62
   256
  9
$CELTSCALE
 40
1.0
  9
$DISPSILH
 70
     0
  9
$DIMSCALE
 40
1.0
  9
$DIMASZ
 40
0.12
  9
$DIMEXO
 40
0.05
  9
$DIMDLI
 40
0.5
  9
$DIMRND
 40
0.0
  9
$DIMDLE
 40
0.0
  9
$DIMEXE
 40
0.1
  9
$DIMTP
 40
0.1
  9
$DIMTM
 40
0.1
  9
$DIMTXT
 40
0.12
  9
$DIMCEN
 40
0.0
  9
$DIMTSZ
 40
0.0
  9
$DIMTOL
 70
     0
  9
$DIMLIM
 70
     0
  9
$DIMTIH
 70
     1
  9
$DIMTOH
 70
     1
  9
$DIMSE1
 70
     0
  9
$DIMSE2
 70
     0
  9
$DIMTAD
 70
     0
  9
$DIMZIN
 70
     7
  9
$DIMBLK
  1

  9
$DIMASO
 70
     1
  9
$DIMSHO
 70
     0
  9
$DIMPOST
  1

  9
$DIMAPOST
  1
mm
  9
$DIMALT
 70
     0
  9
$DIMALTD
 70
     2
  9
$DIMALTF
 40
25.4
  9
$DIMLFAC
 40
1.0
  9
$DIMTOFL
 70
     0
  9
$DIMTVP
 40
0.0
  9
$DIMTIX
 70
     0
  9
$DIMSOXD
 70
     0
  9
$DIMSAH
 70
     0
  9
$DIMBLK1
  1

  9
$DIMBLK2
  1

  9
$DIMSTYLE
  2
AM_ANSI
  9
$DIMCLRD
 70
   256
  9
$DIMCLRE
 70
   256
  9
$DIMCLRT
 70
     2
  9
$DIMTFAC
 40
0.71
  9
$DIMGAP
 40
0.06
  9
$DIMJUST
 70
     0
  9
$DIMSD1
 70
     0
  9
$DIMSD2
 70
     0
  9
$DIMTOLJ
 70
     1
  9
$DIMTZIN
 70
     7
  9
$DIMALTZ
 70
     0
  9
$DIMALTTZ
 70
     0
  9
$DIMUPT
 70
     0
  9
$DIMDEC
 70
     4
  9
$DIMTDEC
 70
     4
  9
$DIMALTU
 70
     2
  9
$DIMALTTD
 70
     4
  9
$DIMTXSTY
  7
STANDARD
  9
$DIMAUNIT
 70
     0
  9
$DIMADEC
 70
     0
  9
$DIMALTRND
 40
0.0
  9
$DIMAZIN
 70
     2
  9
$DIMDSEP
 70
    46
  9
$DIMATFIT
 70
     3
  9
$DIMFRAC
 70
     0
  9
$DIMLDRBLK
  1

  9
$DIMLUNIT
 70
     2
  9
$DIMLWD
 70
    -1
  9
$DIMLWE
 70
    -1
  9
$DIMTMOVE
 70
     0
  9
$LUNITS
 70
     2
  9
$LUPREC
 70
     4
  9
$SKETCHINC
 40
0.1
  9
$FILLETRAD
 40
4.0
  9
$AUNITS
 70
     1
  9
$AUPREC
 70
     3
  9
$MENU
  1
ACAD
  9
$ELEVATION
 40
0.0
  9
$PELEVATION
 40
0.0
  9
$THICKNESS
 40
50.0
  9
$LIMCHECK
 70
     0
  9
$CHAMFERA
 40
0.0
  9
$CHAMFERB
 40
0.0
  9
$CHAMFERC
 40
0.0
  9
$CHAMFERD
 40
0.0
  9
$SKPOLY
 70
     0
  9
$TDCREATE
 40
2452321.396199653
  9
$TDUCREATE
 40
2452321.021199653
  9
$TDUPDATE
 40
2456210.798213553
  9
$TDUUPDATE
 40
2456210.423213553
  9
$TDINDWG
 40
1.0411204630
  9
$TDUSRTIMER
 40
1.0411146991
  9
$USRTIMER
 70
     1
  9
$ANGBASE
 50
0.0
  9
$ANGDIR
 70
     0
  9
$PDMODE
 70
     3
  9
$PDSIZE
 40
-2.0
  9
$PLINEWID
 40
0.0
  9
$SPLFRAME
 70
     0
  9
$SPLINETYPE
 70
     6
  9
$SPLINESEGS
 70
     8
  9
$HANDSEED
  5
2F02
  9
$SURFTAB1
 70
     6
  9
$SURFTAB2
 70
     6
  9
$SURFTYPE
 70
     6
  9
$SURFU
 70
     6
  9
$SURFV
 70
     6
  9
$UCSBASE
  2

  9
$UCSNAME
  2

  9
$UCSORG
 10
0.0
 20
0.0
 30
0.0
  9
$UCSXDIR
 10
1.0
 20
0.0
 30
0.0
  9
$UCSYDIR
 10
0.0
 20
1.0
 30
0.0
  9
$UCSORTHOREF
  2

  9
$UCSORTHOVIEW
 70
     0
  9
$UCSORGTOP
 10
0.0
 20
0.0
 30
0.0
  9
$UCSORGBOTTOM
 10
0.0
 20
0.0
 30
0.0
  9
$UCSORGLEFT
 10
0.0
 20
0.0
 30
0.0
  9
$UCSORGRIGHT
 10
0.0
 20
0.0
 30
0.0
  9
$UCSORGFRONT
 10
0.0
 20
0.0
 30
0.0
  9
$UCSORGBACK
 10
0.0
 20
0.0
 30
0.0
  9
$PUCSBASE
  2

  9
$PUCSNAME
  2

  9
$PUCSORG
 10
0.0
 20
0.0
 30
0.0
  9
$PUCSXDIR
 10
1.0
 20
0.0
 30
0.0
  9
$PUCSYDIR
 10
0.0
 20
1.0
 30
0.0
  9
$PUCSORTHOREF
  2

  9
$PUCSORTHOVIEW
 70
     0
  9
$PUCSORGTOP
 10
0.0
 20
0.0
 30
0.0
  9
$PUCSORGBOTTOM
 10
0.0
 20
0.0
 30
0.0
  9
$PUCSORGLEFT
 10
0.0
 20
0.0
 30
0.0
  9
$PUCSORGRIGHT
 10
0.0
 20
0.0
 30
0.0
  9
$PUCSORGFRONT
 10
0.0
 20
0.0
 30
0.0
  9
$PUCSORGBACK
 10
0.0
 20
0.0
 30
0.0
  9
$USERI1
 70
     0
  9
$USERI2
 70
     0
  9
$USERI3
 70
     0
  9
$USERI4
 70
     0
  9
$USERI5
 70
     0
  9
$USERR1
 40
20.0
  9
$USERR2
 40
0.0
  9
$USERR3
 40
0.0
  9
$USERR4
 40
0.0
  9
$USERR5
 40
0.0
  9
$WORLDVIEW
 70
     1
  9
$SHADEDGE
 70
     3
  9
$SHADEDIF
 70
    70
  9
$TILEMODE
 70
     1
  9
$MAXACTVP
 70
    64
  9
$PINSBASE
 10
0.0
 20
0.0
 30
0.0
  9
$PLIMCHECK
 70
     0
  9
$PEXTMIN
 10
1.000000000000000E+20
 20
1.000000000000000E+20
 30
1.000000000000000E+20
  9
$PEXTMAX
 10
-1.000000000000000E+20
 20
-1.000000000000000E+20
 30
-1.000000000000000E+20
  9
$PLIMMIN
 10
0.0
 20
0.0
  9
$PLIMMAX
 10
12.0
 20
9.0
  9
$UNITMODE
 70
     0
  9
$VISRETAIN
 70
     1
  9
$PLINEGEN
 70
     0
  9
$PSLTSCALE
 70
     1
  9
$TREEDEPTH
 70
  3020
  9
$CMLSTYLE
  2
Standard
  9
$CMLJUST
 70
     0
  9
$CMLSCALE
 40
1.0
  9
$PROXYGRAPHICS
 70
     1
  9
$MEASUREMENT
 70
     0
  9
$CELWEIGHT
370
    -1
  9
$ENDCAPS
280
     0
  9
$JOINSTYLE
280
     0
  9
$LWDISPLAY
290
     0
  9
$INSUNITS
 70
     0
  9
$HYPERLINKBASE
  1

  9
$STYLESHEET
  1

  9
$XEDIT
290
     1
  9
$CEPSNTYPE
380
     0
  9
$PSTYLEMODE
290
     1
  9
$FINGERPRINTGUID
  2
{DF6D1C46-655C-4209-824C-5922BD6627B4}
  9
$VERSIONGUID
  2
{8655B51B-241F-4891-8F57-EABE2F4236FF}
  9
$EXTNAMES
290
     1
  9
$PSVPSCALE
 40
0.0
  9
$OLESTARTUP
290
     0
  0
ENDSEC
  0
SECTION
  2
CLASSES
  0
CLASS
  1
ACDBDICTIONARYWDFLT
  2
AcDbDictionaryWithDefault
  3
ObjectDBX Classes
 90
        0
280
     0
281
     0
  0
CLASS
  1
MATERIAL
  2
AcDbMaterial
  3
ObjectDBX Classes
 90
     1153
280
     0
281
     0
  0
CLASS
  1
VISUALSTYLE
  2
AcDbVisualStyle
  3
ObjectDBX Classes
 90
     4095
280
     0
281
     0
  0
CLASS
  1
SCALE
  2
AcDbScale
  3
ObjectDBX Classes
 90
     1153
280
     0
281
     0
  0
CLASS
  1
TABLESTYLE
  2
AcDbTableStyle
  3
ObjectDBX Classes
 90
     4095
280
     0
281
     0
  0
CLASS
  1
MLEADERSTYLE
  2
AcDbMLeaderStyle
  3
ACDB_MLEADERSTYLE_CLASS
 90
     4095
280
     0
281
     0
  0
CLASS
  1
AMGSETTINGSOBJ
  2
AmgSettingsObj
  3
"AcadM|Product Description: AutoCAD Mechanical|Company: Autodesk, Inc."
 90
     1024
280
     0
281
     0
  0
CLASS
  1
ACME_DOCUMENT
  2
AcMeDbDoc
  3
AcMeServices
 90
     1024
280
     0
281
     0
  0
CLASS
  1
ACMESCOPE
  2
AcMeScope
  3
AcMeServices
 90
     1024
280
     0
281
     0
  0
CLASS
  1
ACMECOMMANDHISTORY
  2
AcMeCommandHistory
  3
AcMeServices
 90
     1024
280
     0
281
     0
  0
CLASS
  1
ACIMSYSVARMAN
  2
AcImSysVarManager
  3
AcMeServices
 90
     1024
280
     0
281
     0
  0
CLASS
  1
ACIMREALSYSVAR
  2
AcImRealSysVar
  3
AcMeServices
 90
     1024
280
     0
281
     0
  0
CLASS
  1
ACIMINTSYSVAR
  2
AcImIntSysVar
  3
AcMeServices
 90
     1024
280
     0
281
     0
  0
CLASS
  1
ACMEDRAWINGMAN
  2
AcMeDrawingMan
  3
AcMeServices
 90
     1024
280
     0
281
     0
  0
CLASS
  1
ACMEVIEW
  2
AcMeView
  3
AcMeServices
 90
     1024
280
     0
281
     0
  0
CLASS
  1
ACDBENTITYCACHE
  2
AcMeEntityCache
  3
AcMeServices
 90
     1024
280
     0
281
     0
  0
CLASS
  1
GSMANAGER
  2
AcMeGSManager
  3
AcMeServices
 90
     1024
280
     0
281
     0
  0
CLASS
  1
AMDTINTERNALREACTOR
  2
AmdtInternalReactor
  3
AcMeServices
 90
     1024
280
     0
281
     0
  0
CLASS
  1
ACMESTATEMGR
  2
AcMeStateMgr
  3
AcMeServices
 90
     1024
280
     0
281
     0
  0
CLASS
  1
ACGREFMASTER
  2
AcGrefMaster
  3
AcAttribServices
 90
     1024
280
     0
281
     0
  0
CLASS
  1
AM_DRAWING_MGR
  2
AcDmDwgMgr
  3
AcMechDwgViewMgmt
 90
     1024
280
     0
281
     0
  0
CLASS
  1
AM_DWG_DOCUMENT
  2
AcDmDwgDocument
  3
AcMechDwgViewMgmt
 90
     1024
280
     0
281
     0
  0
CLASS
  1
AM_DWG_SHEET
  2
AcDmSheet
  3
AcMechDwgViewMgmt
 90
     1024
280
     0
281
     0
  0
CLASS
  1
AM_VIEWDIMPARMAP
  2
AcDmViewDimParMap
  3
AcMechDwgViewMgmt
 90
     1024
280
     0
281
     0
  0
CLASS
  1
AM_DWGMGR_NAME
  2
AcDmDwgMgrName
  3
AcMechDwgViewMgmt
 90
     1024
280
     0
281
     0
  0
CLASS
  1
ACME_DATABASE
  2
AcMeDbDatabase
  3
AcMeServices
 90
     1024
280
     0
281
     0
  0
CLASS
  1
ACRFINSADJUSTERMGR
  2
AcRfInsAdjusterMgr
  3
AcMeServices
 90
     1024
280
     0
281
     0
  0
CLASS
  1
ACGREFACADMASTER
  2
AcGrefacadMaster
  3
AcGrefServices
 90
     1024
280
     0
281
     0
  0
CLASS
  1
AMDTMENUSTATEMGR
  2
AmdtMenuStateMgr
  3
McadcomServices
 90
     1024
280
     0
281
     0
  0
CLASS
  1
AMDTMCOMMENUSTATE
  2
AmdtMcomMenuState
  3
McadcomServices
 90
     1024
280
     0
281
     0
  0
CLASS
  1
AMIMASTER
  2
AmiMaster
  3
AmiServices
 90
     1024
280
     0
281
     0
  0
CLASS
  1
ASAPP
  2
AcAsAppObject
  3
AutoSurfServices
 90
     1024
280
     0
281
     0
  0
CLASS
  1
IM_STATIC_MAN
  2
AcImStaticVarManager
  3
AcMeServices
 90
     1024
280
     0
281
     0
  0
CLASS
  1
ACIMSTRSYSVAR
  2
AcImStrSysVar
  3
AcMeServices
 90
     1024
280
     0
281
     0
  0
CLASS
  1
ACIMDBLSTATICVAR
  2
AcImDblStaticVar
  3
AcMeServices
 90
     1024
280
     0
281
     0
  0
CLASS
  1
ACIMSTRSTATICVAR
  2
AcImStrStaticVar
  3
AcMeServices
 90
     1024
280
     0
281
     0
  0
CLASS
  1
ACIMINTSTATICVAR
  2
AcImIntStaticVar
  3
AcMeServices
 90
     1024
280
     0
281
     0
  0
CLASS
  1
ACASGREFMASTER
  2
AcAsGrefMaster
  3
AutoSurfResolverServices
 90
     1024
280
     0
281
     0
  0
CLASS
  1
ACADGREFMODULE
  2
AcAdGrefModule
  3
AdGrefServices
 90
     1024
280
     0
281
     0
  0
CLASS
  1
AMDTMAPISURFMOUDULE
  2
AmdtMApiSurfModule
  3
MApiSurfServices
 90
     1024
280
     0
281
     0
  0
CLASS
  1
MAPIAMMOUDLE
  2
MApiAmModule
  3
MApiAmServices
 90
     1024
280
     0
281
     0
  0
CLASS
  1
AMDTADMENUSTATE
  2
AmdtAdMenuState
  3
DesignerServices
 90
     1024
280
     0
281
     0
  0
CLASS
  1
ADAPPL
  2
AcAdAppl
  3
DesignerServices
 90
     1024
280
     0
281
     0
  0
CLASS
  1
DEPMGR
  2
AcAdDepMgr
  3
DesignerServices
 90
     1024
280
     0
281
     0
  0
CLASS
  1
PARAMMGR
  2
AcAdParamMgr
  3
DesignerServices
 90
     1024
280
     0
281
     0
  0
CLASS
  1
PARAMSCOPE
  2
AcAdParamScope
  3
DesignerServices
 90
     1024
280
     0
281
     0
  0
CLASS
  1
NAMEDAPPL
  2
AcAdNamedAppl
  3
DesignerServices
 90
     1024
280
     0
281
     0
  0
CLASS
  1
AMDTDMMENUSTATE
  2
AmdtDmMenuState
  3
AcMechDwgViewMgmt
 90
     1024
280
     0
281
     0
  0
CLASS
  1
MAPIADMODULE
  2
MApiAdModule
  3
MApiAdServices
 90
     1024
280
     0
281
     0
  0
CLASS
  1
AMDTAMMENUSTATE
  2
AmdtAmMenuState
  3
DesignerAssemblies
 90
     1024
280
     0
281
     0
  0
CLASS
  1
ACAMPROJECT
  2
AcAmProject
  3
DesignerAssemblies
 90
     1024
280
     0
281
     0
  0
CLASS
  1
ACAMGRCOMPDEF
  2
AcAmGrCompDef
  3
DesignerAssemblies
 90
     1024
280
     0
281
     0
  0
CLASS
  1
ACCMCONTEXT
  2
AcCmContext
  3
DesignerAssemblies
 90
     1024
280
     0
281
     0
  0
CLASS
  1
ACAMCOMPDEF
  2
AcAmCompDef
  3
DesignerAssemblies
 90
     1024
280
     0
281
     0
  0
CLASS
  1
ACAMCOMPDEFMGR
  2
AcAmCompDefMgr
  3
DesignerAssemblies
 90
     1024
280
     0
281
     0
  0
CLASS
  1
AMCONTEXTMGR
  2
AcAmContextMgr
  3
DesignerAssemblies
 90
     1024
280
     0
281
     0
  0
CLASS
  1
ACAMCONTEXTMODELER
  2
AcAmContextModeler
  3
DesignerAssemblies
 90
     1024
280
     0
281
     0
  0
CLASS
  1
ACMDATADICTIONARY
  2
AcmDataDictionary
  3
"AcmSymBB|Product Description: AutoCAD Mechanical|Company: Autodesk, Inc."
 90
     1024
280
     0
281
     0
  0
CLASS
  1
ACMDATAENTRYBLOCK
  2
AcmDataEntryBlock
  3
AcmSymBB|Product Description: AutoCAD Mechanical|Company: Autodesk, Inc.
 90
     1024
280
     0
281
     0
  0
CLASS
  1
ACRFATTGENMGR
  2
AcRfAttGeneralMgr
  3
AcAttribServices
 90
     1024
280
     0
281
     0
  0
CLASS
  1
ACRFOBJATTMGR
  2
AcRfObjAttGroupMgr
  3
AcAttribServices
 90
     1024
280
     0
281
     0
  0
CLASS
  1
ACRFMCADAPIATTHOLDER
  2
AcRfMCADAPIAttHolder
  3
AcAttribServices
 90
     1024
280
     0
281
     0
  0
CLASS
  1
AMDTSYSATTR
  2
AmdtSystemAttribute
  3
AcAttribServices
 90
     1024
280
     0
281
     0
  0
CLASS
  1
CATALOGSTATE
  2
AcAmCatalogState
  3
DesignerAssemblies
 90
     1024
280
     0
281
     0
  0
CLASS
  1
ACAMGRCOMPDEFSET
  2
AcAmGrCompDefSet
  3
DesignerAssemblies
 90
     1024
280
     0
281
     0
  0
CLASS
  1
AMDTBROWSERDBTAB
  2
AmdtBrowserDbTab
  3
McadcomServices
 90
     1024
280
     0
281
     0
  0
CLASS
  1
CBROWSERAPPOBJECT
  2
CBrowserAppObject
  3
McadcomServices
 90
     1024
280
     0
281
     0
  0
CLASS
  1
DM_PLACEHOLDER
  2
AcDmSelsetPlaceholder
  3
AcMechDwgViewMgmt
 90
     1024
280
     0
281
     0
  0
CLASS
  1
ACMSTANDARDANSI
  2
AcmStandardANSI
  3
"Amdt_StdImp|Product Description: AutoCAD Mechanical|Company: Autodesk, Inc."
 90
     1024
280
     0
281
     0
  0
CLASS
  1
ACMSURFSTANDARDANSI
  2
AcmSurfTextStdANSI
  3
"Amdt_StdImp|Product Description: AutoCAD Mechanical|Company: Autodesk, Inc."
 90
     1024
280
     0
281
     0
  0
CLASS
  1
ACMFCFSTANDARDANSI
  2
AcmFCFStdANSI
  3
"Amdt_StdImp|Product Description: AutoCAD Mechanical|Company: Autodesk, Inc."
 90
     1024
280
     0
281
     0
  0
CLASS
  1
ACMWELDSTANDARDANSI
  2
AcmWeldingStdANSI
  3
"Amdt_StdImp|Product Description: AutoCAD Mechanical|Company: Autodesk, Inc."
 90
     1024
280
     0
281
     0
  0
CLASS
  1
ACMIDSTANDARDANSI
  2
AcmIdStdANSI
  3
"Amdt_StdImp|Product Description: AutoCAD Mechanical|Company: Autodesk, Inc."
 90
     1024
280
     0
281
     0
  0
CLASS
  1
ACMDATUMSTANDARDANSI
  2
AcmDatumStdANSI
  3
"Amdt_StdImp|Product Description: AutoCAD Mechanical|Company: Autodesk, Inc."
 90
     1024
280
     0
281
     0
  0
CLASS
  1
ACMBOMSTANDARDANSI
  2
AcmBOMStdANSI
  3
"Amdt_StdImp|Product Description: AutoCAD Mechanical|Company: Autodesk, Inc."
 90
     1024
280
     0
281
     0
  0
CLASS
  1
ACMDETAILSTANDARDANSI
  2
AmdtDetailSymStdANSI
  3
"Amdt_StdImp|Product Description: AutoCAD Mechanical|Company: Autodesk, Inc."
 90
     1024
280
     0
281
     0
  0
CLASS
  1
ACMSECTIONSTANDARDANSI
  2
AmdtSectionSymStdANSI
  3
"Amdt_StdImp|Product Description: AutoCAD Mechanical|Company: Autodesk, Inc."
 90
     1024
280
     0
281
     0
  0
CLASS
  1
ACMCENTERLINESTANDARDANSI
  2
AmdtCenterLineStdANSI
  3
"Amdt_StdImp|Product Description: AutoCAD Mechanical|Company: Autodesk, Inc."
 90
     1024
280
     0
281
     0
  0
CLASS
  1
ACMTHREADLINESTANDARDANSI
  2
AmdtThreadLineStdANSI
  3
"Amdt_StdImp|Product Description: AutoCAD Mechanical|Company: Autodesk, Inc."
 90
     1024
280
     0
281
     0
  0
CLASS
  1
ACMNOTESTANDARDANSI
  2
AmdtNoteStdANSI
  3
"Amdt_StdImp|Product Description: AutoCAD Mechanical|Company: Autodesk, Inc."
 90
     1024
280
     0
281
     0
  0
CLASS
  1
ACMTAPERSTANDARDANSI
  2
AcmTaperStdANSI
  3
"Amdt_StdImp|Product Description: AutoCAD Mechanical|Company: Autodesk, Inc."
 90
     1024
280
     0
281
     0
  0
CLASS
  1
ACMANOOTATIONVIEWSTANDARDANSI
  2
AmdtAnViewStdANSI
  3
"Amdt_StdImp|Product Description: AutoCAD Mechanical|Company: Autodesk, Inc."
 90
     1024
280
     0
281
     0
  0
CLASS
  1
ACAMGLAYSTD
  2
AcAmgLayStd
  3
"AmgLay|Product Description: AutoCAD Mechanical|Company: Autodesk, Inc."
 90
     1024
280
     0
281
     0
  0
CLASS
  1
ACAMGDIMSTD
  2
AcAmgDimStd
  3
"AmgDim|Product Description: AutoCAD Mechanical|Company: Autodesk, Inc."
 90
     1024
280
     0
281
     0
  0
CLASS
  1
ACAMGHOLECHARTSTDANSI
  2
AcAmgHoleChartStdANSI
  3
AmgDim|Product Description: AutoCAD Mechanical|Company: Autodesk, Inc.
 90
     1024
280
     0
281
     0
  0
CLASS
  1
AMGOBJPROPCFG
  2
AmgObjPropCfg
  3
"AmgLay|Product Description: AutoCAD Mechanical|Company: Autodesk, Inc."
 90
     1025
280
     0
281
     0
  0
CLASS
  1
ACAMGTITLESTD
  2
AcAmgTitleStd
  3
"AmgTitle|Product Description: AutoCAD Mechanical|Company: Autodesk, Inc."
 90
     4095
280
     0
281
     0
  0
CLASS
  1
AMDTNOTETEMPLATEDB
  2
AmdtNoteTemplateDB
  3
AcmSymBB|Product Description: AutoCAD Mechanical|Company: Autodesk, Inc.
 90
     1024
280
     0
281
     0
  0
CLASS
  1
ACAMGFILTERDAT
  2
AcAmgFilterDat
  3
"AcadM|Product Description: AutoCAD Mechanical|Company: Autodesk, Inc."
 90
     1024
280
     0
281
     0
  0
CLASS
  1
LAYER_INDEX
  2
AcDbLayerIndex
  3
ObjectDBX Classes
 90
        0
280
     0
281
     0
  0
CLASS
  1
IDBUFFER
  2
AcDbIdBuffer
  3
ObjectDBX Classes
 90
        0
280
     0
281
     0
  0
CLASS
  1
DICTIONARYVAR
  2
AcDbDictionaryVar
  3
ObjectDBX Classes
 90
        0
280
     0
281
     0
  0
CLASS
  1
CELLSTYLEMAP
  2
AcDbCellStyleMap
  3
ObjectDBX Classes
 90
     1152
280
     0
281
     0
  0
CLASS
  1
ACDBPLACEHOLDER
  2
AcDbPlaceHolder
  3
ObjectDBX Classes
 90
        0
280
     0
281
     0
  0
CLASS
  1
LAYOUT
  2
AcDbLayout
  3
ObjectDBX Classes
 90
        0
280
     0
281
     0
  0
ENDSEC
  0
SECTION
  2
TABLES
  0
TABLE
  2
VPORT
  5
2C9D
330
0
100
AcDbSymbolTable
 70
     1
  0
VPORT
  5
2D0D
330
2C9D
100
AcDbSymbolTableRecord
100
AcDbViewportTableRecord
  2
*ACTIVE
 70
     0
 10
0.0
 20
0.0
 11
1.0
 21
1.0
 12
0.0
 22
0.0
 13
0.0
 23
0.0
 14
1.0
 24
1.0
 15
0.0
 25
0.0
 16
0.0
 26
0.0
 36
1.0
 17
55.96848923709257
 27
-108.3068751128248
 37
0.0
 40
1693.385659468424
 41
1.712555066079295
 42
50.0
 43
0.0
 44
0.0
 50
0.0
 51
0.0
 71
     0
 72
   100
 73
     1
 74
     0
 75
     0
 76
     0
 77
     0
 78
     0
281
     0
 65
     0
110
0.0
120
0.0
130
0.0
111
1.0
121
0.0
131
0.0
112
0.0
122
1.0
132
0.0
 79
     0
146
0.0
  0
ENDTAB
  0
TABLE
  2
LTYPE
  5
2C9A
330
0
100
AcDbSymbolTable
 70
    19
  0
LTYPE
  5
2CF7
330
2C9A
100
AcDbSymbolTableRecord
100
AcDbLinetypeTableRecord
  2
ByBlock
 70
     0
  3

 72
    65
 73
     0
 40
0.0
  0
LTYPE
  5
2CF8
330
2C9A
100
AcDbSymbolTableRecord
100
AcDbLinetypeTableRecord
  2
ByLayer
 70
     0
  3

 72
    65
 73
     0
 40
0.0
  0
LTYPE
  5
2CF9
330
2C9A
100
AcDbSymbolTableRecord
100
AcDbLinetypeTableRecord
  2
CONTINUOUS
 70
     0
  3
実線
 72
    65
 73
     0
 40
0.0
  0
LTYPE
  5
2D0E
330
2C9A
100
AcDbSymbolTableRecord
100
AcDbLinetypeTableRecord
  2
DASHDOT
 70
     0
  3
____ _ ____ _ ____ _ ____ _ ____ _ ____ _ ____
 72
    65
 73
     4
 40
5.5
 49
4.0
 74
     0
 49
-0.6
 74
     0
 49
0.3
 74
     0
 49
-0.6
 74
     0
  0
LTYPE
  5
2D0F
330
2C9A
100
AcDbSymbolTableRecord
100
AcDbLinetypeTableRecord
  2
HIDDEN
 70
     0
  3
Hidden __ __ __ __ __ __ __ __ __ __ __ __ __ _
 72
    65
 73
     2
 40
0.375
 49
0.25
 74
     0
 49
-0.125
 74
     0
  0
LTYPE
  5
2D10
330
2C9A
100
AcDbSymbolTableRecord
100
AcDbLinetypeTableRecord
  2
PHANTOM2
 70
     0
  3
Phantom (.5x) ___ _ _ ___ _ _ ___ _ _ ___ _ _
 72
    65
 73
     6
 40
1.25
 49
0.625
 74
     0
 49
-0.125
 74
     0
 49
0.125
 74
     0
 49
-0.125
 74
     0
 49
0.125
 74
     0
 49
-0.125
 74
     0
  0
LTYPE
  5
2D11
330
2C9A
100
AcDbSymbolTableRecord
100
AcDbLinetypeTableRecord
  2
CENTER
 70
     0
  3
Center ____ _ ____ _ ____ _ ____ _ ____ _ ____
 72
    65
 73
     4
 40
2.0
 49
1.25
 74
     0
 49
-0.25
 74
     0
 49
0.25
 74
     0
 49
-0.25
 74
     0
  0
LTYPE
  5
2D12
330
2C9A
100
AcDbSymbolTableRecord
100
AcDbLinetypeTableRecord
  2
ASULTYPE
 70
     0
  3
実線
 72
    65
 73
     2
 40
3.0
 49
2.5
 74
     0
 49
0.5
 74
     0
  0
LTYPE
  5
2D13
330
2C9A
100
AcDbSymbolTableRecord
100
AcDbLinetypeTableRecord
  2
ASVLTYPE
 70
     0
  3
__ __ __ __ __ __ __ __ __ __ __ __ __ __ __ __ __ __ __ __ __
 72
    65
 73
     2
 40
0.75
 49
0.5
 74
     0
 49
-0.25
 74
     0
  0
LTYPE
  5
2D14
330
2C9A
100
AcDbSymbolTableRecord
100
AcDbLinetypeTableRecord
  2
AM_ISO02W050
 70
     0
  3
__ __ __ __ __ __ __ __ __ __ __ __ __ __ __
 72
    65
 73
     2
 40
7.5
 49
6.0
 74
     0
 49
-1.5
 74
     0
  0
LTYPE
  5
2D15
330
2C9A
100
AcDbSymbolTableRecord
100
AcDbLinetypeTableRecord
  2
AM_ISO08W050
 70
     0
  3
____ . ____ . ____ . ____ . ____ . ____ . ____
 72
    65
 73
     4
 40
18.0
 49
12.0
 74
     0
 49
-1.5
 74
     0
 49
3.0
 74
     0
 49
-1.5
 74
     0
  0
LTYPE
  5
2D16
330
2C9A
100
AcDbSymbolTableRecord
100
AcDbLinetypeTableRecord
  2
AM_ISO09W050
 70
     0
  3
_____ . . _____ . . _____ . . ____ .. ____
 72
    65
 73
     6
 40
22.5
 49
12.0
 74
     0
 49
-1.5
 74
     0
 49
3.0
 74
     0
 49
-1.5
 74
     0
 49
3.0
 74
     0
 49
-1.5
 74
     0
  0
LTYPE
  5
2D17
330
2C9A
100
AcDbSymbolTableRecord
100
AcDbLinetypeTableRecord
  2
AMCONSTR
 70
     0
  3
_______________________
 72
    65
 73
     2
 40
9999.0
 49
9999.0
 74
     0
 49
0.0
 74
     0
  0
LTYPE
  5
2D18
330
2C9A
100
AcDbSymbolTableRecord
100
AcDbLinetypeTableRecord
  2
AM_ISO08W050X2
 70
     0
  3
__ . __ . __ . __ . __ . __
 72
    65
 73
     4
 40
9.0
 49
6.0
 74
     0
 49
-0.75
 74
     0
 49
1.5
 74
     0
 49
-0.75
 74
     0
  0
LTYPE
  5
2D19
330
2C9A
100
AcDbSymbolTableRecord
100
AcDbLinetypeTableRecord
  2
AM_ISO02W050X2
 70
     0
  3
 _ _ _ _ _ _ _ _ _ _ _ _
 72
    65
 73
     2
 40
3.75
 49
3.0
 74
     0
 49
-0.75
 74
     0
  0
LTYPE
  5
2D1A
330
2C9A
100
AcDbSymbolTableRecord
100
AcDbLinetypeTableRecord
  2
AMZIGZAG
 70
     0
  3
/\/-/\/-/\/-/\/-/\/-/\/
 72
    65
 73
     2
 40
11.0001
 49
0.0001
 74
     0
 49
-11.0
 74
     0
  0
LTYPE
  5
2D1B
330
2C9A
100
AcDbSymbolTableRecord
100
AcDbLinetypeTableRecord
  2
CENTER2
 70
     0
  3
Center (.5x) ___ _ ___ _ ___ _ ___ _ ___ _ ___
 72
    65
 73
     4
 40
1.125
 49
0.75
 74
     0
 49
-0.125
 74
     0
 49
0.125
 74
     0
 49
-0.125
 74
     0
  0
LTYPE
  5
2D1C
330
2C9A
100
AcDbSymbolTableRecord
100
AcDbLinetypeTableRecord
  2
HIDDEN2
 70
     0
  3
Hidden (.5x) _ _ _ _ _ _ _ _ _ _ _ _ _ _ _ _ _
 72
    65
 73
     2
 40
0.1875
 49
0.125
 74
     0
 49
-0.0625
 74
     0
  0
LTYPE
  5
2D1D
330
2C9A
100
AcDbSymbolTableRecord
100
AcDbLinetypeTableRecord
  2
AMZIGZAG2
 70
     0
  3
/\/-/\/-/\/-/\/-/\/-/\/
 72
    65
 73
     2
 40
0.4401
 49
0.0001
 74
     0
 49
-0.4400000000000003
 74
     0
  0
LTYPE
  5
2D1E
330
2C9A
100
AcDbSymbolTableRecord
100
AcDbLinetypeTableRecord
  2
ACANSTGB
 70
     0
  3
__ . . __ . .
 72
    65
 73
     6
 40
0.35433070866
 49
0.15748031496
 74
     0
 49
-0.03937007874
 74
     0
 49
0.03937007874
 74
     0
 49
-0.03937007874
 74
     0
 49
0.03937007874
 74
     0
 49
-0.03937007874
 74
     0
  0
LTYPE
  5
2D1F
330
2C9A
100
AcDbSymbolTableRecord
100
AcDbLinetypeTableRecord
  2
ACANSTGL
 70
     0
  3
_ _ _ _ _
 72
    65
 73
     2
 40
0.11811023622
 49
0.07874015748
 74
     0
 49
-0.03937007874
 74
     0
  0
ENDTAB
  0
TABLE
  2
LAYER
  5
2C97
330
0
100
AcDbSymbolTable
 70
    12
  0
LAYER
  5
2CF1
102
{ACAD_XDICTIONARY
360
2EC1
102
}
330
2C97
100
AcDbSymbolTableRecord
100
AcDbLayerTableRecord
  2
0
 70
     0
 62
     7
  6
CONTINUOUS
370
    -3
390
2CA4
  0
LAYER
  5
2D20
102
{ACAD_XDICTIONARY
360
2EC3
102
}
330
2C97
100
AcDbSymbolTableRecord
100
AcDbLayerTableRecord
  2
OUTLINE
 70
     0
 62
     3
  6
CONTINUOUS
370
    -3
390
2CA4
  0
LAYER
  5
2D21
102
{ACAD_XDICTIONARY
360
2EC5
102
}
330
2C97
100
AcDbSymbolTableRecord
100
AcDbLayerTableRecord
  2
SIZE
 70
     0
 62
    30
  6
CONTINUOUS
370
    -3
390
2CA4
  0
LAYER
  5
2D22
102
{ACAD_XDICTIONARY
360
2EC7
102
}
330
2C97
100
AcDbSymbolTableRecord
100
AcDbLayerTableRecord
  2
BASIS
 70
     0
 62
     6
  6
DASHDOT
370
    -3
390
2CA4
  0
LAYER
  5
2D23
102
{ACAD_XDICTIONARY
360
2EC9
102
}
330
2C97
100
AcDbSymbolTableRecord
100
AcDbLayerTableRecord
  2
DETAIL
 70
     0
 62
     5
  6
CONTINUOUS
370
    -3
390
2CA4
  0
LAYER
  5
2D24
102
{ACAD_XDICTIONARY
360
2ECB
102
}
330
2C97
100
AcDbSymbolTableRecord
100
AcDbLayerTableRecord
  2
ARRANGE
 70
     0
 62
     1
  6
CONTINUOUS
370
    -3
390
2CA4
  0
LAYER
  5
2D25
330
2C97
100
AcDbSymbolTableRecord
100
AcDbLayerTableRecord
  2
DEFPOINTS
 70
     0
 62
     7
  6
CONTINUOUS
290
     0
370
    -3
390
2CA4
  0
LAYER
  5
2D26
102
{ACAD_XDICTIONARY
360
2ECD
102
}
330
2C97
100
AcDbSymbolTableRecord
100
AcDbLayerTableRecord
  2
ETC
 70
     0
 62
    61
  6
CONTINUOUS
370
    -3
390
2CA4
  0
LAYER
  5
2D27
102
{ACAD_XDICTIONARY
360
2ECF
102
}
330
2C97
100
AcDbSymbolTableRecord
100
AcDbLayerTableRecord
  2
FIX
 70
     0
 62
    11
  6
CONTINUOUS
370
    -3
390
2CA4
  0
LAYER
  5
2D28
102
{ACAD_XDICTIONARY
360
2ED1
102
}
330
2C97
100
AcDbSymbolTableRecord
100
AcDbLayerTableRecord
  2
NOTE
 70
     0
 62
     4
  6
CONTINUOUS
370
    -3
390
2CA4
  0
LAYER
  5
2D29
102
{ACAD_XDICTIONARY
360
2ED3
102
}
330
2C97
100
AcDbSymbolTableRecord
100
AcDbLayerTableRecord
  2
SERVICESPACE
 70
     0
 62
     2
  6
DASHDOT
370
    -3
390
2CA4
  0
LAYER
  5
2D2A
102
{ACAD_XDICTIONARY
360
2ED5
102
}
330
2C97
100
AcDbSymbolTableRecord
100
AcDbLayerTableRecord
  2
SYMBOLLINE
 70
     0
 62
    15
  6
CONTINUOUS
370
    -3
390
2CA4
  0
ENDTAB
  0
TABLE
  2
STYLE
  5
2C98
330
0
100
AcDbSymbolTable
 70
     5
  0
STYLE
  5
2CF2
330
2C98
100
AcDbSymbolTableRecord
100
AcDbTextStyleTableRecord
  2
STANDARD
 70
     0
 40
64.0
 41
0.9
 50
0.0
 71
     0
 42
64.0
  3
SIMPLEX.shx
  4
BIGFONT.shx
  0
STYLE
  5
2CF6
330
2C98
100
AcDbSymbolTableRecord
100
AcDbTextStyleTableRecord
  2
ANNOTATIVE
 70
     0
 40
0.0
 41
1.0
 50
0.0
 71
     0
 42
0.2
  3
txt
  4

1001
ACADANNOTATIVE
1000
AnnotativeData
1002
{
1070
     1
1070
     1
1002
}
  0
STYLE
  5
2D2B
330
2C98
100
AcDbSymbolTableRecord
100
AcDbTextStyleTableRecord
  2

 70
     1
 40
0.0
 41
1.0
 50
0.0
 71
     0
 42
64.0
  3
genltshp.shx
  4

  0
STYLE
  5
2D2C
330
2C98
100
AcDbSymbolTableRecord
100
AcDbTextStyleTableRecord
  2
ACANSTS
 70
     0
 40
1.0
 41
1.0
 50
0.0
 71
     0
 42
64.0
  3
romans.shx
  4
extfont.shx
  0
STYLE
  5
2D2D
330
2C98
100
AcDbSymbolTableRecord
100
AcDbTextStyleTableRecord
  2
ACANSGDT
 70
     0
 40
0.0
 41
1.0
 50
0.0
 71
     0
 42
64.0
  3
amgdt.shx
  4

  0
ENDTAB
  0
TABLE
  2
VIEW
  5
2C9B
330
0
100
AcDbSymbolTable
 70
     1
  0
VIEW
  5
2D2E
330
2C9B
100
AcDbSymbolTableRecord
100
AcDbViewTableRecord
  2
ALL
 70
     0
 40
4282.619807999997
 10
0.0
 20
41.30990399999999
 41
5940.0
 11
0.0
 21
0.0
 31
1.0
 12
0.0
 22
0.0
 32
0.0
 42
50.0
 43
0.0
 44
0.0
 50
0.0
 71
     0
281
     0
 72
     1
110
0.0
120
0.0
130
0.0
111
1.0
121
0.0
131
0.0
112
0.0
122
1.0
132
0.0
 79
     0
146
0.0
  0
ENDTAB
  0
TABLE
  2
UCS
  5
2C9C
330
0
100
AcDbSymbolTable
 70
     0
  0
ENDTAB
  0
TABLE
  2
APPID
  5
2C9E
330
0
100
AcDbSymbolTable
 70
    29
  0
APPID
  5
2CF3
330
2C9E
100
AcDbSymbolTableRecord
100
AcDbRegAppTableRecord
  2
ACAD
 70
     0
  0
APPID
  5
2CFA
330
2C9E
100
AcDbSymbolTableRecord
100
AcDbRegAppTableRecord
  2
ACADANNOTATIVE
 70
     0
  0
APPID
  5
2D04
330
2C9E
100
AcDbSymbolTableRecord
100
AcDbRegAppTableRecord
  2
ACAD_MLEADERVER
 70
     0
  0
APPID
  5
2D2F
330
2C9E
100
AcDbSymbolTableRecord
100
AcDbRegAppTableRecord
  2
GENIUS_GENDIM_13
 70
     0
  0
APPID
  5
2D30
330
2C9E
100
AcDbSymbolTableRecord
100
AcDbRegAppTableRecord
  2
GENIUS_GENDTOL_13
 70
     0
  0
APPID
  5
2D31
330
2C9E
100
AcDbSymbolTableRecord
100
AcDbRegAppTableRecord
  2
GENIUS_GE3DTOL_13
 70
     0
  0
APPID
  5
2D32
330
2C9E
100
AcDbSymbolTableRecord
100
AcDbRegAppTableRecord
  2
MCAD_NO_VIS
 70
     0
  0
APPID
  5
2D33
330
2C9E
100
AcDbSymbolTableRecord
100
AcDbRegAppTableRecord
  2
ACAD_TEMP_GRAPHIC
 70
     0
  0
APPID
  5
2D34
330
2C9E
100
AcDbSymbolTableRecord
100
AcDbRegAppTableRecord
  2
AD_DRAW
 70
     0
  0
APPID
  5
2D35
330
2C9E
100
AcDbSymbolTableRecord
100
AcDbRegAppTableRecord
  2
ACATTRIBSERVICES
 70
     0
  0
APPID
  5
2D36
330
2C9E
100
AcDbSymbolTableRecord
100
AcDbRegAppTableRecord
  2
ASURF_PCURVE_APPNAME
 70
     0
  0
APPID
  5
2D37
330
2C9E
100
AcDbSymbolTableRecord
100
AcDbRegAppTableRecord
  2
AMG_3D2D_5_0
 70
     0
  0
APPID
  5
2D38
330
2C9E
100
AcDbSymbolTableRecord
100
AcDbRegAppTableRecord
  2
DESIGNERASSEMBLIES
 70
     0
  0
APPID
  5
2D39
330
2C9E
100
AcDbSymbolTableRecord
100
AcDbRegAppTableRecord
  2
ACADM_DIM_EDIT
 70
     0
  0
APPID
  5
2D3A
330
2C9E
100
AcDbSymbolTableRecord
100
AcDbRegAppTableRecord
  2
AMDT_DM_ADJ
 70
     0
  0
APPID
  5
2D3B
330
2C9E
100
AcDbSymbolTableRecord
100
AcDbRegAppTableRecord
  2
ACAD_DSTYLE_DIMARC_LENGTH_
 70
     0
  0
APPID
  5
2D3C
330
2C9E
100
AcDbSymbolTableRecord
100
AcDbRegAppTableRecord
  2
ACAD_DSTYLE_DIMJOGGED_JOGA
 70
     0
  0
APPID
  5
2D3D
330
2C9E
100
AcDbSymbolTableRecord
100
AcDbRegAppTableRecord
  2
ACAD_PSEXT
 70
     0
  0
APPID
  5
2D3E
330
2C9E
100
AcDbSymbolTableRecord
100
AcDbRegAppTableRecord
  2
ACAD_EXEMPT_FROM_CAD_STANDARDS
 70
     0
  0
APPID
  5
2D3F
330
2C9E
100
AcDbSymbolTableRecord
100
AcDbRegAppTableRecord
  2
ACAD_DSTYLE_DIMJAG
 70
     0
  0
APPID
  5
2D40
330
2C9E
100
AcDbSymbolTableRecord
100
AcDbRegAppTableRecord
  2
ACAD_DSTYLE_DIMTALN
 70
     0
  0
APPID
  5
2D41
330
2C9E
100
AcDbSymbolTableRecord
100
AcDbRegAppTableRecord
  2
AMG_3D2D_5_00
 70
     0
  0
APPID
  5
2D42
330
2C9E
100
AcDbSymbolTableRecord
100
AcDbRegAppTableRecord
  2
AMG_3D2D_5_01
 70
     0
  0
APPID
  5
2D43
330
2C9E
100
AcDbSymbolTableRecord
100
AcDbRegAppTableRecord
  2
AMG_3D2D_5_02
 70
     0
  0
APPID
  5
2E61
330
2C9E
100
AcDbSymbolTableRecord
100
AcDbRegAppTableRecord
  2
AMG_3D2D_5.0
 70
     0
  0
APPID
  5
2EFE
330
2C9E
100
AcDbSymbolTableRecord
100
AcDbRegAppTableRecord
  2
ACAD_DSTYLE_DIMARC_LENGTH_SYMBOL
 70
     0
  0
APPID
  5
2EFF
330
2C9E
100
AcDbSymbolTableRecord
100
AcDbRegAppTableRecord
  2
ACAD_DSTYLE_DIM_LINETYPE
 70
     0
  0
APPID
  5
2F00
330
2C9E
100
AcDbSymbolTableRecord
100
AcDbRegAppTableRecord
  2
ACAD_DSTYLE_DIM_EXT1_LINETYPE
 70
     0
  0
APPID
  5
2F01
330
2C9E
100
AcDbSymbolTableRecord
100
AcDbRegAppTableRecord
  2
ACAD_DSTYLE_DIM_EXT2_LINETYPE
 70
     0
  0
ENDTAB
  0
TABLE
  2
DIMSTYLE
  5
2C9F
330
0
100
AcDbSymbolTable
 70
    10
100
AcDbDimStyleTable
 71
     1
340
2D44
  0
DIMSTYLE
105
2CF4
330
2C9F
100
AcDbSymbolTableRecord
100
AcDbDimStyleTableRecord
  2
STANDARD
 70
     0
 41
12.0
 42
20.0
 44
20.0
 77
     1
 78
     8
140
64.0
141
0.0
147
10.0
275
     1
279
     2
284
     7
285
     7
286
     7
340
2CF2
  0
DIMSTYLE
105
2CF5
330
2C9F
100
AcDbSymbolTableRecord
100
AcDbDimStyleTableRecord
  2
ANNOTATIVE
 70
     0
275
     1
279
     2
284
     7
285
     7
286
     7
340
2CF2
1001
ACADANNOTATIVE
1000
AnnotativeData
1002
{
1070
     1
1070
     1
1002
}
  0
DIMSTYLE
105
2D44
330
2C9F
100
AcDbSymbolTableRecord
100
AcDbDimStyleTableRecord
  2
AM_ANSI
 70
     0
  4
mm
 41
0.12
 42
0.05
 43
0.5
 44
0.1
 47
0.1
 48
0.1
 78
     7
 79
     2
140
0.12
141
0.0
146
0.71
147
0.06
176
   256
177
   256
178
     2
274
     4
284
     7
340
2CF2
371
    -1
372
    -1
1001
ACAD_DSTYLE_DIMARC_LENGTH_SYMBOL
1070
   379
1070
     1
1001
ACAD_DSTYLE_DIM_LINETYPE
1070
   380
1005
2CF7
1001
ACAD_DSTYLE_DIM_EXT1_LINETYPE
1070
   381
1005
2CF7
1001
ACAD_DSTYLE_DIM_EXT2_LINETYPE
1070
   382
1005
2CF7
  0
DIMSTYLE
105
2D45
330
2C9F
100
AcDbSymbolTableRecord
100
AcDbDimStyleTableRecord
  2
AM_ANSI$3
 70
     0
  4
mm
 41
0.12
 42
0.05
 43
0.5
 44
0.1
 47
0.1
 48
0.1
 78
     7
 79
     2
140
0.12
141
0.0
146
0.71
147
0.06
176
   256
177
   256
178
     2
274
     4
284
     7
288
     1
289
     0
340
2CF2
371
    -1
372
    -1
1001
ACAD_DSTYLE_DIMARC_LENGTH_SYMBOL
1070
   379
1070
     1
1001
ACAD_DSTYLE_DIM_LINETYPE
1070
   380
1005
2CF7
1001
ACAD_DSTYLE_DIM_EXT1_LINETYPE
1070
   381
1005
2CF7
1001
ACAD_DSTYLE_DIM_EXT2_LINETYPE
1070
   382
1005
2CF7
  0
DIMSTYLE
105
2D46
330
2C9F
100
AcDbSymbolTableRecord
100
AcDbDimStyleTableRecord
  2
AM_ANSI$4
 70
     0
  4
mm
 41
0.12
 42
0.05
 43
0.5
 44
0.1
 47
0.1
 48
0.1
 78
     7
 79
     2
140
0.12
141
0.0
146
0.71
147
0.06
176
   256
177
   256
178
     2
274
     4
284
     7
340
2CF2
371
    -1
372
    -1
1001
ACAD_DSTYLE_DIMARC_LENGTH_SYMBOL
1070
   379
1070
     1
1001
ACAD_DSTYLE_DIM_LINETYPE
1070
   380
1005
2CF7
1001
ACAD_DSTYLE_DIM_EXT1_LINETYPE
1070
   381
1005
2CF7
1001
ACAD_DSTYLE_DIM_EXT2_LINETYPE
1070
   382
1005
2CF7
  0
DIMSTYLE
105
2D47
330
2C9F
100
AcDbSymbolTableRecord
100
AcDbDimStyleTableRecord
  2
AM_ANSI$7
 70
     0
  4
mm
 41
0.12
 42
0.05
 43
0.5
 44
0.1
 47
0.1
 48
0.1
 78
     7
 79
     2
140
0.12
141
0.0
146
0.71
147
0.06
176
   256
177
   256
178
     2
274
     4
284
     7
340
2CF2
371
    -1
372
    -1
1001
ACAD_DSTYLE_DIMARC_LENGTH_SYMBOL
1070
   379
1070
     1
1001
ACAD_DSTYLE_DIM_LINETYPE
1070
   380
1005
2CF7
1001
ACAD_DSTYLE_DIM_EXT1_LINETYPE
1070
   381
1005
2CF7
1001
ACAD_DSTYLE_DIM_EXT2_LINETYPE
1070
   382
1005
2CF7
  0
DIMSTYLE
105
2D48
330
2C9F
100
AcDbSymbolTableRecord
100
AcDbDimStyleTableRecord
  2
AM_ANSI$SF
 70
     0
  4
mm
 41
0.12
 42
0.05
 43
0.5
 44
0.1
 47
0.1
 48
0.1
 75
     1
 76
     1
 78
     7
 79
     2
140
0.12
141
0.0
146
0.71
147
0.06
176
   256
177
   256
178
     2
274
     4
284
     7
340
2CF2
371
    -1
372
    -1
1001
ACAD_DSTYLE_DIMARC_LENGTH_SYMBOL
1070
   379
1070
     1
1001
ACAD_DSTYLE_DIM_LINETYPE
1070
   380
1005
2CF7
1001
ACAD_DSTYLE_DIM_EXT1_LINETYPE
1070
   381
1005
2CF7
1001
ACAD_DSTYLE_DIM_EXT2_LINETYPE
1070
   382
1005
2CF7
  0
DIMSTYLE
105
2D49
330
2C9F
100
AcDbSymbolTableRecord
100
AcDbDimStyleTableRecord
  2
AM_ANSI$SH
 70
     0
  4
mm
 41
0.12
 42
0.05
 43
0.5
 44
0.1
 47
0.1
 48
0.1
 75
     1
 76
     1
 78
     7
 79
     2
140
0.12
141
0.0
146
0.71
147
0.06
173
     1
176
   256
177
   256
178
     2
274
     4
284
     7
340
2CF2
343
2D69
371
    -1
372
    -1
1001
ACAD_DSTYLE_DIMARC_LENGTH_SYMBOL
1070
   379
1070
     1
1001
ACAD_DSTYLE_DIM_LINETYPE
1070
   380
1005
2CF7
1001
ACAD_DSTYLE_DIM_EXT1_LINETYPE
1070
   381
1005
2CF7
1001
ACAD_DSTYLE_DIM_EXT2_LINETYPE
1070
   382
1005
2CF7
  0
DIMSTYLE
105
2D4A
330
2C9F
100
AcDbSymbolTableRecord
100
AcDbDimStyleTableRecord
  2
STANDARD1
 70
     0
 40
6.0
 41
2.5
 42
0.625
 43
6.0
 44
1.25
 47
1.0
 48
0.5
 77
     1
 78
     8
140
2.5
141
0.0
146
0.6
147
1.0
173
     1
275
     1
279
     2
284
     7
285
     7
286
     7
340
2CF2
  0
DIMSTYLE
105
2D4B
330
2C9F
100
AcDbSymbolTableRecord
100
AcDbDimStyleTableRecord
  2
STANDARD$0
 70
     0
 41
12.0
 42
20.0
 44
20.0
 73
     0
 74
     0
 77
     1
 78
     8
140
64.0
141
0.0
147
10.0
275
     1
279
     2
284
     7
285
     7
286
     7
340
2CF2
  0
ENDTAB
  0
TABLE
  2
BLOCK_RECORD
  5
2C96
330
0
100
AcDbSymbolTable
 70
    71
  0
BLOCK_RECORD
  5
2D09
102
{ACAD_XDICTIONARY
360
2ED7
102
}
330
2C96
100
AcDbSymbolTableRecord
100
AcDbBlockTableRecord
  2
*Model_Space
340
2D0C
  0
BLOCK_RECORD
  5
2D05
330
2C96
100
AcDbSymbolTableRecord
100
AcDbBlockTableRecord
  2
*Paper_Space
340
2D08
  0
BLOCK_RECORD
  5
2D53
330
2C96
100
AcDbSymbolTableRecord
100
AcDbBlockTableRecord
  2
$MODEL_SPACE
340
0
  0
BLOCK_RECORD
  5
2D55
330
2C96
100
AcDbSymbolTableRecord
100
AcDbBlockTableRecord
  2
$PAPER_SPACE
340
0
  0
BLOCK_RECORD
  5
2D57
330
2C96
100
AcDbSymbolTableRecord
100
AcDbBlockTableRecord
  2
_ORIGIN
340
0
  0
BLOCK_RECORD
  5
2D59
330
2C96
100
AcDbSymbolTableRecord
100
AcDbBlockTableRecord
  2
_DOTBLANK
340
0
102
{BLKREFS
331
1299
331
129A
331
11AA
331
11AB
331
E80
331
E81
331
1123
331
1124
331
11C2
331
11C3
331
11EC
331
11ED
331
11F9
331
11FA
331
1287
331
1288
331
1417
331
1418
331
1423
331
1424
331
142F
331
1430
331
143B
331
143C
331
166E
331
166F
331
1677
331
1678
331
1680
331
1681
331
1689
331
168A
331
1696
331
1697
331
16A3
331
16A4
331
16AF
331
16B0
331
16BB
331
16BC
331
16C7
331
16C8
331
16D3
331
16D4
331
1D86
331
1D87
331
1D8F
331
1D90
331
1D98
331
1D99
331
1DA1
331
1DA2
331
1DAB
331
1DAC
331
1DB5
331
1DB6
331
29E0
331
29E1
331
29E5
331
29E6
331
29EA
331
29EB
331
29EF
331
29F0
102
}
  0
BLOCK_RECORD
  5
2D5B
330
2C96
100
AcDbSymbolTableRecord
100
AcDbBlockTableRecord
  2
_OPEN30
340
0
102
{BLKREFS
331
2088
331
295A
102
}
  0
BLOCK_RECORD
  5
2D5D
330
2C96
100
AcDbSymbolTableRecord
100
AcDbBlockTableRecord
  2
*D5
340
0
  0
BLOCK_RECORD
  5
2D5F
330
2C96
100
AcDbSymbolTableRecord
100
AcDbBlockTableRecord
  2
*U6
340
0
102
{BLKREFS
331
129B
102
}
  0
BLOCK_RECORD
  5
2D61
330
2C96
100
AcDbSymbolTableRecord
100
AcDbBlockTableRecord
  2
*D7
340
0
  0
BLOCK_RECORD
  5
2D63
330
2C96
100
AcDbSymbolTableRecord
100
AcDbBlockTableRecord
  2
*U8
340
0
102
{BLKREFS
331
11AC
102
}
  0
BLOCK_RECORD
  5
2D65
330
2C96
100
AcDbSymbolTableRecord
100
AcDbBlockTableRecord
  2
*D9
340
0
  0
BLOCK_RECORD
  5
2D67
330
2C96
100
AcDbSymbolTableRecord
100
AcDbBlockTableRecord
  2
*U10
340
0
102
{BLKREFS
331
E82
102
}
  0
BLOCK_RECORD
  5
2D69
330
2C96
100
AcDbSymbolTableRecord
100
AcDbBlockTableRecord
  2
GENAXEH
340
0
  0
BLOCK_RECORD
  5
2D6B
330
2C96
100
AcDbSymbolTableRecord
100
AcDbBlockTableRecord
  2
*D12
340
0
  0
BLOCK_RECORD
  5
2D6D
330
2C96
100
AcDbSymbolTableRecord
100
AcDbBlockTableRecord
  2
*U13
340
0
102
{BLKREFS
331
1125
102
}
  0
BLOCK_RECORD
  5
2D6F
330
2C96
100
AcDbSymbolTableRecord
100
AcDbBlockTableRecord
  2
*D14
340
0
  0
BLOCK_RECORD
  5
2D71
330
2C96
100
AcDbSymbolTableRecord
100
AcDbBlockTableRecord
  2
*U15
340
0
102
{BLKREFS
331
11C4
102
}
  0
BLOCK_RECORD
  5
2D73
330
2C96
100
AcDbSymbolTableRecord
100
AcDbBlockTableRecord
  2
*D16
340
0
  0
BLOCK_RECORD
  5
2D75
330
2C96
100
AcDbSymbolTableRecord
100
AcDbBlockTableRecord
  2
*U17
340
0
102
{BLKREFS
331
11EE
102
}
  0
BLOCK_RECORD
  5
2D77
330
2C96
100
AcDbSymbolTableRecord
100
AcDbBlockTableRecord
  2
*D18
340
0
  0
BLOCK_RECORD
  5
2D79
330
2C96
100
AcDbSymbolTableRecord
100
AcDbBlockTableRecord
  2
*U19
340
0
102
{BLKREFS
331
11FB
102
}
  0
BLOCK_RECORD
  5
2D7B
330
2C96
100
AcDbSymbolTableRecord
100
AcDbBlockTableRecord
  2
*D20
340
0
  0
BLOCK_RECORD
  5
2D7D
330
2C96
100
AcDbSymbolTableRecord
100
AcDbBlockTableRecord
  2
*U21
340
0
102
{BLKREFS
331
1289
102
}
  0
BLOCK_RECORD
  5
2D7F
330
2C96
100
AcDbSymbolTableRecord
100
AcDbBlockTableRecord
  2
*D22
340
0
  0
BLOCK_RECORD
  5
2D81
330
2C96
100
AcDbSymbolTableRecord
100
AcDbBlockTableRecord
  2
*U23
340
0
102
{BLKREFS
331
1419
102
}
  0
BLOCK_RECORD
  5
2D83
330
2C96
100
AcDbSymbolTableRecord
100
AcDbBlockTableRecord
  2
*D24
340
0
  0
BLOCK_RECORD
  5
2D85
330
2C96
100
AcDbSymbolTableRecord
100
AcDbBlockTableRecord
  2
*U25
340
0
102
{BLKREFS
331
1425
102
}
  0
BLOCK_RECORD
  5
2D87
330
2C96
100
AcDbSymbolTableRecord
100
AcDbBlockTableRecord
  2
*D26
340
0
  0
BLOCK_RECORD
  5
2D89
330
2C96
100
AcDbSymbolTableRecord
100
AcDbBlockTableRecord
  2
*U27
340
0
102
{BLKREFS
331
1431
102
}
  0
BLOCK_RECORD
  5
2D8B
330
2C96
100
AcDbSymbolTableRecord
100
AcDbBlockTableRecord
  2
*D28
340
0
  0
BLOCK_RECORD
  5
2D8D
330
2C96
100
AcDbSymbolTableRecord
100
AcDbBlockTableRecord
  2
*U29
340
0
102
{BLKREFS
331
143D
102
}
  0
BLOCK_RECORD
  5
2D8F
330
2C96
100
AcDbSymbolTableRecord
100
AcDbBlockTableRecord
  2
*D30
340
0
  0
BLOCK_RECORD
  5
2D91
330
2C96
100
AcDbSymbolTableRecord
100
AcDbBlockTableRecord
  2
*U31
340
0
102
{BLKREFS
331
1670
102
}
  0
BLOCK_RECORD
  5
2D93
330
2C96
100
AcDbSymbolTableRecord
100
AcDbBlockTableRecord
  2
*D32
340
0
  0
BLOCK_RECORD
  5
2D95
330
2C96
100
AcDbSymbolTableRecord
100
AcDbBlockTableRecord
  2
*U33
340
0
102
{BLKREFS
331
1679
102
}
  0
BLOCK_RECORD
  5
2D97
330
2C96
100
AcDbSymbolTableRecord
100
AcDbBlockTableRecord
  2
*D34
340
0
  0
BLOCK_RECORD
  5
2D99
330
2C96
100
AcDbSymbolTableRecord
100
AcDbBlockTableRecord
  2
*U35
340
0
102
{BLKREFS
331
1682
102
}
  0
BLOCK_RECORD
  5
2D9B
330
2C96
100
AcDbSymbolTableRecord
100
AcDbBlockTableRecord
  2
*D36
340
0
  0
BLOCK_RECORD
  5
2D9D
330
2C96
100
AcDbSymbolTableRecord
100
AcDbBlockTableRecord
  2
*U37
340
0
102
{BLKREFS
331
168B
102
}
  0
BLOCK_RECORD
  5
2D9F
330
2C96
100
AcDbSymbolTableRecord
100
AcDbBlockTableRecord
  2
*U38
340
0
  0
BLOCK_RECORD
  5
2DA1
330
2C96
100
AcDbSymbolTableRecord
100
AcDbBlockTableRecord
  2
*D39
340
0
  0
BLOCK_RECORD
  5
2DA3
330
2C96
100
AcDbSymbolTableRecord
100
AcDbBlockTableRecord
  2
*U40
340
0
102
{BLKREFS
331
1698
102
}
  0
BLOCK_RECORD
  5
2DA5
330
2C96
100
AcDbSymbolTableRecord
100
AcDbBlockTableRecord
  2
*D41
340
0
  0
BLOCK_RECORD
  5
2DA7
330
2C96
100
AcDbSymbolTableRecord
100
AcDbBlockTableRecord
  2
*U42
340
0
102
{BLKREFS
331
16A5
102
}
  0
BLOCK_RECORD
  5
2DA9
330
2C96
100
AcDbSymbolTableRecord
100
AcDbBlockTableRecord
  2
*D43
340
0
  0
BLOCK_RECORD
  5
2DAB
330
2C96
100
AcDbSymbolTableRecord
100
AcDbBlockTableRecord
  2
*U44
340
0
102
{BLKREFS
331
16B1
102
}
  0
BLOCK_RECORD
  5
2DAD
330
2C96
100
AcDbSymbolTableRecord
100
AcDbBlockTableRecord
  2
*D45
340
0
  0
BLOCK_RECORD
  5
2DAF
330
2C96
100
AcDbSymbolTableRecord
100
AcDbBlockTableRecord
  2
*U46
340
0
102
{BLKREFS
331
16BD
102
}
  0
BLOCK_RECORD
  5
2DB1
330
2C96
100
AcDbSymbolTableRecord
100
AcDbBlockTableRecord
  2
*D47
340
0
  0
BLOCK_RECORD
  5
2DB3
330
2C96
100
AcDbSymbolTableRecord
100
AcDbBlockTableRecord
  2
*U48
340
0
102
{BLKREFS
331
16C9
102
}
  0
BLOCK_RECORD
  5
2DB5
330
2C96
100
AcDbSymbolTableRecord
100
AcDbBlockTableRecord
  2
*D49
340
0
  0
BLOCK_RECORD
  5
2DB7
330
2C96
100
AcDbSymbolTableRecord
100
AcDbBlockTableRecord
  2
*U50
340
0
102
{BLKREFS
331
16D5
102
}
  0
BLOCK_RECORD
  5
2DB9
330
2C96
100
AcDbSymbolTableRecord
100
AcDbBlockTableRecord
  2
*D51
340
0
  0
BLOCK_RECORD
  5
2DBB
330
2C96
100
AcDbSymbolTableRecord
100
AcDbBlockTableRecord
  2
*U52
340
0
102
{BLKREFS
331
1D88
102
}
  0
BLOCK_RECORD
  5
2DBD
330
2C96
100
AcDbSymbolTableRecord
100
AcDbBlockTableRecord
  2
*D53
340
0
  0
BLOCK_RECORD
  5
2DBF
330
2C96
100
AcDbSymbolTableRecord
100
AcDbBlockTableRecord
  2
*U54
340
0
102
{BLKREFS
331
1D91
102
}
  0
BLOCK_RECORD
  5
2DC1
330
2C96
100
AcDbSymbolTableRecord
100
AcDbBlockTableRecord
  2
*D55
340
0
  0
BLOCK_RECORD
  5
2DC3
330
2C96
100
AcDbSymbolTableRecord
100
AcDbBlockTableRecord
  2
*U56
340
0
102
{BLKREFS
331
1D9A
102
}
  0
BLOCK_RECORD
  5
2DC5
330
2C96
100
AcDbSymbolTableRecord
100
AcDbBlockTableRecord
  2
*D57
340
0
  0
BLOCK_RECORD
  5
2DC7
330
2C96
100
AcDbSymbolTableRecord
100
AcDbBlockTableRecord
  2
*U58
340
0
102
{BLKREFS
331
1DA3
102
}
  0
BLOCK_RECORD
  5
2DC9
330
2C96
100
AcDbSymbolTableRecord
100
AcDbBlockTableRecord
  2
*D59
340
0
  0
BLOCK_RECORD
  5
2DCB
330
2C96
100
AcDbSymbolTableRecord
100
AcDbBlockTableRecord
  2
*U60
340
0
102
{BLKREFS
331
1DAD
102
}
  0
BLOCK_RECORD
  5
2DCD
330
2C96
100
AcDbSymbolTableRecord
100
AcDbBlockTableRecord
  2
*D61
340
0
  0
BLOCK_RECORD
  5
2DCF
330
2C96
100
AcDbSymbolTableRecord
100
AcDbBlockTableRecord
  2
*U62
340
0
102
{BLKREFS
331
1DB7
102
}
  0
BLOCK_RECORD
  5
2DD1
330
2C96
100
AcDbSymbolTableRecord
100
AcDbBlockTableRecord
  2
*U63
340
0
  0
BLOCK_RECORD
  5
2DD3
330
2C96
100
AcDbSymbolTableRecord
100
AcDbBlockTableRecord
  2
*U64
340
0
  0
BLOCK_RECORD
  5
2DD5
330
2C96
100
AcDbSymbolTableRecord
100
AcDbBlockTableRecord
  2
*U65
340
0
  0
BLOCK_RECORD
  5
2DD7
330
2C96
100
AcDbSymbolTableRecord
100
AcDbBlockTableRecord
  2
*X66
340
0
102
{BLKREFS
331
29B3
102
}
  0
BLOCK_RECORD
  5
2DD9
330
2C96
100
AcDbSymbolTableRecord
100
AcDbBlockTableRecord
  2
*X67
340
0
102
{BLKREFS
331
29B4
102
}
  0
BLOCK_RECORD
  5
2DDB
330
2C96
100
AcDbSymbolTableRecord
100
AcDbBlockTableRecord
  2
*U68
340
0
102
{BLKREFS
331
29CC
102
}
  0
BLOCK_RECORD
  5
2DDD
330
2C96
100
AcDbSymbolTableRecord
100
AcDbBlockTableRecord
  2
*U69
340
0
102
{BLKREFS
331
29CD
102
}
  0
ENDTAB
  0
ENDSEC
  0
SECTION
  2
BLOCKS
  0
BLOCK
  5
2D0A
330
2D09
100
AcDbEntity
  8
0
100
AcDbBlockBegin
  2
*Model_Space
 70
     0
 10
0.0
 20
0.0
 30
0.0
  3
*Model_Space
  1

  0
ENDBLK
  5
2D0B
330
2D09
100
AcDbEntity
  8
0
100
AcDbBlockEnd
  0
BLOCK
  5
2D06
330
2D05
100
AcDbEntity
 67
     1
  8
0
100
AcDbBlockBegin
  2
*Paper_Space
 70
     0
 10
0.0
 20
0.0
 30
0.0
  3
*Paper_Space
  1

  0
ENDBLK
  5
2D07
330
2D05
100
AcDbEntity
 67
     1
  8
0
100
AcDbBlockEnd
  0
BLOCK
  5
2D54
330
2D53
100
AcDbEntity
  8
0
100
AcDbBlockBegin
  2
$MODEL_SPACE
 70
     0
 10
0.0
 20
0.0
 30
0.0
  3
$MODEL_SPACE
  1

  0
ENDBLK
  5
2AA5
330
2D53
100
AcDbEntity
  8
0
100
AcDbBlockEnd
  0
BLOCK
  5
2D56
330
2D55
100
AcDbEntity
  8
0
100
AcDbBlockBegin
  2
$PAPER_SPACE
 70
     0
 10
0.0
 20
0.0
 30
0.0
  3
$PAPER_SPACE
  1

  0
ENDBLK
  5
2AA1
330
2D55
100
AcDbEntity
  8
0
100
AcDbBlockEnd
  0
BLOCK
  5
2D58
330
2D57
100
AcDbEntity
  8
0
100
AcDbBlockBegin
  2
_ORIGIN
 70
     0
 10
0.0
 20
0.0
 30
0.0
  3
_ORIGIN
  1

  0
CIRCLE
  5
880
330
2D57
100
AcDbEntity
  8
0
  6
Continuous
 62
     7
100
AcDbCircle
 10
0.0
 20
0.0
 30
0.0
 40
0.5
  0
LINE
  5
881
330
2D57
100
AcDbEntity
  8
0
  6
Continuous
 62
     7
100
AcDbLine
 10
0.0
 20
0.0
 30
0.0
 11
-1.0
 21
0.0
 31
0.0
  0
ENDBLK
  5
882
330
2D57
100
AcDbEntity
  8
0
100
AcDbBlockEnd
  0
BLOCK
  5
2D5A
330
2D59
100
AcDbEntity
  8
0
 62
     1
100
AcDbBlockBegin
  2
_DOTBLANK
 70
     0
 10
0.0
 20
0.0
 30
0.0
  3
_DOTBLANK
  1

  0
CIRCLE
  5
AB3
330
2D59
100
AcDbEntity
  8
0
  6
ByBlock
 62
     0
100
AcDbCircle
 10
0.0
 20
0.0
 30
0.0
 40
0.5
  0
LINE
  5
AB4
330
2D59
100
AcDbEntity
  8
0
  6
ByBlock
 62
     0
100
AcDbLine
 10
-0.5
 20
0.0
 30
0.0
 11
-1.0
 21
0.0
 31
0.0
  0
ENDBLK
  5
AB6
330
2D59
100
AcDbEntity
  8
0
 62
     1
100
AcDbBlockEnd
  0
BLOCK
  5
2D5C
330
2D5B
100
AcDbEntity
  8
0
 62
     1
100
AcDbBlockBegin
  2
_OPEN30
 70
     0
 10
0.0
 20
0.0
 30
0.0
  3
_OPEN30
  1

  0
LINE
  5
AB8
330
2D5B
100
AcDbEntity
  8
0
  6
ByBlock
 62
     0
100
AcDbLine
 10
-1.0
 20
0.26794919
 30
0.0
 11
0.0
 21
0.0
 31
0.0
  0
LINE
  5
AB9
330
2D5B
100
AcDbEntity
  8
0
  6
ByBlock
 62
     0
100
AcDbLine
 10
0.0
 20
0.0
 30
0.0
 11
-1.0
 21
-0.26794919
 31
0.0
  0
LINE
  5
ABA
330
2D5B
100
AcDbEntity
  8
0
  6
ByBlock
 62
     0
100
AcDbLine
 10
0.0
 20
0.0
 30
0.0
 11
-1.0
 21
0.0
 31
0.0
  0
ENDBLK
  5
ABC
330
2D5B
100
AcDbEntity
  8
0
 62
     1
100
AcDbBlockEnd
  0
BLOCK
  5
2D5E
330
2D5D
100
AcDbEntity
  8
0
100
AcDbBlockBegin
  2
*D5
 70
     1
 10
0.0
 20
0.0
 30
0.0
  3
*D5
  1

  0
LINE
  5
1296
330
2D5D
100
AcDbEntity
  8
SIZE
 62
     0
100
AcDbLine
 10
-134.5
 20
-320.0
 30
0.0
 11
-134.5
 21
-468.0173952306001
 31
0.0
  0
LINE
  5
1297
330
2D5D
100
AcDbEntity
  8
SIZE
 62
     0
100
AcDbLine
 10
134.5
 20
-320.0
 30
0.0
 11
134.5
 21
-468.0173952306001
 31
0.0
  0
LINE
  5
1298
330
2D5D
100
AcDbEntity
  8
SIZE
 62
     0
100
AcDbLine
 10
-122.5
 20
-448.0173952306
 30
0.0
 11
122.5
 21
-448.0173952306
 31
0.0
  0
INSERT
  5
1299
330
2D5D
100
AcDbEntity
  8
SIZE
 62
     0
100
AcDbBlockReference
  2
_DOTBLANK
 10
-134.5
 20
-448.0173952306
 30
0.0
 41
12.0
 42
12.0
 43
12.0
 50
180.0
  0
INSERT
  5
129A
330
2D5D
100
AcDbEntity
  8
SIZE
 62
     0
100
AcDbBlockReference
  2
_DOTBLANK
 10
134.5
 20
-448.0173952306
 30
0.0
 41
12.0
 42
12.0
 43
12.0
  0
INSERT
  5
129B
330
2D5D
100
AcDbEntity
  8
0
100
AcDbBlockReference
  2
*U6
 10
0.0
 20
0.0
 30
0.0
  0
POINT
  5
129C
330
2D5D
100
AcDbEntity
  8
DEFPOINTS
 62
     0
100
AcDbPoint
 10
-134.5
 20
-300.0
 30
0.0
  0
POINT
  5
129D
330
2D5D
100
AcDbEntity
  8
DEFPOINTS
 62
     0
100
AcDbPoint
 10
134.5
 20
-300.0
 30
0.0
  0
POINT
  5
129E
330
2D5D
100
AcDbEntity
  8
DEFPOINTS
 62
     0
100
AcDbPoint
 10
134.5
 20
-448.0173952306
 30
0.0
  0
ENDBLK
  5
D72
330
2D5D
100
AcDbEntity
  8
0
100
AcDbBlockEnd
  0
BLOCK
  5
2D60
330
2D5F
100
AcDbEntity
  8
0
100
AcDbBlockBegin
  2
*U6
 70
     1
 10
0.0
 20
0.0
 30
0.0
  3
*U6
  1

  0
TEXT
  5
1EF5
330
2D5F
100
AcDbEntity
  8
SIZE
 62
     0
100
AcDbText
 10
-72.68571428571426
 20
-438.0173952305999
 30
0.0
 40
64.0
  1
269
 41
0.9
100
AcDbText
  0
ENDBLK
  5
1EF7
330
2D5F
100
AcDbEntity
  8
0
100
AcDbBlockEnd
  0
BLOCK
  5
2D62
330
2D61
100
AcDbEntity
  8
0
100
AcDbBlockBegin
  2
*D7
 70
     1
 10
0.0
 20
0.0
 30
0.0
  3
*D7
  1

  0
LINE
  5
11A7
330
2D61
100
AcDbEntity
  8
SIZE
  6
Continuous
 62
     0
100
AcDbLine
 10
143.5
 20
-300.0
 30
0.0
 11
304.6432844803791
 21
-300.0
 31
0.0
  0
LINE
  5
11A8
330
2D61
100
AcDbEntity
  8
SIZE
  6
Continuous
 62
     0
100
AcDbLine
 10
177.5
 20
-0.0000000000000057
 30
0.0
 11
304.6432844803792
 21
-0.0000000000000417
 31
0.0
  0
LINE
  5
11A9
330
2D61
100
AcDbEntity
  8
SIZE
  6
Continuous
 62
     0
100
AcDbLine
 10
284.6432844803791
 20
-288.0000000000001
 30
0.0
 11
284.6432844803792
 21
-12.00000000000003
 31
0.0
  0
INSERT
  5
11AA
330
2D61
100
AcDbEntity
  8
SIZE
  6
Continuous
 62
     0
100
AcDbBlockReference
  2
_DOTBLANK
 10
284.6432844803791
 20
-300.0
 30
0.0
 41
12.0
 42
12.0
 43
12.0
 50
270.0
  0
INSERT
  5
11AB
330
2D61
100
AcDbEntity
  8
SIZE
  6
Continuous
 62
     0
100
AcDbBlockReference
  2
_DOTBLANK
 10
284.6432844803792
 20
-0.000000000000036
 30
0.0
 41
12.0
 42
12.0
 43
12.0
 50
90.0
  0
INSERT
  5
11AC
330
2D61
100
AcDbEntity
  8
0
100
AcDbBlockReference
  2
*U8
 10
0.0
 20
0.0
 30
0.0
  0
POINT
  5
11AD
330
2D61
100
AcDbEntity
  8
DEFPOINTS
  6
Continuous
 62
     0
100
AcDbPoint
 10
123.5
 20
-300.0
 30
0.0
  0
POINT
  5
11AE
330
2D61
100
AcDbEntity
  8
DEFPOINTS
  6
Continuous
 62
     0
100
AcDbPoint
 10
157.5
 20
0.0
 30
0.0
  0
POINT
  5
11AF
330
2D61
100
AcDbEntity
  8
DEFPOINTS
  6
Continuous
 62
     0
100
AcDbPoint
 10
284.6432844803792
 20
-0.000000000000036
 30
0.0
  0
ENDBLK
  5
E11
330
2D61
100
AcDbEntity
  8
0
100
AcDbBlockEnd
  0
BLOCK
  5
2D64
330
2D63
100
AcDbEntity
  8
0
100
AcDbBlockBegin
  2
*U8
 70
     1
 10
0.0
 20
0.0
 30
0.0
  3
*U8
  1

  0
TEXT
  5
1EE1
330
2D63
100
AcDbEntity
  8
SIZE
 62
     0
100
AcDbText
 10
274.6432844803792
 20
-224.0571428571429
 30
0.0
 40
64.0
  1
300
 50
90.0
 41
0.9
100
AcDbText
  0
ENDBLK
  5
1EE3
330
2D63
100
AcDbEntity
  8
0
100
AcDbBlockEnd
  0
BLOCK
  5
2D66
330
2D65
100
AcDbEntity
  8
0
100
AcDbBlockBegin
  2
*D9
 70
     1
 10
0.0
 20
0.0
 30
0.0
  3
*D9
  1

  0
LINE
  5
E7D
330
2D65
100
AcDbEntity
  8
SIZE
 62
     0
100
AcDbLine
 10
-139.9999999999998
 20
32.46448280219375
 30
0.0
 11
-139.9999999999998
 21
136.4516878685508
 31
0.0
  0
LINE
  5
E7E
330
2D65
100
AcDbEntity
  8
SIZE
 62
     0
100
AcDbLine
 10
140.0
 20
32.46448280219375
 30
0.0
 11
140.0
 21
136.4516878685508
 31
0.0
  0
LINE
  5
E7F
330
2D65
100
AcDbEntity
  8
SIZE
 62
     0
100
AcDbLine
 10
-128.0
 20
116.4516878685508
 30
0.0
 11
128.0
 21
116.4516878685508
 31
0.0
  0
INSERT
  5
E80
330
2D65
100
AcDbEntity
  8
SIZE
 62
     0
100
AcDbBlockReference
  2
_DOTBLANK
 10
-139.9999999999998
 20
116.4516878685508
 30
0.0
 41
12.0
 42
12.0
 43
12.0
 50
180.0
  0
INSERT
  5
E81
330
2D65
100
AcDbEntity
  8
SIZE
 62
     0
100
AcDbBlockReference
  2
_DOTBLANK
 10
140.0
 20
116.4516878685508
 30
0.0
 41
12.0
 42
12.0
 43
12.0
  0
INSERT
  5
E82
330
2D65
100
AcDbEntity
  8
0
100
AcDbBlockReference
  2
*U10
 10
0.0
 20
0.0
 30
0.0
  0
POINT
  5
E83
330
2D65
100
AcDbEntity
  8
DEFPOINTS
 62
     0
100
AcDbPoint
 10
-139.9999999999998
 20
12.46448280219374
 30
0.0
  0
POINT
  5
E84
330
2D65
100
AcDbEntity
  8
DEFPOINTS
 62
     0
100
AcDbPoint
 10
140.0
 20
12.46448280219374
 30
0.0
  0
POINT
  5
E85
330
2D65
100
AcDbEntity
  8
DEFPOINTS
 62
     0
100
AcDbPoint
 10
140.0
 20
116.4516878685508
 30
0.0
  0
ENDBLK
  5
E7C
330
2D65
100
AcDbEntity
  8
0
100
AcDbBlockEnd
  0
BLOCK
  5
2D68
330
2D67
100
AcDbEntity
  8
0
100
AcDbBlockBegin
  2
*U10
 70
     1
 10
0.0
 20
0.0
 30
0.0
  3
*U10
  1

  0
TEXT
  5
1ED8
330
2D67
100
AcDbEntity
  8
SIZE
 62
     0
100
AcDbText
 10
-74.05714285714281
 20
126.4516878685508
 30
0.0
 40
64.0
  1
280
 41
0.9
100
AcDbText
  0
ENDBLK
  5
1EDA
330
2D67
100
AcDbEntity
  8
0
100
AcDbBlockEnd
  0
BLOCK
  5
2D6A
330
2D69
100
AcDbEntity
  8
0
100
AcDbBlockBegin
  2
GENAXEH
 70
     0
 10
0.0
 20
0.0
 30
0.0
  3
GENAXEH
  1

  0
LINE
  5
FDB
330
2D69
100
AcDbEntity
  8
0
100
AcDbLine
 10
-1.0
 20
0.0
 30
0.0
 11
1.0
 21
0.0
 31
0.0
  0
ENDBLK
  5
FDD
330
2D69
100
AcDbEntity
  8
0
100
AcDbBlockEnd
  0
BLOCK
  5
2D6C
330
2D6B
100
AcDbEntity
  8
0
100
AcDbBlockBegin
  2
*D12
 70
     1
 10
0.0
 20
0.0
 30
0.0
  3
*D12
  1

  0
LINE
  5
1120
330
2D6B
100
AcDbEntity
  8
SIZE
 62
     0
100
AcDbLine
 10
-157.5
 20
20.0
 30
0.0
 11
-157.5
 21
245.5794621189598
 31
0.0
  0
LINE
  5
1121
330
2D6B
100
AcDbEntity
  8
SIZE
 62
     0
100
AcDbLine
 10
157.5
 20
20.0
 30
0.0
 11
157.5
 21
245.5794621189598
 31
0.0
  0
LINE
  5
1122
330
2D6B
100
AcDbEntity
  8
SIZE
 62
     0
100
AcDbLine
 10
-145.5
 20
225.5794621189598
 30
0.0
 11
145.5
 21
225.5794621189598
 31
0.0
  0
INSERT
  5
1123
330
2D6B
100
AcDbEntity
  8
SIZE
 62
     0
100
AcDbBlockReference
  2
_DOTBLANK
 10
-157.5
 20
225.5794621189598
 30
0.0
 41
12.0
 42
12.0
 43
12.0
 50
180.0
  0
INSERT
  5
1124
330
2D6B
100
AcDbEntity
  8
SIZE
 62
     0
100
AcDbBlockReference
  2
_DOTBLANK
 10
157.5
 20
225.5794621189598
 30
0.0
 41
12.0
 42
12.0
 43
12.0
  0
INSERT
  5
1125
330
2D6B
100
AcDbEntity
  8
0
100
AcDbBlockReference
  2
*U13
 10
0.0
 20
0.0
 30
0.0
  0
POINT
  5
1126
330
2D6B
100
AcDbEntity
  8
DEFPOINTS
 62
     0
100
AcDbPoint
 10
-157.5
 20
0.0
 30
0.0
  0
POINT
  5
1127
330
2D6B
100
AcDbEntity
  8
DEFPOINTS
 62
     0
100
AcDbPoint
 10
157.5
 20
0.0
 30
0.0
  0
POINT
  5
1128
330
2D6B
100
AcDbEntity
  8
DEFPOINTS
 62
     0
100
AcDbPoint
 10
157.5
 20
225.5794621189598
 30
0.0
  0
ENDBLK
  5
111F
330
2D6B
100
AcDbEntity
  8
0
100
AcDbBlockEnd
  0
BLOCK
  5
2D6E
330
2D6D
100
AcDbEntity
  8
0
100
AcDbBlockBegin
  2
*U13
 70
     1
 10
0.0
 20
0.0
 30
0.0
  3
*U13
  1

  0
TEXT
  5
1EDD
330
2D6D
100
AcDbEntity
  8
SIZE
 62
     0
100
AcDbText
 10
-68.57142857142857
 20
235.5794621189599
 30
0.0
 40
64.0
  1
315
 41
0.9
100
AcDbText
  0
ENDBLK
  5
1EDF
330
2D6D
100
AcDbEntity
  8
0
100
AcDbBlockEnd
  0
BLOCK
  5
2D70
330
2D6F
100
AcDbEntity
  8
0
100
AcDbBlockBegin
  2
*D14
 70
     1
 10
0.0
 20
0.0
 30
0.0
  3
*D14
  1

  0
LINE
  5
11BD
330
2D6F
100
AcDbEntity
  8
NOTE
 62
     0
100
AcDbLine
 10
-123.4999999999999
 20
-320.0
 30
0.0
 11
-123.4999999999999
 21
-354.9529861856111
 31
0.0
  0
LINE
  5
11BE
330
2D6F
100
AcDbEntity
  8
NOTE
 62
     0
100
AcDbLine
 10
-133.4999999999998
 20
-331.2126909923287
 30
0.0
 11
-133.4999999999998
 21
-354.9529861856111
 31
0.0
  0
LINE
  5
11BF
330
2D6F
100
AcDbEntity
  8
NOTE
 62
     0
100
AcDbLine
 10
-111.4999999999999
 20
-334.9529861856112
 30
0.0
 11
-99.4999999999999
 21
-334.9529861856112
 31
0.0
  0
LINE
  5
11C0
330
2D6F
100
AcDbEntity
  8
NOTE
 62
     0
100
AcDbLine
 10
-145.4999999999998
 20
-334.9529861856112
 30
0.0
 11
-157.4999999999998
 21
-334.9529861856112
 31
0.0
  0
LINE
  5
11C1
330
2D6F
100
AcDbEntity
  8
NOTE
 62
     0
100
AcDbLine
 10
-123.4999999999999
 20
-334.9529861856112
 30
0.0
 11
-133.4999999999998
 21
-334.9529861856112
 31
0.0
  0
INSERT
  5
11C2
330
2D6F
100
AcDbEntity
  8
NOTE
 62
     0
100
AcDbBlockReference
  2
_DOTBLANK
 10
-123.4999999999999
 20
-334.9529861856112
 30
0.0
 41
12.0
 42
12.0
 43
12.0
 50
180.0
  0
INSERT
  5
11C3
330
2D6F
100
AcDbEntity
  8
NOTE
 62
     0
100
AcDbBlockReference
  2
_DOTBLANK
 10
-133.4999999999998
 20
-334.9529861856112
 30
0.0
 41
12.0
 42
12.0
 43
12.0
  0
INSERT
  5
11C4
330
2D6F
100
AcDbEntity
  8
0
100
AcDbBlockReference
  2
*U15
 10
0.0
 20
0.0
 30
0.0
  0
POINT
  5
11C5
330
2D6F
100
AcDbEntity
  8
DEFPOINTS
 62
     0
100
AcDbPoint
 10
-123.4999999999999
 20
-300.0
 30
0.0
  0
POINT
  5
11C6
330
2D6F
100
AcDbEntity
  8
DEFPOINTS
 62
     0
100
AcDbPoint
 10
-133.4999999999998
 20
-311.2126909923287
 30
0.0
  0
POINT
  5
11C7
330
2D6F
100
AcDbEntity
  8
DEFPOINTS
 62
     0
100
AcDbPoint
 10
-133.4999999999998
 20
-334.9529861856112
 30
0.0
  0
ENDBLK
  5
11BC
330
2D6F
100
AcDbEntity
  8
0
100
AcDbBlockEnd
  0
BLOCK
  5
2D72
330
2D71
100
AcDbEntity
  8
0
100
AcDbBlockBegin
  2
*U15
 70
     1
 10
0.0
 20
0.0
 30
0.0
  3
*U15
  1

  0
TEXT
  5
1EE5
330
2D71
100
AcDbEntity
  8
NOTE
 62
     0
100
AcDbText
 10
-169.642857142857
 20
-324.9529861856112
 30
0.0
 40
64.0
  1
10
 41
0.9
100
AcDbText
  0
ENDBLK
  5
1EE7
330
2D71
100
AcDbEntity
  8
0
100
AcDbBlockEnd
  0
BLOCK
  5
2D74
330
2D73
100
AcDbEntity
  8
0
100
AcDbBlockBegin
  2
*D16
 70
     1
 10
0.0
 20
0.0
 30
0.0
  3
*D16
  1

  0
LINE
  5
11E7
330
2D73
100
AcDbEntity
  8
NOTE
 62
     0
100
AcDbLine
 10
-135.5
 20
-333.2126909923287
 30
0.0
 11
-135.5
 21
-386.2569421441843
 31
0.0
  0
LINE
  5
11E8
330
2D73
100
AcDbEntity
  8
NOTE
 62
     0
100
AcDbLine
 10
-123.4999999999999
 20
-320.0
 30
0.0
 11
-123.4999999999999
 21
-386.2569421441843
 31
0.0
  0
LINE
  5
11E9
330
2D73
100
AcDbEntity
  8
NOTE
 62
     0
100
AcDbLine
 10
-147.5
 20
-366.2569421441844
 30
0.0
 11
-159.5
 21
-366.2569421441844
 31
0.0
  0
LINE
  5
11EA
330
2D73
100
AcDbEntity
  8
NOTE
 62
     0
100
AcDbLine
 10
-111.4999999999999
 20
-366.2569421441844
 30
0.0
 11
-99.4999999999999
 21
-366.2569421441844
 31
0.0
  0
LINE
  5
11EB
330
2D73
100
AcDbEntity
  8
NOTE
 62
     0
100
AcDbLine
 10
-135.5
 20
-366.2569421441844
 30
0.0
 11
-123.4999999999999
 21
-366.2569421441844
 31
0.0
  0
INSERT
  5
11EC
330
2D73
100
AcDbEntity
  8
NOTE
 62
     0
100
AcDbBlockReference
  2
_DOTBLANK
 10
-135.5
 20
-366.2569421441844
 30
0.0
 41
12.0
 42
12.0
 43
12.0
  0
INSERT
  5
11ED
330
2D73
100
AcDbEntity
  8
NOTE
 62
     0
100
AcDbBlockReference
  2
_DOTBLANK
 10
-123.4999999999999
 20
-366.2569421441844
 30
0.0
 41
12.0
 42
12.0
 43
12.0
 50
180.0
  0
INSERT
  5
11EE
330
2D73
100
AcDbEntity
  8
0
100
AcDbBlockReference
  2
*U17
 10
0.0
 20
0.0
 30
0.0
  0
POINT
  5
11EF
330
2D73
100
AcDbEntity
  8
DEFPOINTS
 62
     0
100
AcDbPoint
 10
-135.5
 20
-313.2126909923287
 30
0.0
  0
POINT
  5
11F0
330
2D73
100
AcDbEntity
  8
DEFPOINTS
 62
     0
100
AcDbPoint
 10
-123.4999999999999
 20
-300.0
 30
0.0
  0
POINT
  5
11F1
330
2D73
100
AcDbEntity
  8
DEFPOINTS
 62
     0
100
AcDbPoint
 10
-123.4999999999999
 20
-366.2569421441844
 30
0.0
  0
ENDBLK
  5
11E6
330
2D73
100
AcDbEntity
  8
0
100
AcDbBlockEnd
  0
BLOCK
  5
2D76
330
2D75
100
AcDbEntity
  8
0
100
AcDbBlockBegin
  2
*U17
 70
     1
 10
0.0
 20
0.0
 30
0.0
  3
*U17
  1

  0
TEXT
  5
1EE9
330
2D75
100
AcDbEntity
  8
NOTE
 62
     0
100
AcDbText
 10
-170.642857142857
 20
-356.2569421441843
 30
0.0
 40
64.0
  1
12
 41
0.9
100
AcDbText
  0
ENDBLK
  5
1EEB
330
2D75
100
AcDbEntity
  8
0
100
AcDbBlockEnd
  0
BLOCK
  5
2D78
330
2D77
100
AcDbEntity
  8
0
100
AcDbBlockBegin
  2
*D18
 70
     1
 10
0.0
 20
0.0
 30
0.0
  3
*D18
  1

  0
LINE
  5
11F6
330
2D77
100
AcDbEntity
  8
NOTE
 62
     0
100
AcDbLine
 10
-123.4999999999999
 20
-320.0
 30
0.0
 11
-123.4999999999999
 21
-583.8286022818904
 31
0.0
  0
LINE
  5
11F7
330
2D77
100
AcDbEntity
  8
NOTE
 62
     0
100
AcDbLine
 10
123.5
 20
-320.0
 30
0.0
 11
123.5
 21
-583.8286022818904
 31
0.0
  0
LINE
  5
11F8
330
2D77
100
AcDbEntity
  8
NOTE
 62
     0
100
AcDbLine
 10
-111.4999999999999
 20
-563.8286022818904
 30
0.0
 11
111.5
 21
-563.8286022818904
 31
0.0
  0
INSERT
  5
11F9
330
2D77
100
AcDbEntity
  8
NOTE
 62
     0
100
AcDbBlockReference
  2
_DOTBLANK
 10
-123.4999999999999
 20
-563.8286022818904
 30
0.0
 41
12.0
 42
12.0
 43
12.0
 50
180.0
  0
INSERT
  5
11FA
330
2D77
100
AcDbEntity
  8
NOTE
 62
     0
100
AcDbBlockReference
  2
_DOTBLANK
 10
123.5
 20
-563.8286022818904
 30
0.0
 41
12.0
 42
12.0
 43
12.0
  0
INSERT
  5
11FB
330
2D77
100
AcDbEntity
  8
0
100
AcDbBlockReference
  2
*U19
 10
0.0
 20
0.0
 30
0.0
  0
POINT
  5
11FC
330
2D77
100
AcDbEntity
  8
DEFPOINTS
 62
     0
100
AcDbPoint
 10
-123.4999999999999
 20
-300.0
 30
0.0
  0
POINT
  5
11FD
330
2D77
100
AcDbEntity
  8
DEFPOINTS
 62
     0
100
AcDbPoint
 10
123.5
 20
-300.0
 30
0.0
  0
POINT
  5
11FE
330
2D77
100
AcDbEntity
  8
DEFPOINTS
 62
     0
100
AcDbPoint
 10
123.5
 20
-563.8286022818904
 30
0.0
  0
ENDBLK
  5
11F5
330
2D77
100
AcDbEntity
  8
0
100
AcDbBlockEnd
  0
BLOCK
  5
2D7A
330
2D79
100
AcDbEntity
  8
0
100
AcDbBlockBegin
  2
*U19
 70
     1
 10
0.0
 20
0.0
 30
0.0
  3
*U19
  1

  0
TEXT
  5
1EED
330
2D79
100
AcDbEntity
  8
NOTE
 62
     0
100
AcDbText
 10
-74.05714285714281
 20
-553.8286022818904
 30
0.0
 40
64.0
  1
247
 41
0.9
100
AcDbText
  0
ENDBLK
  5
1EEF
330
2D79
100
AcDbEntity
  8
0
100
AcDbBlockEnd
  0
BLOCK
  5
2D7C
330
2D7B
100
AcDbEntity
  8
0
100
AcDbBlockBegin
  2
*D20
 70
     1
 10
0.0
 20
0.0
 30
0.0
  3
*D20
  1

  0
LINE
  5
1284
330
2D7B
100
AcDbEntity
  8
NOTE
 62
     0
100
AcDbLine
 10
-123.5
 20
12.0
 30
0.0
 11
-123.5
 21
71.83630134534229
 31
0.0
  0
LINE
  5
1285
330
2D7B
100
AcDbEntity
  8
NOTE
 62
     0
100
AcDbLine
 10
123.5
 20
12.0
 30
0.0
 11
123.5
 21
71.83630134534229
 31
0.0
  0
LINE
  5
1286
330
2D7B
100
AcDbEntity
  8
NOTE
 62
     0
100
AcDbLine
 10
-111.5
 20
51.83630134534229
 30
0.0
 11
111.5
 21
51.83630134534229
 31
0.0
  0
INSERT
  5
1287
330
2D7B
100
AcDbEntity
  8
NOTE
 62
     0
100
AcDbBlockReference
  2
_DOTBLANK
 10
-123.5
 20
51.83630134534229
 30
0.0
 41
12.0
 42
12.0
 43
12.0
 50
180.0
  0
INSERT
  5
1288
330
2D7B
100
AcDbEntity
  8
NOTE
 62
     0
100
AcDbBlockReference
  2
_DOTBLANK
 10
123.5
 20
51.83630134534229
 30
0.0
 41
12.0
 42
12.0
 43
12.0
  0
INSERT
  5
1289
330
2D7B
100
AcDbEntity
  8
0
100
AcDbBlockReference
  2
*U21
 10
0.0
 20
0.0
 30
0.0
  0
POINT
  5
128A
330
2D7B
100
AcDbEntity
  8
DEFPOINTS
 62
     0
100
AcDbPoint
 10
-123.5
 20
-8.0
 30
0.0
  0
POINT
  5
128B
330
2D7B
100
AcDbEntity
  8
DEFPOINTS
 62
     0
100
AcDbPoint
 10
123.5
 20
-8.0
 30
0.0
  0
POINT
  5
128C
330
2D7B
100
AcDbEntity
  8
DEFPOINTS
 62
     0
100
AcDbPoint
 10
123.5
 20
51.83630134534229
 30
0.0
  0
ENDBLK
  5
1283
330
2D7B
100
AcDbEntity
  8
0
100
AcDbBlockEnd
  0
BLOCK
  5
2D7E
330
2D7D
100
AcDbEntity
  8
0
100
AcDbBlockBegin
  2
*U21
 70
     1
 10
0.0
 20
0.0
 30
0.0
  3
*U21
  1

  0
TEXT
  5
1EF1
330
2D7D
100
AcDbEntity
  8
NOTE
 62
     0
100
AcDbText
 10
-74.05714285714283
 20
61.83630134534229
 30
0.0
 40
64.0
  1
247
 41
0.9
100
AcDbText
  0
ENDBLK
  5
1EF3
330
2D7D
100
AcDbEntity
  8
0
100
AcDbBlockEnd
  0
BLOCK
  5
2D80
330
2D7F
100
AcDbEntity
  8
0
100
AcDbBlockBegin
  2
*D22
 70
     1
 10
0.0
 20
0.0
 30
0.0
  3
*D22
  1

  0
LINE
  5
1414
330
2D7F
100
AcDbEntity
  8
SIZE
 62
     0
100
AcDbLine
 10
-22313.11521613997
 20
7365.702971374808
 30
0.0
 11
-22313.11521613997
 21
7217.685576144207
 31
0.0
  0
LINE
  5
1415
330
2D7F
100
AcDbEntity
  8
SIZE
 62
     0
100
AcDbLine
 10
-22044.11521613997
 20
7365.702971374808
 30
0.0
 11
-22044.11521613997
 21
7217.685576144207
 31
0.0
  0
LINE
  5
1416
330
2D7F
100
AcDbEntity
  8
SIZE
 62
     0
100
AcDbLine
 10
-22301.11521613997
 20
7237.685576144207
 30
0.0
 11
-22056.11521613997
 21
7237.685576144207
 31
0.0
  0
INSERT
  5
1417
330
2D7F
100
AcDbEntity
  8
SIZE
 62
     0
100
AcDbBlockReference
  2
_DOTBLANK
 10
-22313.11521613997
 20
7237.685576144207
 30
0.0
 41
12.0
 42
12.0
 43
12.0
 50
180.0
  0
INSERT
  5
1418
330
2D7F
100
AcDbEntity
  8
SIZE
 62
     0
100
AcDbBlockReference
  2
_DOTBLANK
 10
-22044.11521613997
 20
7237.685576144207
 30
0.0
 41
12.0
 42
12.0
 43
12.0
  0
INSERT
  5
1419
330
2D7F
100
AcDbEntity
  8
0
100
AcDbBlockReference
  2
*U23
 10
0.0
 20
0.0
 30
0.0
  0
POINT
  5
141A
330
2D7F
100
AcDbEntity
  8
DEFPOINTS
 62
     0
100
AcDbPoint
 10
-22313.11521613997
 20
7385.702971374808
 30
0.0
  0
POINT
  5
141B
330
2D7F
100
AcDbEntity
  8
DEFPOINTS
 62
     0
100
AcDbPoint
 10
-22044.11521613997
 20
7385.702971374808
 30
0.0
  0
POINT
  5
141C
330
2D7F
100
AcDbEntity
  8
DEFPOINTS
 62
     0
100
AcDbPoint
 10
-22044.11521613997
 20
7237.685576144207
 30
0.0
  0
ENDBLK
  5
141D
330
2D7F
100
AcDbEntity
  8
0
100
AcDbBlockEnd
  0
BLOCK
  5
2D82
330
2D81
100
AcDbEntity
  8
0
100
AcDbBlockBegin
  2
*U23
 70
     1
 10
0.0
 20
0.0
 30
0.0
  3
*U23
  1

  0
TEXT
  5
1EF9
330
2D81
100
AcDbEntity
  8
SIZE
 62
     0
100
AcDbText
 10
-22251.30093042568
 20
7247.685576144205
 30
0.0
 40
64.0
  1
269
 41
0.9
100
AcDbText
  0
ENDBLK
  5
1EFB
330
2D81
100
AcDbEntity
  8
0
100
AcDbBlockEnd
  0
BLOCK
  5
2D84
330
2D83
100
AcDbEntity
  8
0
100
AcDbBlockBegin
  2
*D24
 70
     1
 10
0.0
 20
0.0
 30
0.0
  3
*D24
  1

  0
LINE
  5
1420
330
2D83
100
AcDbEntity
  8
SIZE
  6
Continuous
 62
     0
100
AcDbLine
 10
-22035.11521613997
 20
7385.702971374808
 30
0.0
 11
-21873.97193165959
 21
7385.702971374808
 31
0.0
  0
LINE
  5
1421
330
2D83
100
AcDbEntity
  8
SIZE
  6
Continuous
 62
     0
100
AcDbLine
 10
-22001.11521613997
 20
7685.702971374808
 30
0.0
 11
-21873.97193165959
 21
7685.702971374808
 31
0.0
  0
LINE
  5
1422
330
2D83
100
AcDbEntity
  8
SIZE
  6
Continuous
 62
     0
100
AcDbLine
 10
-21893.97193165959
 20
7397.702971374808
 30
0.0
 11
-21893.97193165959
 21
7673.702971374808
 31
0.0
  0
INSERT
  5
1423
330
2D83
100
AcDbEntity
  8
SIZE
  6
Continuous
 62
     0
100
AcDbBlockReference
  2
_DOTBLANK
 10
-21893.97193165959
 20
7385.702971374808
 30
0.0
 41
12.0
 42
12.0
 43
12.0
 50
270.0
  0
INSERT
  5
1424
330
2D83
100
AcDbEntity
  8
SIZE
  6
Continuous
 62
     0
100
AcDbBlockReference
  2
_DOTBLANK
 10
-21893.97193165959
 20
7685.702971374808
 30
0.0
 41
12.0
 42
12.0
 43
12.0
 50
90.0
  0
INSERT
  5
1425
330
2D83
100
AcDbEntity
  8
0
100
AcDbBlockReference
  2
*U25
 10
0.0
 20
0.0
 30
0.0
  0
POINT
  5
1426
330
2D83
100
AcDbEntity
  8
DEFPOINTS
  6
Continuous
 62
     0
100
AcDbPoint
 10
-22055.11521613997
 20
7385.702971374808
 30
0.0
  0
POINT
  5
1427
330
2D83
100
AcDbEntity
  8
DEFPOINTS
  6
Continuous
 62
     0
100
AcDbPoint
 10
-22021.11521613997
 20
7685.702971374808
 30
0.0
  0
POINT
  5
1428
330
2D83
100
AcDbEntity
  8
DEFPOINTS
  6
Continuous
 62
     0
100
AcDbPoint
 10
-21893.97193165959
 20
7685.702971374808
 30
0.0
  0
ENDBLK
  5
1429
330
2D83
100
AcDbEntity
  8
0
100
AcDbBlockEnd
  0
BLOCK
  5
2D86
330
2D85
100
AcDbEntity
  8
0
100
AcDbBlockBegin
  2
*U25
 70
     1
 10
0.0
 20
0.0
 30
0.0
  3
*U25
  1

  0
TEXT
  5
1EFD
330
2D85
100
AcDbEntity
  8
SIZE
 62
     0
100
AcDbText
 10
-21903.97193165959
 20
7461.645828517662
 30
0.0
 40
64.0
  1
300
 50
90.0
 41
0.9
100
AcDbText
  0
ENDBLK
  5
1EFF
330
2D85
100
AcDbEntity
  8
0
100
AcDbBlockEnd
  0
BLOCK
  5
2D88
330
2D87
100
AcDbEntity
  8
0
100
AcDbBlockBegin
  2
*D26
 70
     1
 10
0.0
 20
0.0
 30
0.0
  3
*D26
  1

  0
LINE
  5
142C
330
2D87
100
AcDbEntity
  8
SIZE
 62
     0
100
AcDbLine
 10
-22318.61521613997
 20
7718.167454177002
 30
0.0
 11
-22318.61521613997
 21
7822.154659243358
 31
0.0
  0
LINE
  5
142D
330
2D87
100
AcDbEntity
  8
SIZE
 62
     0
100
AcDbLine
 10
-22038.61521613997
 20
7718.167454177002
 30
0.0
 11
-22038.61521613997
 21
7822.154659243358
 31
0.0
  0
LINE
  5
142E
330
2D87
100
AcDbEntity
  8
SIZE
 62
     0
100
AcDbLine
 10
-22306.61521613997
 20
7802.154659243358
 30
0.0
 11
-22050.61521613997
 21
7802.154659243358
 31
0.0
  0
INSERT
  5
142F
330
2D87
100
AcDbEntity
  8
SIZE
 62
     0
100
AcDbBlockReference
  2
_DOTBLANK
 10
-22318.61521613997
 20
7802.154659243358
 30
0.0
 41
12.0
 42
12.0
 43
12.0
 50
180.0
  0
INSERT
  5
1430
330
2D87
100
AcDbEntity
  8
SIZE
 62
     0
100
AcDbBlockReference
  2
_DOTBLANK
 10
-22038.61521613997
 20
7802.154659243358
 30
0.0
 41
12.0
 42
12.0
 43
12.0
  0
INSERT
  5
1431
330
2D87
100
AcDbEntity
  8
0
100
AcDbBlockReference
  2
*U27
 10
0.0
 20
0.0
 30
0.0
  0
POINT
  5
1432
330
2D87
100
AcDbEntity
  8
DEFPOINTS
 62
     0
100
AcDbPoint
 10
-22318.61521613997
 20
7698.167454177002
 30
0.0
  0
POINT
  5
1433
330
2D87
100
AcDbEntity
  8
DEFPOINTS
 62
     0
100
AcDbPoint
 10
-22038.61521613997
 20
7698.167454177002
 30
0.0
  0
POINT
  5
1434
330
2D87
100
AcDbEntity
  8
DEFPOINTS
 62
     0
100
AcDbPoint
 10
-22038.61521613997
 20
7802.154659243358
 30
0.0
  0
ENDBLK
  5
1435
330
2D87
100
AcDbEntity
  8
0
100
AcDbBlockEnd
  0
BLOCK
  5
2D8A
330
2D89
100
AcDbEntity
  8
0
100
AcDbBlockBegin
  2
*U27
 70
     1
 10
0.0
 20
0.0
 30
0.0
  3
*U27
  1

  0
TEXT
  5
1F01
330
2D89
100
AcDbEntity
  8
SIZE
 62
     0
100
AcDbText
 10
-22252.6723589971
 20
7812.154659243358
 30
0.0
 40
64.0
  1
280
 41
0.9
100
AcDbText
  0
ENDBLK
  5
1F03
330
2D89
100
AcDbEntity
  8
0
100
AcDbBlockEnd
  0
BLOCK
  5
2D8C
330
2D8B
100
AcDbEntity
  8
0
100
AcDbBlockBegin
  2
*D28
 70
     1
 10
0.0
 20
0.0
 30
0.0
  3
*D28
  1

  0
LINE
  5
1438
330
2D8B
100
AcDbEntity
  8
SIZE
 62
     0
100
AcDbLine
 10
-22336.11521613997
 20
7705.702971374808
 30
0.0
 11
-22336.11521613997
 21
7931.282433493766
 31
0.0
  0
LINE
  5
1439
330
2D8B
100
AcDbEntity
  8
SIZE
 62
     0
100
AcDbLine
 10
-22021.11521613997
 20
7705.702971374808
 30
0.0
 11
-22021.11521613997
 21
7931.282433493766
 31
0.0
  0
LINE
  5
143A
330
2D8B
100
AcDbEntity
  8
SIZE
 62
     0
100
AcDbLine
 10
-22324.11521613997
 20
7911.282433493766
 30
0.0
 11
-22033.11521613997
 21
7911.282433493766
 31
0.0
  0
INSERT
  5
143B
330
2D8B
100
AcDbEntity
  8
SIZE
 62
     0
100
AcDbBlockReference
  2
_DOTBLANK
 10
-22336.11521613997
 20
7911.282433493766
 30
0.0
 41
12.0
 42
12.0
 43
12.0
 50
180.0
  0
INSERT
  5
143C
330
2D8B
100
AcDbEntity
  8
SIZE
 62
     0
100
AcDbBlockReference
  2
_DOTBLANK
 10
-22021.11521613997
 20
7911.282433493766
 30
0.0
 41
12.0
 42
12.0
 43
12.0
  0
INSERT
  5
143D
330
2D8B
100
AcDbEntity
  8
0
100
AcDbBlockReference
  2
*U29
 10
0.0
 20
0.0
 30
0.0
  0
POINT
  5
143E
330
2D8B
100
AcDbEntity
  8
DEFPOINTS
 62
     0
100
AcDbPoint
 10
-22336.11521613997
 20
7685.702971374808
 30
0.0
  0
POINT
  5
143F
330
2D8B
100
AcDbEntity
  8
DEFPOINTS
 62
     0
100
AcDbPoint
 10
-22021.11521613997
 20
7685.702971374808
 30
0.0
  0
POINT
  5
1440
330
2D8B
100
AcDbEntity
  8
DEFPOINTS
 62
     0
100
AcDbPoint
 10
-22021.11521613997
 20
7911.282433493766
 30
0.0
  0
ENDBLK
  5
1441
330
2D8B
100
AcDbEntity
  8
0
100
AcDbBlockEnd
  0
BLOCK
  5
2D8E
330
2D8D
100
AcDbEntity
  8
0
100
AcDbBlockBegin
  2
*U29
 70
     1
 10
0.0
 20
0.0
 30
0.0
  3
*U29
  1

  0
TEXT
  5
1F05
330
2D8D
100
AcDbEntity
  8
SIZE
 62
     0
100
AcDbText
 10
-22247.18664471139
 20
7921.282433493766
 30
0.0
 40
64.0
  1
315
 41
0.9
100
AcDbText
  0
ENDBLK
  5
1F07
330
2D8D
100
AcDbEntity
  8
0
100
AcDbBlockEnd
  0
BLOCK
  5
2D90
330
2D8F
100
AcDbEntity
  8
0
100
AcDbBlockBegin
  2
*D30
 70
     1
 10
0.0
 20
0.0
 30
0.0
  3
*D30
  1

  0
LINE
  5
166B
330
2D8F
100
AcDbEntity
  8
SIZE
 62
     0
100
AcDbLine
 10
-134.5
 20
-320.0
 30
0.0
 11
-134.5
 21
-468.0173952306001
 31
0.0
  0
LINE
  5
166C
330
2D8F
100
AcDbEntity
  8
SIZE
 62
     0
100
AcDbLine
 10
134.5
 20
-320.0
 30
0.0
 11
134.5
 21
-468.0173952306001
 31
0.0
  0
LINE
  5
166D
330
2D8F
100
AcDbEntity
  8
SIZE
 62
     0
100
AcDbLine
 10
-122.5
 20
-448.0173952306
 30
0.0
 11
122.5
 21
-448.0173952306
 31
0.0
  0
INSERT
  5
166E
330
2D8F
100
AcDbEntity
  8
SIZE
 62
     0
100
AcDbBlockReference
  2
_DOTBLANK
 10
-134.5
 20
-448.0173952306
 30
0.0
 41
12.0
 42
12.0
 43
12.0
 50
180.0
  0
INSERT
  5
166F
330
2D8F
100
AcDbEntity
  8
SIZE
 62
     0
100
AcDbBlockReference
  2
_DOTBLANK
 10
134.5
 20
-448.0173952306
 30
0.0
 41
12.0
 42
12.0
 43
12.0
  0
INSERT
  5
1670
330
2D8F
100
AcDbEntity
  8
0
100
AcDbBlockReference
  2
*U31
 10
0.0
 20
0.0
 30
0.0
  0
POINT
  5
1671
330
2D8F
100
AcDbEntity
  8
DEFPOINTS
 62
     0
100
AcDbPoint
 10
-134.5
 20
-300.0
 30
0.0
  0
POINT
  5
1672
330
2D8F
100
AcDbEntity
  8
DEFPOINTS
 62
     0
100
AcDbPoint
 10
134.5
 20
-300.0
 30
0.0
  0
POINT
  5
1673
330
2D8F
100
AcDbEntity
  8
DEFPOINTS
 62
     0
100
AcDbPoint
 10
134.5
 20
-448.0173952306
 30
0.0
  0
ENDBLK
  5
14A7
330
2D8F
100
AcDbEntity
  8
0
100
AcDbBlockEnd
  0
BLOCK
  5
2D92
330
2D91
100
AcDbEntity
  8
0
100
AcDbBlockBegin
  2
*U31
 70
     1
 10
0.0
 20
0.0
 30
0.0
  3
*U31
  1

  0
TEXT
  5
1F09
330
2D91
100
AcDbEntity
  8
SIZE
 62
     0
100
AcDbText
 10
-72.68571428571426
 20
-438.0173952306002
 30
0.0
 40
64.0
  1
269
 41
0.9
100
AcDbText
  0
ENDBLK
  5
1F0B
330
2D91
100
AcDbEntity
  8
0
100
AcDbBlockEnd
  0
BLOCK
  5
2D94
330
2D93
100
AcDbEntity
  8
0
100
AcDbBlockBegin
  2
*D32
 70
     1
 10
0.0
 20
0.0
 30
0.0
  3
*D32
  1

  0
LINE
  5
1674
330
2D93
100
AcDbEntity
  8
SIZE
  6
Continuous
 62
     0
100
AcDbLine
 10
143.5
 20
-300.0
 30
0.0
 11
304.6432844803784
 21
-300.0
 31
0.0
  0
LINE
  5
1675
330
2D93
100
AcDbEntity
  8
SIZE
  6
Continuous
 62
     0
100
AcDbLine
 10
177.5
 20
-0.0000000000000057
 30
0.0
 11
304.6432844803785
 21
-0.0000000000000417
 31
0.0
  0
LINE
  5
1676
330
2D93
100
AcDbEntity
  8
SIZE
  6
Continuous
 62
     0
100
AcDbLine
 10
284.6432844803784
 20
-288.0000000000001
 30
0.0
 11
284.6432844803785
 21
-12.00000000000003
 31
0.0
  0
INSERT
  5
1677
330
2D93
100
AcDbEntity
  8
SIZE
  6
Continuous
 62
     0
100
AcDbBlockReference
  2
_DOTBLANK
 10
284.6432844803784
 20
-300.0
 30
0.0
 41
12.0
 42
12.0
 43
12.0
 50
270.0
  0
INSERT
  5
1678
330
2D93
100
AcDbEntity
  8
SIZE
  6
Continuous
 62
     0
100
AcDbBlockReference
  2
_DOTBLANK
 10
284.6432844803785
 20
-0.000000000000036
 30
0.0
 41
12.0
 42
12.0
 43
12.0
 50
90.0
  0
INSERT
  5
1679
330
2D93
100
AcDbEntity
  8
0
100
AcDbBlockReference
  2
*U33
 10
0.0
 20
0.0
 30
0.0
  0
POINT
  5
167A
330
2D93
100
AcDbEntity
  8
DEFPOINTS
  6
Continuous
 62
     0
100
AcDbPoint
 10
123.5
 20
-300.0
 30
0.0
  0
POINT
  5
167B
330
2D93
100
AcDbEntity
  8
DEFPOINTS
  6
Continuous
 62
     0
100
AcDbPoint
 10
157.5
 20
0.0
 30
0.0
  0
POINT
  5
167C
330
2D93
100
AcDbEntity
  8
DEFPOINTS
  6
Continuous
 62
     0
100
AcDbPoint
 10
284.6432844803785
 20
-0.000000000000036
 30
0.0
  0
ENDBLK
  5
14B3
330
2D93
100
AcDbEntity
  8
0
100
AcDbBlockEnd
  0
BLOCK
  5
2D96
330
2D95
100
AcDbEntity
  8
0
100
AcDbBlockBegin
  2
*U33
 70
     1
 10
0.0
 20
0.0
 30
0.0
  3
*U33
  1

  0
TEXT
  5
1F0D
330
2D95
100
AcDbEntity
  8
SIZE
 62
     0
100
AcDbText
 10
274.6432844803785
 20
-224.0571428571429
 30
0.0
 40
64.0
  1
300
 50
90.0
 41
0.9
100
AcDbText
  0
ENDBLK
  5
1F0F
330
2D95
100
AcDbEntity
  8
0
100
AcDbBlockEnd
  0
BLOCK
  5
2D98
330
2D97
100
AcDbEntity
  8
0
100
AcDbBlockBegin
  2
*D34
 70
     1
 10
0.0
 20
0.0
 30
0.0
  3
*D34
  1

  0
LINE
  5
167D
330
2D97
100
AcDbEntity
  8
SIZE
 62
     0
100
AcDbLine
 10
-140.0
 20
32.46448280219375
 30
0.0
 11
-140.0
 21
136.4516878685507
 31
0.0
  0
LINE
  5
167E
330
2D97
100
AcDbEntity
  8
SIZE
 62
     0
100
AcDbLine
 10
140.0
 20
32.46448280219375
 30
0.0
 11
140.0
 21
136.4516878685507
 31
0.0
  0
LINE
  5
167F
330
2D97
100
AcDbEntity
  8
SIZE
 62
     0
100
AcDbLine
 10
-128.0
 20
116.4516878685508
 30
0.0
 11
128.0
 21
116.4516878685508
 31
0.0
  0
INSERT
  5
1680
330
2D97
100
AcDbEntity
  8
SIZE
 62
     0
100
AcDbBlockReference
  2
_DOTBLANK
 10
-140.0
 20
116.4516878685508
 30
0.0
 41
12.0
 42
12.0
 43
12.0
 50
180.0
  0
INSERT
  5
1681
330
2D97
100
AcDbEntity
  8
SIZE
 62
     0
100
AcDbBlockReference
  2
_DOTBLANK
 10
140.0
 20
116.4516878685508
 30
0.0
 41
12.0
 42
12.0
 43
12.0
  0
INSERT
  5
1682
330
2D97
100
AcDbEntity
  8
0
100
AcDbBlockReference
  2
*U35
 10
0.0
 20
0.0
 30
0.0
  0
POINT
  5
1683
330
2D97
100
AcDbEntity
  8
DEFPOINTS
 62
     0
100
AcDbPoint
 10
-140.0
 20
12.46448280219374
 30
0.0
  0
POINT
  5
1684
330
2D97
100
AcDbEntity
  8
DEFPOINTS
 62
     0
100
AcDbPoint
 10
140.0
 20
12.46448280219374
 30
0.0
  0
POINT
  5
1685
330
2D97
100
AcDbEntity
  8
DEFPOINTS
 62
     0
100
AcDbPoint
 10
140.0
 20
116.4516878685508
 30
0.0
  0
ENDBLK
  5
14BF
330
2D97
100
AcDbEntity
  8
0
100
AcDbBlockEnd
  0
BLOCK
  5
2D9A
330
2D99
100
AcDbEntity
  8
0
100
AcDbBlockBegin
  2
*U35
 70
     1
 10
0.0
 20
0.0
 30
0.0
  3
*U35
  1

  0
TEXT
  5
1F11
330
2D99
100
AcDbEntity
  8
SIZE
 62
     0
100
AcDbText
 10
-74.05714285714283
 20
126.4516878685507
 30
0.0
 40
64.0
  1
280
 41
0.9
100
AcDbText
  0
ENDBLK
  5
1F13
330
2D99
100
AcDbEntity
  8
0
100
AcDbBlockEnd
  0
BLOCK
  5
2D9C
330
2D9B
100
AcDbEntity
  8
0
100
AcDbBlockBegin
  2
*D36
 70
     1
 10
0.0
 20
0.0
 30
0.0
  3
*D36
  1

  0
LINE
  5
1686
330
2D9B
100
AcDbEntity
  8
SIZE
 62
     0
100
AcDbLine
 10
-157.5
 20
20.0
 30
0.0
 11
-157.5
 21
245.5794621189598
 31
0.0
  0
LINE
  5
1687
330
2D9B
100
AcDbEntity
  8
SIZE
 62
     0
100
AcDbLine
 10
157.5
 20
20.0
 30
0.0
 11
157.5
 21
245.5794621189598
 31
0.0
  0
LINE
  5
1688
330
2D9B
100
AcDbEntity
  8
SIZE
 62
     0
100
AcDbLine
 10
-145.5
 20
225.5794621189598
 30
0.0
 11
145.5
 21
225.5794621189598
 31
0.0
  0
INSERT
  5
1689
330
2D9B
100
AcDbEntity
  8
SIZE
 62
     0
100
AcDbBlockReference
  2
_DOTBLANK
 10
-157.5
 20
225.5794621189598
 30
0.0
 41
12.0
 42
12.0
 43
12.0
 50
180.0
  0
INSERT
  5
168A
330
2D9B
100
AcDbEntity
  8
SIZE
 62
     0
100
AcDbBlockReference
  2
_DOTBLANK
 10
157.5
 20
225.5794621189598
 30
0.0
 41
12.0
 42
12.0
 43
12.0
  0
INSERT
  5
168B
330
2D9B
100
AcDbEntity
  8
0
100
AcDbBlockReference
  2
*U37
 10
0.0
 20
0.0
 30
0.0
  0
POINT
  5
168C
330
2D9B
100
AcDbEntity
  8
DEFPOINTS
 62
     0
100
AcDbPoint
 10
-157.5
 20
0.0
 30
0.0
  0
POINT
  5
168D
330
2D9B
100
AcDbEntity
  8
DEFPOINTS
 62
     0
100
AcDbPoint
 10
157.5
 20
0.0
 30
0.0
  0
POINT
  5
168E
330
2D9B
100
AcDbEntity
  8
DEFPOINTS
 62
     0
100
AcDbPoint
 10
157.5
 20
225.5794621189598
 30
0.0
  0
ENDBLK
  5
14CB
330
2D9B
100
AcDbEntity
  8
0
100
AcDbBlockEnd
  0
BLOCK
  5
2D9E
330
2D9D
100
AcDbEntity
  8
0
100
AcDbBlockBegin
  2
*U37
 70
     1
 10
0.0
 20
0.0
 30
0.0
  3
*U37
  1

  0
TEXT
  5
1F15
330
2D9D
100
AcDbEntity
  8
SIZE
 62
     0
100
AcDbText
 10
-68.57142857142857
 20
235.5794621189598
 30
0.0
 40
64.0
  1
315
 41
0.9
100
AcDbText
  0
ENDBLK
  5
1F17
330
2D9D
100
AcDbEntity
  8
0
100
AcDbBlockEnd
  0
BLOCK
  5
2DA0
330
2D9F
100
AcDbEntity
  8
0
100
AcDbBlockBegin
  2
*U38
 70
     1
 10
0.0
 20
0.0
 30
0.0
  3
*U38
  1

  0
ENDBLK
  5
15CF
330
2D9F
100
AcDbEntity
  8
0
100
AcDbBlockEnd
  0
BLOCK
  5
2DA2
330
2DA1
100
AcDbEntity
  8
0
100
AcDbBlockBegin
  2
*D39
 70
     1
 10
0.0
 20
0.0
 30
0.0
  3
*D39
  1

  0
LINE
  5
1692
330
2DA1
100
AcDbEntity
  8
SIZE
 62
     0
100
AcDbLine
 10
-25844.51823276502
 20
7685.702971374808
 30
0.0
 11
-25981.04465488371
 21
7685.702971374808
 31
0.0
  0
LINE
  5
1693
330
2DA1
100
AcDbEntity
  8
SIZE
 62
     0
100
AcDbLine
 10
-25844.51823276502
 20
7677.702971374808
 30
0.0
 11
-25981.04465488371
 21
7677.702971374808
 31
0.0
  0
LINE
  5
1694
330
2DA1
100
AcDbEntity
  8
SIZE
 62
     0
100
AcDbLine
 10
-25961.04465488371
 20
7697.702971374808
 30
0.0
 11
-25961.04465488371
 21
7709.702971374809
 31
0.0
  0
LINE
  5
1695
330
2DA1
100
AcDbEntity
  8
SIZE
 62
     0
100
AcDbLine
 10
-25961.04465488371
 20
7665.70297137481
 30
0.0
 11
-25961.04465488371
 21
7595.302971374808
 31
0.0
  0
INSERT
  5
1696
330
2DA1
100
AcDbEntity
  8
SIZE
 62
     0
100
AcDbBlockReference
  2
_DOTBLANK
 10
-25961.04465488371
 20
7685.702971374808
 30
0.0
 41
12.0
 42
12.0
 43
12.0
 50
270.0
  0
INSERT
  5
1697
330
2DA1
100
AcDbEntity
  8
SIZE
 62
     0
100
AcDbBlockReference
  2
_DOTBLANK
 10
-25961.04465488371
 20
7677.702971374808
 30
0.0
 41
12.0
 42
12.0
 43
12.0
 50
90.0
  0
INSERT
  5
1698
330
2DA1
100
AcDbEntity
  8
0
100
AcDbBlockReference
  2
*U40
 10
0.0
 20
0.0
 30
0.0
  0
POINT
  5
1699
330
2DA1
100
AcDbEntity
  8
DEFPOINTS
 62
     0
100
AcDbPoint
 10
-25824.51823276501
 20
7685.702971374808
 30
0.0
  0
POINT
  5
169A
330
2DA1
100
AcDbEntity
  8
DEFPOINTS
 62
     0
100
AcDbPoint
 10
-25824.51823276501
 20
7677.702971374808
 30
0.0
  0
POINT
  5
169B
330
2DA1
100
AcDbEntity
  8
DEFPOINTS
 62
     0
100
AcDbPoint
 10
-25961.04465488371
 20
7677.702971374808
 30
0.0
  0
ENDBLK
  5
169C
330
2DA1
100
AcDbEntity
  8
0
100
AcDbBlockEnd
  0
BLOCK
  5
2DA4
330
2DA3
100
AcDbEntity
  8
0
100
AcDbBlockBegin
  2
*U40
 70
     1
 10
0.0
 20
0.0
 30
0.0
  3
*U40
  1

  0
TEXT
  5
1F19
330
2DA3
100
AcDbEntity
  8
SIZE
 62
     0
100
AcDbText
 10
-25971.04465488371
 20
7605.302971374804
 30
0.0
 40
64.0
  1
8
 50
90.0
 41
0.9
100
AcDbText
  0
ENDBLK
  5
1F1B
330
2DA3
100
AcDbEntity
  8
0
100
AcDbBlockEnd
  0
BLOCK
  5
2DA6
330
2DA5
100
AcDbEntity
  8
0
100
AcDbBlockBegin
  2
*D41
 70
     1
 10
0.0
 20
0.0
 30
0.0
  3
*D41
  1

  0
LINE
  5
169F
330
2DA5
100
AcDbEntity
  8
SIZE
 62
     0
100
AcDbLine
 10
-25512.51823276502
 20
7385.702971374808
 30
0.0
 11
-25362.37494828464
 21
7385.702971374808
 31
0.0
  0
LINE
  5
16A0
330
2DA5
100
AcDbEntity
  8
SIZE
 62
     0
100
AcDbLine
 10
-25523.51823276501
 20
7373.702971374808
 30
0.0
 11
-25362.37494828464
 21
7373.702971374808
 31
0.0
  0
LINE
  5
16A1
330
2DA5
100
AcDbEntity
  8
SIZE
 62
     0
100
AcDbLine
 10
-25382.37494828464
 20
7397.702971374808
 30
0.0
 11
-25382.37494828464
 21
7409.70297137481
 31
0.0
  0
LINE
  5
16A2
330
2DA5
100
AcDbEntity
  8
SIZE
 62
     0
100
AcDbLine
 10
-25382.37494828464
 20
7361.702971374808
 30
0.0
 11
-25382.37494828464
 21
7244.674399946238
 31
0.0
  0
INSERT
  5
16A3
330
2DA5
100
AcDbEntity
  8
SIZE
 62
     0
100
AcDbBlockReference
  2
_DOTBLANK
 10
-25382.37494828464
 20
7385.702971374808
 30
0.0
 41
12.0
 42
12.0
 43
12.0
 50
270.0
  0
INSERT
  5
16A4
330
2DA5
100
AcDbEntity
  8
SIZE
 62
     0
100
AcDbBlockReference
  2
_DOTBLANK
 10
-25382.37494828464
 20
7373.702971374808
 30
0.0
 41
12.0
 42
12.0
 43
12.0
 50
90.0
  0
INSERT
  5
16A5
330
2DA5
100
AcDbEntity
  8
0
100
AcDbBlockReference
  2
*U42
 10
0.0
 20
0.0
 30
0.0
  0
POINT
  5
16A6
330
2DA5
100
AcDbEntity
  8
DEFPOINTS
 62
     0
100
AcDbPoint
 10
-25532.51823276502
 20
7385.702971374808
 30
0.0
  0
POINT
  5
16A7
330
2DA5
100
AcDbEntity
  8
DEFPOINTS
 62
     0
100
AcDbPoint
 10
-25543.51823276502
 20
7373.702971374808
 30
0.0
  0
POINT
  5
16A8
330
2DA5
100
AcDbEntity
  8
DEFPOINTS
 62
     0
100
AcDbPoint
 10
-25382.37494828464
 20
7373.702971374808
 30
0.0
  0
ENDBLK
  5
16A9
330
2DA5
100
AcDbEntity
  8
0
100
AcDbBlockEnd
  0
BLOCK
  5
2DA8
330
2DA7
100
AcDbEntity
  8
0
100
AcDbBlockBegin
  2
*U42
 70
     1
 10
0.0
 20
0.0
 30
0.0
  3
*U42
  1

  0
TEXT
  5
1F1D
330
2DA7
100
AcDbEntity
  8
SIZE
 62
     0
100
AcDbText
 10
-25392.37494828464
 20
7256.045828517662
 30
0.0
 40
64.0
  1
12
 50
90.0
 41
0.9
100
AcDbText
  0
ENDBLK
  5
1F1F
330
2DA7
100
AcDbEntity
  8
0
100
AcDbBlockEnd
  0
BLOCK
  5
2DAA
330
2DA9
100
AcDbEntity
  8
0
100
AcDbBlockBegin
  2
*D43
 70
     1
 10
0.0
 20
0.0
 30
0.0
  3
*D43
  1

  0
LINE
  5
16AC
330
2DA9
100
AcDbEntity
  8
SIZE
 62
     0
100
AcDbLine
 10
-25801.51823276501
 20
7365.702971374808
 30
0.0
 11
-25801.51823276501
 21
7217.685576144207
 31
0.0
  0
LINE
  5
16AD
330
2DA9
100
AcDbEntity
  8
SIZE
 62
     0
100
AcDbLine
 10
-25532.51823276502
 20
7365.702971374808
 30
0.0
 11
-25532.51823276502
 21
7217.685576144207
 31
0.0
  0
LINE
  5
16AE
330
2DA9
100
AcDbEntity
  8
SIZE
 62
     0
100
AcDbLine
 10
-25789.51823276502
 20
7237.685576144207
 30
0.0
 11
-25544.51823276501
 21
7237.685576144207
 31
0.0
  0
INSERT
  5
16AF
330
2DA9
100
AcDbEntity
  8
SIZE
 62
     0
100
AcDbBlockReference
  2
_DOTBLANK
 10
-25801.51823276501
 20
7237.685576144207
 30
0.0
 41
12.0
 42
12.0
 43
12.0
 50
180.0
  0
INSERT
  5
16B0
330
2DA9
100
AcDbEntity
  8
SIZE
 62
     0
100
AcDbBlockReference
  2
_DOTBLANK
 10
-25532.51823276502
 20
7237.685576144207
 30
0.0
 41
12.0
 42
12.0
 43
12.0
  0
INSERT
  5
16B1
330
2DA9
100
AcDbEntity
  8
0
100
AcDbBlockReference
  2
*U44
 10
0.0
 20
0.0
 30
0.0
  0
POINT
  5
16B2
330
2DA9
100
AcDbEntity
  8
DEFPOINTS
 62
     0
100
AcDbPoint
 10
-25801.51823276501
 20
7385.702971374808
 30
0.0
  0
POINT
  5
16B3
330
2DA9
100
AcDbEntity
  8
DEFPOINTS
 62
     0
100
AcDbPoint
 10
-25532.51823276502
 20
7385.702971374808
 30
0.0
  0
POINT
  5
16B4
330
2DA9
100
AcDbEntity
  8
DEFPOINTS
 62
     0
100
AcDbPoint
 10
-25532.51823276502
 20
7237.685576144207
 30
0.0
  0
ENDBLK
  5
16B5
330
2DA9
100
AcDbEntity
  8
0
100
AcDbBlockEnd
  0
BLOCK
  5
2DAC
330
2DAB
100
AcDbEntity
  8
0
100
AcDbBlockBegin
  2
*U44
 70
     1
 10
0.0
 20
0.0
 30
0.0
  3
*U44
  1

  0
TEXT
  5
1F21
330
2DAB
100
AcDbEntity
  8
SIZE
 62
     0
100
AcDbText
 10
-25739.70394705074
 20
7247.685576144205
 30
0.0
 40
64.0
  1
269
 41
0.9
100
AcDbText
  0
ENDBLK
  5
1F23
330
2DAB
100
AcDbEntity
  8
0
100
AcDbBlockEnd
  0
BLOCK
  5
2DAE
330
2DAD
100
AcDbEntity
  8
0
100
AcDbBlockBegin
  2
*D45
 70
     1
 10
0.0
 20
0.0
 30
0.0
  3
*D45
  1

  0
LINE
  5
16B8
330
2DAD
100
AcDbEntity
  8
SIZE
 62
     0
100
AcDbLine
 10
-25512.51823276502
 20
7385.702971374808
 30
0.0
 11
-25362.37494828464
 21
7385.702971374808
 31
0.0
  0
LINE
  5
16B9
330
2DAD
100
AcDbEntity
  8
SIZE
 62
     0
100
AcDbLine
 10
-25489.51823276501
 20
7685.702971374808
 30
0.0
 11
-25362.37494828464
 21
7685.702971374808
 31
0.0
  0
LINE
  5
16BA
330
2DAD
100
AcDbEntity
  8
SIZE
 62
     0
100
AcDbLine
 10
-25382.37494828464
 20
7397.702971374808
 30
0.0
 11
-25382.37494828464
 21
7673.702971374808
 31
0.0
  0
INSERT
  5
16BB
330
2DAD
100
AcDbEntity
  8
SIZE
 62
     0
100
AcDbBlockReference
  2
_DOTBLANK
 10
-25382.37494828464
 20
7385.702971374808
 30
0.0
 41
12.0
 42
12.0
 43
12.0
 50
270.0
  0
INSERT
  5
16BC
330
2DAD
100
AcDbEntity
  8
SIZE
 62
     0
100
AcDbBlockReference
  2
_DOTBLANK
 10
-25382.37494828464
 20
7685.702971374808
 30
0.0
 41
12.0
 42
12.0
 43
12.0
 50
90.0
  0
INSERT
  5
16BD
330
2DAD
100
AcDbEntity
  8
0
100
AcDbBlockReference
  2
*U46
 10
0.0
 20
0.0
 30
0.0
  0
POINT
  5
16BE
330
2DAD
100
AcDbEntity
  8
DEFPOINTS
 62
     0
100
AcDbPoint
 10
-25532.51823276502
 20
7385.702971374808
 30
0.0
  0
POINT
  5
16BF
330
2DAD
100
AcDbEntity
  8
DEFPOINTS
 62
     0
100
AcDbPoint
 10
-25509.51823276502
 20
7685.702971374808
 30
0.0
  0
POINT
  5
16C0
330
2DAD
100
AcDbEntity
  8
DEFPOINTS
 62
     0
100
AcDbPoint
 10
-25382.37494828464
 20
7685.702971374808
 30
0.0
  0
ENDBLK
  5
16C1
330
2DAD
100
AcDbEntity
  8
0
100
AcDbBlockEnd
  0
BLOCK
  5
2DB0
330
2DAF
100
AcDbEntity
  8
0
100
AcDbBlockBegin
  2
*U46
 70
     1
 10
0.0
 20
0.0
 30
0.0
  3
*U46
  1

  0
TEXT
  5
1F25
330
2DAF
100
AcDbEntity
  8
SIZE
 62
     0
100
AcDbText
 10
-25392.37494828464
 20
7461.645828517662
 30
0.0
 40
64.0
  1
300
 50
90.0
 41
0.9
100
AcDbText
  0
ENDBLK
  5
1F27
330
2DAF
100
AcDbEntity
  8
0
100
AcDbBlockEnd
  0
BLOCK
  5
2DB2
330
2DB1
100
AcDbEntity
  8
0
100
AcDbBlockBegin
  2
*D47
 70
     1
 10
0.0
 20
0.0
 30
0.0
  3
*D47
  1

  0
LINE
  5
16C4
330
2DB1
100
AcDbEntity
  8
SIZE
 62
     0
100
AcDbLine
 10
-25807.01823276501
 20
7718.167454177002
 30
0.0
 11
-25807.01823276501
 21
7822.154659243358
 31
0.0
  0
LINE
  5
16C5
330
2DB1
100
AcDbEntity
  8
SIZE
 62
     0
100
AcDbLine
 10
-25527.01823276501
 20
7718.167454177002
 30
0.0
 11
-25527.01823276501
 21
7822.154659243358
 31
0.0
  0
LINE
  5
16C6
330
2DB1
100
AcDbEntity
  8
SIZE
 62
     0
100
AcDbLine
 10
-25795.01823276502
 20
7802.154659243358
 30
0.0
 11
-25539.01823276501
 21
7802.154659243358
 31
0.0
  0
INSERT
  5
16C7
330
2DB1
100
AcDbEntity
  8
SIZE
 62
     0
100
AcDbBlockReference
  2
_DOTBLANK
 10
-25807.01823276501
 20
7802.154659243358
 30
0.0
 41
12.0
 42
12.0
 43
12.0
 50
180.0
  0
INSERT
  5
16C8
330
2DB1
100
AcDbEntity
  8
SIZE
 62
     0
100
AcDbBlockReference
  2
_DOTBLANK
 10
-25527.01823276501
 20
7802.154659243358
 30
0.0
 41
12.0
 42
12.0
 43
12.0
  0
INSERT
  5
16C9
330
2DB1
100
AcDbEntity
  8
0
100
AcDbBlockReference
  2
*U48
 10
0.0
 20
0.0
 30
0.0
  0
POINT
  5
16CA
330
2DB1
100
AcDbEntity
  8
DEFPOINTS
 62
     0
100
AcDbPoint
 10
-25807.01823276501
 20
7698.167454177002
 30
0.0
  0
POINT
  5
16CB
330
2DB1
100
AcDbEntity
  8
DEFPOINTS
 62
     0
100
AcDbPoint
 10
-25527.01823276501
 20
7698.167454177002
 30
0.0
  0
POINT
  5
16CC
330
2DB1
100
AcDbEntity
  8
DEFPOINTS
 62
     0
100
AcDbPoint
 10
-25527.01823276501
 20
7802.154659243358
 30
0.0
  0
ENDBLK
  5
16CD
330
2DB1
100
AcDbEntity
  8
0
100
AcDbBlockEnd
  0
BLOCK
  5
2DB4
330
2DB3
100
AcDbEntity
  8
0
100
AcDbBlockBegin
  2
*U48
 70
     1
 10
0.0
 20
0.0
 30
0.0
  3
*U48
  1

  0
TEXT
  5
1F29
330
2DB3
100
AcDbEntity
  8
SIZE
 62
     0
100
AcDbText
 10
-25741.07537562216
 20
7812.154659243358
 30
0.0
 40
64.0
  1
280
 41
0.9
100
AcDbText
  0
ENDBLK
  5
1F2B
330
2DB3
100
AcDbEntity
  8
0
100
AcDbBlockEnd
  0
BLOCK
  5
2DB6
330
2DB5
100
AcDbEntity
  8
0
100
AcDbBlockBegin
  2
*D49
 70
     1
 10
0.0
 20
0.0
 30
0.0
  3
*D49
  1

  0
LINE
  5
16D0
330
2DB5
100
AcDbEntity
  8
SIZE
 62
     0
100
AcDbLine
 10
-25824.51823276501
 20
7705.702971374808
 30
0.0
 11
-25824.51823276501
 21
7931.282433493766
 31
0.0
  0
LINE
  5
16D1
330
2DB5
100
AcDbEntity
  8
SIZE
 62
     0
100
AcDbLine
 10
-25509.51823276502
 20
7705.702971374808
 30
0.0
 11
-25509.51823276502
 21
7931.282433493766
 31
0.0
  0
LINE
  5
16D2
330
2DB5
100
AcDbEntity
  8
SIZE
 62
     0
100
AcDbLine
 10
-25812.51823276502
 20
7911.282433493766
 30
0.0
 11
-25521.51823276501
 21
7911.282433493766
 31
0.0
  0
INSERT
  5
16D3
330
2DB5
100
AcDbEntity
  8
SIZE
 62
     0
100
AcDbBlockReference
  2
_DOTBLANK
 10
-25824.51823276501
 20
7911.282433493766
 30
0.0
 41
12.0
 42
12.0
 43
12.0
 50
180.0
  0
INSERT
  5
16D4
330
2DB5
100
AcDbEntity
  8
SIZE
 62
     0
100
AcDbBlockReference
  2
_DOTBLANK
 10
-25509.51823276502
 20
7911.282433493766
 30
0.0
 41
12.0
 42
12.0
 43
12.0
  0
INSERT
  5
16D5
330
2DB5
100
AcDbEntity
  8
0
100
AcDbBlockReference
  2
*U50
 10
0.0
 20
0.0
 30
0.0
  0
POINT
  5
16D6
330
2DB5
100
AcDbEntity
  8
DEFPOINTS
 62
     0
100
AcDbPoint
 10
-25824.51823276501
 20
7685.702971374808
 30
0.0
  0
POINT
  5
16D7
330
2DB5
100
AcDbEntity
  8
DEFPOINTS
 62
     0
100
AcDbPoint
 10
-25509.51823276502
 20
7685.702971374808
 30
0.0
  0
POINT
  5
16D8
330
2DB5
100
AcDbEntity
  8
DEFPOINTS
 62
     0
100
AcDbPoint
 10
-25509.51823276502
 20
7911.282433493766
 30
0.0
  0
ENDBLK
  5
16D9
330
2DB5
100
AcDbEntity
  8
0
100
AcDbBlockEnd
  0
BLOCK
  5
2DB8
330
2DB7
100
AcDbEntity
  8
0
100
AcDbBlockBegin
  2
*U50
 70
     1
 10
0.0
 20
0.0
 30
0.0
  3
*U50
  1

  0
TEXT
  5
1F2D
330
2DB7
100
AcDbEntity
  8
SIZE
 62
     0
100
AcDbText
 10
-25735.58966133645
 20
7921.282433493766
 30
0.0
 40
64.0
  1
315
 41
0.9
100
AcDbText
  0
ENDBLK
  5
1F2F
330
2DB7
100
AcDbEntity
  8
0
100
AcDbBlockEnd
  0
BLOCK
  5
2DBA
330
2DB9
100
AcDbEntity
  8
0
100
AcDbBlockBegin
  2
*D51
 70
     1
 10
0.0
 20
0.0
 30
0.0
  3
*D51
  1

  0
LINE
  5
1D83
330
2DB9
100
AcDbEntity
  8
SIZE
 62
     0
100
AcDbLine
 10
-134.5
 20
-320.0
 30
0.0
 11
-134.5
 21
-468.0173952306001
 31
0.0
  0
LINE
  5
1D84
330
2DB9
100
AcDbEntity
  8
SIZE
 62
     0
100
AcDbLine
 10
134.5
 20
-320.0
 30
0.0
 11
134.5
 21
-468.0173952306001
 31
0.0
  0
LINE
  5
1D85
330
2DB9
100
AcDbEntity
  8
SIZE
 62
     0
100
AcDbLine
 10
-122.5
 20
-448.0173952306
 30
0.0
 11
122.5
 21
-448.0173952306
 31
0.0
  0
INSERT
  5
1D86
330
2DB9
100
AcDbEntity
  8
SIZE
 62
     0
100
AcDbBlockReference
  2
_DOTBLANK
 10
-134.5
 20
-448.0173952306
 30
0.0
 41
12.0
 42
12.0
 43
12.0
 50
180.0
  0
INSERT
  5
1D87
330
2DB9
100
AcDbEntity
  8
SIZE
 62
     0
100
AcDbBlockReference
  2
_DOTBLANK
 10
134.5
 20
-448.0173952306
 30
0.0
 41
12.0
 42
12.0
 43
12.0
  0
INSERT
  5
1D88
330
2DB9
100
AcDbEntity
  8
0
100
AcDbBlockReference
  2
*U52
 10
0.0
 20
0.0
 30
0.0
  0
POINT
  5
1D89
330
2DB9
100
AcDbEntity
  8
DEFPOINTS
 62
     0
100
AcDbPoint
 10
-134.5
 20
-300.0
 30
0.0
  0
POINT
  5
1D8A
330
2DB9
100
AcDbEntity
  8
DEFPOINTS
 62
     0
100
AcDbPoint
 10
134.5
 20
-300.0
 30
0.0
  0
POINT
  5
1D8B
330
2DB9
100
AcDbEntity
  8
DEFPOINTS
 62
     0
100
AcDbPoint
 10
134.5
 20
-448.0173952306
 30
0.0
  0
ENDBLK
  5
173D
330
2DB9
100
AcDbEntity
  8
0
100
AcDbBlockEnd
  0
BLOCK
  5
2DBC
330
2DBB
100
AcDbEntity
  8
0
100
AcDbBlockBegin
  2
*U52
 70
     1
 10
0.0
 20
0.0
 30
0.0
  3
*U52
  1

  0
TEXT
  5
1F31
330
2DBB
100
AcDbEntity
  8
SIZE
 62
     0
100
AcDbText
 10
-72.68571428571426
 20
-438.0173952306003
 30
0.0
 40
64.0
  1
269
 41
0.9
100
AcDbText
  0
ENDBLK
  5
1F33
330
2DBB
100
AcDbEntity
  8
0
100
AcDbBlockEnd
  0
BLOCK
  5
2DBE
330
2DBD
100
AcDbEntity
  8
0
100
AcDbBlockBegin
  2
*D53
 70
     1
 10
0.0
 20
0.0
 30
0.0
  3
*D53
  1

  0
LINE
  5
1D8C
330
2DBD
100
AcDbEntity
  8
SIZE
 62
     0
100
AcDbLine
 10
154.5
 20
-300.0
 30
0.0
 11
304.6432844803784
 21
-300.0
 31
0.0
  0
LINE
  5
1D8D
330
2DBD
100
AcDbEntity
  8
SIZE
 62
     0
100
AcDbLine
 10
177.5
 20
-0.0000000000000057
 30
0.0
 11
304.6432844803785
 21
-0.0000000000000417
 31
0.0
  0
LINE
  5
1D8E
330
2DBD
100
AcDbEntity
  8
SIZE
 62
     0
100
AcDbLine
 10
284.6432844803784
 20
-288.0
 30
0.0
 11
284.6432844803785
 21
-12.00000000000003
 31
0.0
  0
INSERT
  5
1D8F
330
2DBD
100
AcDbEntity
  8
SIZE
 62
     0
100
AcDbBlockReference
  2
_DOTBLANK
 10
284.6432844803784
 20
-300.0
 30
0.0
 41
12.0
 42
12.0
 43
12.0
 50
270.0
  0
INSERT
  5
1D90
330
2DBD
100
AcDbEntity
  8
SIZE
 62
     0
100
AcDbBlockReference
  2
_DOTBLANK
 10
284.6432844803785
 20
-0.000000000000036
 30
0.0
 41
12.0
 42
12.0
 43
12.0
 50
90.0
  0
INSERT
  5
1D91
330
2DBD
100
AcDbEntity
  8
0
100
AcDbBlockReference
  2
*U54
 10
0.0
 20
0.0
 30
0.0
  0
POINT
  5
1D92
330
2DBD
100
AcDbEntity
  8
DEFPOINTS
 62
     0
100
AcDbPoint
 10
134.5
 20
-300.0
 30
0.0
  0
POINT
  5
1D93
330
2DBD
100
AcDbEntity
  8
DEFPOINTS
 62
     0
100
AcDbPoint
 10
157.5
 20
0.0
 30
0.0
  0
POINT
  5
1D94
330
2DBD
100
AcDbEntity
  8
DEFPOINTS
 62
     0
100
AcDbPoint
 10
284.6432844803785
 20
-0.000000000000036
 30
0.0
  0
ENDBLK
  5
1749
330
2DBD
100
AcDbEntity
  8
0
100
AcDbBlockEnd
  0
BLOCK
  5
2DC0
330
2DBF
100
AcDbEntity
  8
0
100
AcDbBlockBegin
  2
*U54
 70
     1
 10
0.0
 20
0.0
 30
0.0
  3
*U54
  1

  0
TEXT
  5
1F35
330
2DBF
100
AcDbEntity
  8
SIZE
 62
     0
100
AcDbText
 10
274.6432844803785
 20
-224.0571428571429
 30
0.0
 40
64.0
  1
300
 50
90.0
 41
0.9
100
AcDbText
  0
ENDBLK
  5
1F37
330
2DBF
100
AcDbEntity
  8
0
100
AcDbBlockEnd
  0
BLOCK
  5
2DC2
330
2DC1
100
AcDbEntity
  8
0
100
AcDbBlockBegin
  2
*D55
 70
     1
 10
0.0
 20
0.0
 30
0.0
  3
*D55
  1

  0
LINE
  5
1D95
330
2DC1
100
AcDbEntity
  8
SIZE
 62
     0
100
AcDbLine
 10
-140.0
 20
32.46448280219375
 30
0.0
 11
-140.0
 21
136.4516878685508
 31
0.0
  0
LINE
  5
1D96
330
2DC1
100
AcDbEntity
  8
SIZE
 62
     0
100
AcDbLine
 10
140.0
 20
32.46448280219375
 30
0.0
 11
140.0
 21
136.4516878685508
 31
0.0
  0
LINE
  5
1D97
330
2DC1
100
AcDbEntity
  8
SIZE
 62
     0
100
AcDbLine
 10
-128.0
 20
116.4516878685508
 30
0.0
 11
128.0
 21
116.4516878685508
 31
0.0
  0
INSERT
  5
1D98
330
2DC1
100
AcDbEntity
  8
SIZE
 62
     0
100
AcDbBlockReference
  2
_DOTBLANK
 10
-140.0
 20
116.4516878685508
 30
0.0
 41
12.0
 42
12.0
 43
12.0
 50
180.0
  0
INSERT
  5
1D99
330
2DC1
100
AcDbEntity
  8
SIZE
 62
     0
100
AcDbBlockReference
  2
_DOTBLANK
 10
140.0
 20
116.4516878685508
 30
0.0
 41
12.0
 42
12.0
 43
12.0
  0
INSERT
  5
1D9A
330
2DC1
100
AcDbEntity
  8
0
100
AcDbBlockReference
  2
*U56
 10
0.0
 20
0.0
 30
0.0
  0
POINT
  5
1D9B
330
2DC1
100
AcDbEntity
  8
DEFPOINTS
 62
     0
100
AcDbPoint
 10
-140.0
 20
12.46448280219374
 30
0.0
  0
POINT
  5
1D9C
330
2DC1
100
AcDbEntity
  8
DEFPOINTS
 62
     0
100
AcDbPoint
 10
140.0
 20
12.46448280219374
 30
0.0
  0
POINT
  5
1D9D
330
2DC1
100
AcDbEntity
  8
DEFPOINTS
 62
     0
100
AcDbPoint
 10
140.0
 20
116.4516878685508
 30
0.0
  0
ENDBLK
  5
1755
330
2DC1
100
AcDbEntity
  8
0
100
AcDbBlockEnd
  0
BLOCK
  5
2DC4
330
2DC3
100
AcDbEntity
  8
0
100
AcDbBlockBegin
  2
*U56
 70
     1
 10
0.0
 20
0.0
 30
0.0
  3
*U56
  1

  0
TEXT
  5
1F39
330
2DC3
100
AcDbEntity
  8
SIZE
 62
     0
100
AcDbText
 10
-74.05714285714283
 20
126.4516878685508
 30
0.0
 40
64.0
  1
280
 41
0.9
100
AcDbText
  0
ENDBLK
  5
1F3B
330
2DC3
100
AcDbEntity
  8
0
100
AcDbBlockEnd
  0
BLOCK
  5
2DC6
330
2DC5
100
AcDbEntity
  8
0
100
AcDbBlockBegin
  2
*D57
 70
     1
 10
0.0
 20
0.0
 30
0.0
  3
*D57
  1

  0
LINE
  5
1D9E
330
2DC5
100
AcDbEntity
  8
SIZE
 62
     0
100
AcDbLine
 10
-157.5
 20
20.0
 30
0.0
 11
-157.5
 21
245.5794621189598
 31
0.0
  0
LINE
  5
1D9F
330
2DC5
100
AcDbEntity
  8
SIZE
 62
     0
100
AcDbLine
 10
157.5
 20
20.0
 30
0.0
 11
157.5
 21
245.5794621189598
 31
0.0
  0
LINE
  5
1DA0
330
2DC5
100
AcDbEntity
  8
SIZE
 62
     0
100
AcDbLine
 10
-145.5
 20
225.5794621189598
 30
0.0
 11
145.5
 21
225.5794621189598
 31
0.0
  0
INSERT
  5
1DA1
330
2DC5
100
AcDbEntity
  8
SIZE
 62
     0
100
AcDbBlockReference
  2
_DOTBLANK
 10
-157.5
 20
225.5794621189598
 30
0.0
 41
12.0
 42
12.0
 43
12.0
 50
180.0
  0
INSERT
  5
1DA2
330
2DC5
100
AcDbEntity
  8
SIZE
 62
     0
100
AcDbBlockReference
  2
_DOTBLANK
 10
157.5
 20
225.5794621189598
 30
0.0
 41
12.0
 42
12.0
 43
12.0
  0
INSERT
  5
1DA3
330
2DC5
100
AcDbEntity
  8
0
100
AcDbBlockReference
  2
*U58
 10
0.0
 20
0.0
 30
0.0
  0
POINT
  5
1DA4
330
2DC5
100
AcDbEntity
  8
DEFPOINTS
 62
     0
100
AcDbPoint
 10
-157.5
 20
0.0
 30
0.0
  0
POINT
  5
1DA5
330
2DC5
100
AcDbEntity
  8
DEFPOINTS
 62
     0
100
AcDbPoint
 10
157.5
 20
0.0
 30
0.0
  0
POINT
  5
1DA6
330
2DC5
100
AcDbEntity
  8
DEFPOINTS
 62
     0
100
AcDbPoint
 10
157.5
 20
225.5794621189598
 30
0.0
  0
ENDBLK
  5
1761
330
2DC5
100
AcDbEntity
  8
0
100
AcDbBlockEnd
  0
BLOCK
  5
2DC8
330
2DC7
100
AcDbEntity
  8
0
100
AcDbBlockBegin
  2
*U58
 70
     1
 10
0.0
 20
0.0
 30
0.0
  3
*U58
  1

  0
TEXT
  5
1F3D
330
2DC7
100
AcDbEntity
  8
SIZE
 62
     0
100
AcDbText
 10
-68.57142857142857
 20
235.5794621189599
 30
0.0
 40
64.0
  1
315
 41
0.9
100
AcDbText
  0
ENDBLK
  5
1F3F
330
2DC7
100
AcDbEntity
  8
0
100
AcDbBlockEnd
  0
BLOCK
  5
2DCA
330
2DC9
100
AcDbEntity
  8
0
100
AcDbBlockBegin
  2
*D59
 70
     1
 10
0.0
 20
0.0
 30
0.0
  3
*D59
  1

  0
LINE
  5
1DA7
330
2DC9
100
AcDbEntity
  8
SIZE
 62
     0
100
AcDbLine
 10
-177.5
 20
0.0000000000000057
 30
0.0
 11
-314.0264221186908
 21
0.0000000000000443
 31
0.0
  0
LINE
  5
1DA8
330
2DC9
100
AcDbEntity
  8
SIZE
 62
     0
100
AcDbLine
 10
-177.5
 20
-7.999999999999993
 30
0.0
 11
-314.0264221186908
 21
-7.999999999999958
 31
0.0
  0
LINE
  5
1DA9
330
2DC9
100
AcDbEntity
  8
SIZE
 62
     0
100
AcDbLine
 10
-294.0264221186908
 20
12.00000000000003
 30
0.0
 11
-294.0264221186908
 21
24.00000000000004
 31
0.0
  0
LINE
  5
1DAA
330
2DC9
100
AcDbEntity
  8
SIZE
 62
     0
100
AcDbLine
 10
-294.0264221186908
 20
-19.99999999999996
 30
0.0
 11
-294.0264221186908
 21
-90.39999999999997
 31
0.0
  0
INSERT
  5
1DAB
330
2DC9
100
AcDbEntity
  8
SIZE
 62
     0
100
AcDbBlockReference
  2
_DOTBLANK
 10
-294.0264221186908
 20
0.0000000000000387
 30
0.0
 41
12.0
 42
12.0
 43
12.0
 50
270.0
  0
INSERT
  5
1DAC
330
2DC9
100
AcDbEntity
  8
SIZE
 62
     0
100
AcDbBlockReference
  2
_DOTBLANK
 10
-294.0264221186908
 20
-7.999999999999961
 30
0.0
 41
12.0
 42
12.0
 43
12.0
 50
90.0
  0
INSERT
  5
1DAD
330
2DC9
100
AcDbEntity
  8
0
100
AcDbBlockReference
  2
*U60
 10
0.0
 20
0.0
 30
0.0
  0
POINT
  5
1DAE
330
2DC9
100
AcDbEntity
  8
DEFPOINTS
 62
     0
100
AcDbPoint
 10
-157.5
 20
0.0
 30
0.0
  0
POINT
  5
1DAF
330
2DC9
100
AcDbEntity
  8
DEFPOINTS
 62
     0
100
AcDbPoint
 10
-157.5
 20
-8.000000000000003
 30
0.0
  0
POINT
  5
1DB0
330
2DC9
100
AcDbEntity
  8
DEFPOINTS
 62
     0
100
AcDbPoint
 10
-294.0264221186908
 20
-7.999999999999961
 30
0.0
  0
ENDBLK
  5
176D
330
2DC9
100
AcDbEntity
  8
0
100
AcDbBlockEnd
  0
BLOCK
  5
2DCC
330
2DCB
100
AcDbEntity
  8
0
100
AcDbBlockBegin
  2
*U60
 70
     1
 10
0.0
 20
0.0
 30
0.0
  3
*U60
  1

  0
TEXT
  5
1F41
330
2DCB
100
AcDbEntity
  8
SIZE
 62
     0
100
AcDbText
 10
-304.0264221186908
 20
-80.4
 30
0.0
 40
64.0
  1
8
 50
90.0
 41
0.9
100
AcDbText
  0
ENDBLK
  5
1F43
330
2DCB
100
AcDbEntity
  8
0
100
AcDbBlockEnd
  0
BLOCK
  5
2DCE
330
2DCD
100
AcDbEntity
  8
0
100
AcDbBlockBegin
  2
*D61
 70
     1
 10
0.0
 20
0.0
 30
0.0
  3
*D61
  1

  0
LINE
  5
1DB1
330
2DCD
100
AcDbEntity
  8
SIZE
 62
     0
100
AcDbLine
 10
154.5
 20
-300.0
 30
0.0
 11
304.6432844803785
 21
-300.0
 31
0.0
  0
LINE
  5
1DB2
330
2DCD
100
AcDbEntity
  8
SIZE
 62
     0
100
AcDbLine
 10
143.5
 20
-312.0
 30
0.0
 11
304.6432844803785
 21
-312.0
 31
0.0
  0
LINE
  5
1DB3
330
2DCD
100
AcDbEntity
  8
SIZE
 62
     0
100
AcDbLine
 10
284.6432844803785
 20
-288.0
 30
0.0
 11
284.6432844803785
 21
-276.0
 31
0.0
  0
LINE
  5
1DB4
330
2DCD
100
AcDbEntity
  8
SIZE
 62
     0
100
AcDbLine
 10
284.6432844803785
 20
-324.0000000000001
 30
0.0
 11
284.6432844803784
 21
-438.2857142857143
 31
0.0
  0
INSERT
  5
1DB5
330
2DCD
100
AcDbEntity
  8
SIZE
 62
     0
100
AcDbBlockReference
  2
_DOTBLANK
 10
284.6432844803785
 20
-300.0
 30
0.0
 41
12.0
 42
12.0
 43
12.0
 50
270.0
  0
INSERT
  5
1DB6
330
2DCD
100
AcDbEntity
  8
SIZE
 62
     0
100
AcDbBlockReference
  2
_DOTBLANK
 10
284.6432844803785
 20
-312.0
 30
0.0
 41
12.0
 42
12.0
 43
12.0
 50
90.0
  0
INSERT
  5
1DB7
330
2DCD
100
AcDbEntity
  8
0
100
AcDbBlockReference
  2
*U62
 10
0.0
 20
0.0
 30
0.0
  0
POINT
  5
1DB8
330
2DCD
100
AcDbEntity
  8
DEFPOINTS
 62
     0
100
AcDbPoint
 10
134.5
 20
-300.0
 30
0.0
  0
POINT
  5
1DB9
330
2DCD
100
AcDbEntity
  8
DEFPOINTS
 62
     0
100
AcDbPoint
 10
123.5
 20
-312.0
 30
0.0
  0
POINT
  5
1DBA
330
2DCD
100
AcDbEntity
  8
DEFPOINTS
 62
     0
100
AcDbPoint
 10
284.6432844803785
 20
-312.0
 30
0.0
  0
ENDBLK
  5
177B
330
2DCD
100
AcDbEntity
  8
0
100
AcDbBlockEnd
  0
BLOCK
  5
2DD0
330
2DCF
100
AcDbEntity
  8
0
100
AcDbBlockBegin
  2
*U62
 70
     1
 10
0.0
 20
0.0
 30
0.0
  3
*U62
  1

  0
TEXT
  5
1F45
330
2DCF
100
AcDbEntity
  8
SIZE
 62
     0
100
AcDbText
 10
274.6432844803785
 20
-428.2857142857142
 30
0.0
 40
64.0
  1
12
 50
90.0
 41
0.9
100
AcDbText
  0
ENDBLK
  5
1F47
330
2DCF
100
AcDbEntity
  8
0
100
AcDbBlockEnd
  0
BLOCK
  5
2DD2
330
2DD1
100
AcDbEntity
  8
0
100
AcDbBlockBegin
  2
*U63
 70
     1
 10
0.0
 20
0.0
 30
0.0
  3
*U63
  1

  0
ENDBLK
  5
1D57
330
2DD1
100
AcDbEntity
  8
0
100
AcDbBlockEnd
  0
BLOCK
  5
2DD4
330
2DD3
100
AcDbEntity
  8
0
100
AcDbBlockBegin
  2
*U64
 70
     1
 10
0.0
 20
0.0
 30
0.0
  3
*U64
  1

  0
INSERT
  5
2088
330
2DD3
100
AcDbEntity
  8
NOTE
100
AcDbBlockReference
  2
_OPEN30
 10
-140.0
 20
0.0
 30
0.0
 41
12.0
 42
12.0
 43
12.0
 50
312.6090116116894
  0
POLYLINE
  5
2089
330
2DD3
100
AcDbEntity
  8
NOTE
100
AcDb2dPolyline
 66
     1
 10
0.0
 20
0.0
 30
0.0
  0
VERTEX
  5
2124
330
2089
100
AcDbEntity
  8
NOTE
100
AcDbVertex
100
AcDb2dVertex
 10
-148.1239008361894
 20
8.831887408915472
 30
0.0
  0
VERTEX
  5
2125
330
2089
100
AcDbEntity
  8
NOTE
100
AcDbVertex
100
AcDb2dVertex
 10
-227.8693999922543
 20
95.52709505801338
 30
0.0
  0
VERTEX
  5
2126
330
2089
100
AcDbEntity
  8
NOTE
100
AcDbVertex
100
AcDb2dVertex
 10
-773.7093999922541
 20
95.52709505801338
 30
0.0
  0
SEQEND
  5
2127
330
2089
100
AcDbEntity
  8
NOTE
  0
ENDBLK
  5
208A
330
2DD3
100
AcDbEntity
  8
0
100
AcDbBlockEnd
  0
BLOCK
  5
2DD6
330
2DD5
100
AcDbEntity
  8
0
100
AcDbBlockBegin
  2
*U65
 70
     1
 10
0.0
 20
0.0
 30
0.0
  3
*U65
  1

  0
TEXT
  5
208D
330
2DD5
100
AcDbEntity
  8
NOTE
100
AcDbText
 10
-773.7093999922541
 20
113.5270950580134
 30
0.0
 40
64.0
  1
4×φ10取付穴
 41
0.9
100
AcDbText
  0
ENDBLK
  5
208E
330
2DD5
100
AcDbEntity
  8
0
100
AcDbBlockEnd
  0
BLOCK
  5
2DD8
330
2DD7
100
AcDbEntity
  8
0
100
AcDbBlockBegin
  2
*X66
 70
     1
 10
0.0
 20
0.0
 30
0.0
  3
*X66
  1

  0
LINE
  5
25A0
330
2DD7
100
AcDbEntity
  8
0
 62
     0
100
AcDbLine
 10
358.8855265434232
 20
-679.0000000000027
 30
0.0
 11
361.4999999999927
 21
-677.2570221463711
 31
0.0
  0
LINE
  5
25A1
330
2DD7
100
AcDbEntity
  8
0
 62
     0
100
AcDbLine
 10
354.3855652495404
 20
-679.0000000000016
 30
0.0
 11
361.4999999999946
 21
-674.2570556109549
 31
0.0
  0
LINE
  5
25A2
330
2DD7
100
AcDbEntity
  8
0
 62
     0
100
AcDbLine
 10
349.8856039556522
 20
-679.0000000000027
 30
0.0
 11
361.4999999999946
 21
-671.2570890755369
 31
0.0
  0
LINE
  5
25A3
330
2DD7
100
AcDbEntity
  8
0
 62
     0
100
AcDbLine
 10
345.3856426617676
 20
-679.0000000000016
 30
0.0
 11
361.4999999999946
 21
-668.2571225401208
 31
0.0
  0
LINE
  5
25A4
330
2DD7
100
AcDbEntity
  8
0
 62
     0
100
AcDbLine
 10
340.8856813678813
 20
-679.0000000000027
 30
0.0
 11
361.4999999999946
 21
-665.2571560047045
 31
0.0
  0
LINE
  5
25A5
330
2DD7
100
AcDbEntity
  8
0
 62
     0
100
AcDbLine
 10
336.3857200739967
 20
-679.0000000000016
 30
0.0
 11
361.4999999999946
 21
-662.2571894692899
 31
0.0
  0
LINE
  5
25A6
330
2DD7
100
AcDbEntity
  8
0
 62
     0
100
AcDbLine
 10
331.8857587801102
 20
-679.0000000000027
 30
0.0
 11
361.4999999999946
 21
-659.2572229338735
 31
0.0
  0
LINE
  5
25A7
330
2DD7
100
AcDbEntity
  8
0
 62
     0
100
AcDbLine
 10
327.3857974862257
 20
-679.0000000000016
 30
0.0
 11
361.4999999999946
 21
-656.2572563984576
 31
0.0
  0
LINE
  5
25A8
330
2DD7
100
AcDbEntity
  8
0
 62
     0
100
AcDbLine
 10
322.8858361923376
 20
-679.0000000000016
 30
0.0
 11
361.4999999999927
 21
-653.2572898630404
 31
0.0
  0
LINE
  5
25A9
330
2DD7
100
AcDbEntity
  8
0
 62
     0
100
AcDbLine
 10
318.3858748984529
 20
-679.0000000000036
 30
0.0
 11
361.4999999999946
 21
-650.2573233276252
 31
0.0
  0
LINE
  5
25AA
330
2DD7
100
AcDbEntity
  8
0
 62
     0
100
AcDbLine
 10
313.8859136045668
 20
-679.0000000000016
 30
0.0
 11
361.4999999999927
 21
-647.257356792208
 31
0.0
  0
LINE
  5
25AB
330
2DD7
100
AcDbEntity
  8
0
 62
     0
100
AcDbLine
 10
309.3859523106839
 20
-679.0000000000036
 30
0.0
 11
361.4999999999964
 21
-644.2573902567929
 31
0.0
  0
LINE
  5
25AC
330
2DD7
100
AcDbEntity
  8
0
 62
     0
100
AcDbLine
 10
304.8859910167976
 20
-679.0000000000016
 30
0.0
 11
361.4999999999946
 21
-641.2574237213756
 31
0.0
  0
LINE
  5
25AD
330
2DD7
100
AcDbEntity
  8
0
 62
     0
100
AcDbLine
 10
300.3860297229112
 20
-679.0000000000036
 30
0.0
 11
361.4999999999946
 21
-638.2574571859604
 31
0.0
  0
LINE
  5
25AE
330
2DD7
100
AcDbEntity
  8
0
 62
     0
100
AcDbLine
 10
295.8860684290266
 20
-679.0000000000016
 30
0.0
 11
361.4999999999946
 21
-635.2574906505432
 31
0.0
  0
LINE
  5
25AF
330
2DD7
100
AcDbEntity
  8
0
 62
     0
100
AcDbLine
 10
291.3861071351403
 20
-679.0000000000027
 30
0.0
 11
361.4999999999946
 21
-632.2575241151271
 31
0.0
  0
LINE
  5
25B0
330
2DD7
100
AcDbEntity
  8
0
 62
     0
100
AcDbLine
 10
286.8861458412557
 20
-679.0000000000016
 30
0.0
 11
361.4999999999946
 21
-629.2575575797108
 31
0.0
  0
LINE
  5
25B1
330
2DD7
100
AcDbEntity
  8
0
 62
     0
100
AcDbLine
 10
282.3861845473692
 20
-679.0000000000027
 30
0.0
 11
361.4999999999946
 21
-626.2575910442947
 31
0.0
  0
LINE
  5
25B2
330
2DD7
100
AcDbEntity
  8
0
 62
     0
100
AcDbLine
 10
277.8862232534848
 20
-679.0000000000016
 30
0.0
 11
361.4999999999946
 21
-623.2576245088785
 31
0.0
  0
LINE
  5
25B3
330
2DD7
100
AcDbEntity
  8
0
 62
     0
100
AcDbLine
 10
273.3862619595984
 20
-679.0000000000027
 30
0.0
 11
361.4999999999927
 21
-620.2576579734621
 31
0.0
  0
LINE
  5
25B4
330
2DD7
100
AcDbEntity
  8
0
 62
     0
100
AcDbLine
 10
268.8863006657121
 20
-679.0000000000036
 30
0.0
 11
361.4999999999946
 21
-617.2576914380461
 31
0.0
  0
LINE
  5
25B5
330
2DD7
100
AcDbEntity
  8
0
 62
     0
100
AcDbLine
 10
264.3863393718275
 20
-679.0000000000016
 30
0.0
 11
361.4999999999946
 21
-614.2577249026287
 31
0.0
  0
LINE
  5
25B6
330
2DD7
100
AcDbEntity
  8
0
 62
     0
100
AcDbLine
 10
259.8863780779411
 20
-679.0000000000036
 30
0.0
 11
361.4999999999946
 21
-611.2577583672135
 31
0.0
  0
LINE
  5
25B7
330
2DD7
100
AcDbEntity
  8
0
 62
     0
100
AcDbLine
 10
255.3864167840565
 20
-679.0000000000016
 30
0.0
 11
361.4999999999946
 21
-608.2577918317964
 31
0.0
  0
LINE
  5
25B8
330
2DD7
100
AcDbEntity
  8
0
 62
     0
100
AcDbLine
 10
250.8864554901702
 20
-679.0000000000036
 30
0.0
 11
361.4999999999946
 21
-605.2578252963813
 31
0.0
  0
LINE
  5
25B9
330
2DD7
100
AcDbEntity
  8
0
 62
     0
100
AcDbLine
 10
246.3864941962874
 20
-679.0000000000016
 30
0.0
 11
361.4999999999946
 21
-602.2578587609642
 31
0.0
  0
LINE
  5
25BA
330
2DD7
100
AcDbEntity
  8
0
 62
     0
100
AcDbLine
 10
241.8865329023993
 20
-679.0000000000036
 30
0.0
 11
361.4999999999946
 21
-599.2578922255505
 31
0.0
  0
LINE
  5
25BB
330
2DD7
100
AcDbEntity
  8
0
 62
     0
100
AcDbLine
 10
237.3865716085147
 20
-679.0000000000016
 30
0.0
 11
361.4999999999927
 21
-596.2579256901335
 31
0.0
  0
LINE
  5
25BC
330
2DD7
100
AcDbEntity
  8
0
 62
     0
100
AcDbLine
 10
232.8866103146302
 20
-679.0000000000027
 30
0.0
 11
361.4999999999946
 21
-593.2579591547173
 31
0.0
  0
LINE
  5
25BD
330
2DD7
100
AcDbEntity
  8
0
 62
     0
100
AcDbLine
 10
228.386649020742
 20
-679.0000000000036
 30
0.0
 11
361.4999999999946
 21
-590.257992619299
 31
0.0
  0
LINE
  5
25BE
330
2DD7
100
AcDbEntity
  8
0
 62
     0
100
AcDbLine
 10
223.8866877268574
 20
-679.0000000000027
 30
0.0
 11
361.4999999999946
 21
-587.2580260838831
 31
0.0
  0
LINE
  5
25BF
330
2DD7
100
AcDbEntity
  8
0
 62
     0
100
AcDbLine
 10
219.3867264329711
 20
-679.0000000000036
 30
0.0
 11
361.4999999999946
 21
-584.2580595484669
 31
0.0
  0
LINE
  5
25C0
330
2DD7
100
AcDbEntity
  8
0
 62
     0
100
AcDbLine
 10
214.8867651390865
 20
-679.0000000000027
 30
0.0
 11
361.4999999999946
 21
-581.2580930130525
 31
0.0
  0
LINE
  5
25C1
330
2DD7
100
AcDbEntity
  8
0
 62
     0
100
AcDbLine
 10
210.3868038452001
 20
-679.0000000000036
 30
0.0
 11
361.4999999999946
 21
-578.2581264776363
 31
0.0
  0
LINE
  5
25C2
330
2DD7
100
AcDbEntity
  8
0
 62
     0
100
AcDbLine
 10
205.8868425513156
 20
-679.0000000000016
 30
0.0
 11
361.4999999999946
 21
-575.2581599422192
 31
0.0
  0
LINE
  5
25C3
330
2DD7
100
AcDbEntity
  8
0
 62
     0
100
AcDbLine
 10
201.3868812574292
 20
-679.0000000000036
 30
0.0
 11
361.4999999999946
 21
-572.2581934068036
 31
0.0
  0
LINE
  5
25C4
330
2DD7
100
AcDbEntity
  8
0
 62
     0
100
AcDbLine
 10
196.8869199635446
 20
-679.0000000000016
 30
0.0
 11
361.4999999999946
 21
-569.2582268713864
 31
0.0
  0
LINE
  5
25C5
330
2DD7
100
AcDbEntity
  8
0
 62
     0
100
AcDbLine
 10
192.3869586696582
 20
-679.0000000000016
 30
0.0
 11
361.4999999999927
 21
-566.2582603359715
 31
0.0
  0
LINE
  5
25C6
330
2DD7
100
AcDbEntity
  8
0
 62
     0
100
AcDbLine
 10
187.8869973757737
 20
-679.0000000000016
 30
0.0
 11
361.4999999999946
 21
-563.2582938005543
 31
0.0
  0
LINE
  5
25C7
330
2DD7
100
AcDbEntity
  8
0
 62
     0
100
AcDbLine
 10
183.3870360818873
 20
-679.0000000000036
 30
0.0
 11
361.4999999999946
 21
-560.2583272651392
 31
0.0
  0
LINE
  5
25C8
330
2DD7
100
AcDbEntity
  8
0
 62
     0
100
AcDbLine
 10
178.8870747880028
 20
-679.0000000000016
 30
0.0
 11
361.4999999999946
 21
-557.2583607297217
 31
0.0
  0
LINE
  5
25C9
330
2DD7
100
AcDbEntity
  8
0
 62
     0
100
AcDbLine
 10
174.3871134941164
 20
-679.0000000000027
 30
0.0
 11
361.4999999999946
 21
-554.2583941943057
 31
0.0
  0
LINE
  5
25CA
330
2DD7
100
AcDbEntity
  8
0
 62
     0
100
AcDbLine
 10
169.8871522002318
 20
-679.0000000000016
 30
0.0
 11
361.4999999999946
 21
-551.2584276588894
 31
0.0
  0
LINE
  5
25CB
330
2DD7
100
AcDbEntity
  8
0
 62
     0
100
AcDbLine
 10
165.3871909063455
 20
-679.0000000000027
 30
0.0
 11
361.4999999999946
 21
-548.2584611234734
 31
0.0
  0
LINE
  5
25CC
330
2DD7
100
AcDbEntity
  8
0
 62
     0
100
AcDbLine
 10
160.8872296124591
 20
-679.0000000000036
 30
0.0
 11
361.4999999999927
 21
-545.2584945880571
 31
0.0
  0
LINE
  5
25CD
330
2DD7
100
AcDbEntity
  8
0
 62
     0
100
AcDbLine
 10
156.3872683185745
 20
-679.0000000000027
 30
0.0
 11
361.4999999999964
 21
-542.2585280526409
 31
0.0
  0
LINE
  5
25CE
330
2DD7
100
AcDbEntity
  8
0
 62
     0
100
AcDbLine
 10
151.8873070246882
 20
-679.0000000000036
 30
0.0
 11
361.4999999999927
 21
-539.2585615172247
 31
0.0
  0
LINE
  5
25CF
330
2DD7
100
AcDbEntity
  8
0
 62
     0
100
AcDbLine
 10
147.3873457308036
 20
-679.0000000000016
 30
0.0
 11
361.4999999999946
 21
-536.2585949818094
 31
0.0
  0
LINE
  5
25D0
330
2DD7
100
AcDbEntity
  8
0
 62
     0
100
AcDbLine
 10
142.8873844369173
 20
-679.0000000000036
 30
0.0
 11
361.4999999999927
 21
-533.2586284463939
 31
0.0
  0
LINE
  5
25D1
330
2DD7
100
AcDbEntity
  8
0
 62
     0
100
AcDbLine
 10
138.3874231430309
 20
-679.0000000000016
 30
0.0
 11
361.4999999999946
 21
-530.2586619109752
 31
0.0
  0
LINE
  5
25D2
330
2DD7
100
AcDbEntity
  8
0
 62
     0
100
AcDbLine
 10
133.8874618491481
 20
-679.0000000000016
 30
0.0
 11
361.4999999999946
 21
-527.2586953755599
 31
0.0
  0
LINE
  5
25D3
330
2DD7
100
AcDbEntity
  8
0
 62
     0
100
AcDbLine
 10
129.38750055526
 20
-679.0000000000016
 30
0.0
 11
361.4999999999946
 21
-524.2587288401428
 31
0.0
  0
LINE
  5
25D4
330
2DD7
100
AcDbEntity
  8
0
 62
     0
100
AcDbLine
 10
124.8875392613772
 20
-679.0000000000016
 30
0.0
 11
361.4999999999946
 21
-521.2587623047292
 31
0.0
  0
LINE
  5
25D5
330
2DD7
100
AcDbEntity
  8
0
 62
     0
100
AcDbLine
 10
120.387577967489
 20
-679.0000000000016
 30
0.0
 11
361.4999999999946
 21
-518.2587957693121
 31
0.0
  0
LINE
  5
25D6
330
2DD7
100
AcDbEntity
  8
0
 62
     0
100
AcDbLine
 10
115.8876166736045
 20
-679.0000000000027
 30
0.0
 11
361.4999999999927
 21
-515.2588292338959
 31
0.0
  0
LINE
  5
25D7
330
2DD7
100
AcDbEntity
  8
0
 62
     0
100
AcDbLine
 10
111.3876553797181
 20
-679.0000000000016
 30
0.0
 11
361.4999999999946
 21
-512.2588626984796
 31
0.0
  0
LINE
  5
25D8
330
2DD7
100
AcDbEntity
  8
0
 62
     0
100
AcDbLine
 10
106.8876940858336
 20
-679.0000000000027
 30
0.0
 11
361.4999999999927
 21
-509.2588961630635
 31
0.0
  0
LINE
  5
25D9
330
2DD7
100
AcDbEntity
  8
0
 62
     0
100
AcDbLine
 10
102.3877327919472
 20
-679.0000000000036
 30
0.0
 11
361.4999999999946
 21
-506.258929627647
 31
0.0
  0
LINE
  5
25DA
330
2DD7
100
AcDbEntity
  8
0
 62
     0
100
AcDbLine
 10
97.88777149806264
 20
-679.0000000000027
 30
0.0
 11
361.4999999999946
 21
-503.2589630922311
 31
0.0
  0
LINE
  5
25DB
330
2DD7
100
AcDbEntity
  8
0
 62
     0
100
AcDbLine
 10
93.38781020417627
 20
-679.0000000000036
 30
0.0
 11
361.4999999999946
 21
-500.2589965568149
 31
0.0
  0
LINE
  5
25DC
330
2DD7
100
AcDbEntity
  8
0
 62
     0
100
AcDbLine
 10
88.8878489102899
 20
-679.0000000000016
 30
0.0
 11
361.4999999999946
 21
-497.2590300213978
 31
0.0
  0
LINE
  5
25DD
330
2DD7
100
AcDbEntity
  8
0
 62
     0
100
AcDbLine
 10
84.38788761640354
 20
-679.0000000000036
 30
0.0
 11
361.4999999999927
 21
-494.2590634859825
 31
0.0
  0
LINE
  5
25DE
330
2DD7
100
AcDbEntity
  8
0
 62
     0
100
AcDbLine
 10
79.8879263225208
 20
-679.0000000000016
 30
0.0
 11
361.4999999999946
 21
-491.2590969505652
 31
0.0
  0
LINE
  5
25DF
330
2DD7
100
AcDbEntity
  8
0
 62
     0
100
AcDbLine
 10
75.38796502863442
 20
-679.0000000000016
 30
0.0
 11
361.4999999999927
 21
-488.25913041515
 31
0.0
  0
LINE
  5
25E0
330
2DD7
100
AcDbEntity
  8
0
 62
     0
100
AcDbLine
 10
70.88800373474987
 20
-679.0000000000016
 30
0.0
 11
361.4999999999946
 21
-485.259163879733
 31
0.0
  0
LINE
  5
25E1
330
2DD7
100
AcDbEntity
  8
0
 62
     0
100
AcDbLine
 10
66.3880424408635
 20
-679.0000000000016
 30
0.0
 11
361.4999999999946
 21
-482.2591973443177
 31
0.0
  0
LINE
  5
25E2
330
2DD7
100
AcDbEntity
  8
0
 62
     0
100
AcDbLine
 10
61.88808114697895
 20
-679.0000000000016
 30
0.0
 11
361.4999999999946
 21
-479.2592308089005
 31
0.0
  0
LINE
  5
25E3
330
2DD7
100
AcDbEntity
  8
0
 62
     0
100
AcDbLine
 10
57.38811985309258
 20
-679.0000000000008
 30
0.0
 11
361.4999999999946
 21
-476.2592642734841
 31
0.0
  0
LINE
  5
25E4
330
2DD7
100
AcDbEntity
  8
0
 62
     0
100
AcDbLine
 10
52.88815855920621
 20
-679.0000000000016
 30
0.0
 11
361.4999999999946
 21
-473.259297738068
 31
0.0
  0
LINE
  5
25E5
330
2DD7
100
AcDbEntity
  8
0
 62
     0
100
AcDbLine
 10
48.38819726531983
 20
-679.0000000000027
 30
0.0
 11
361.4999999999946
 21
-470.259331202652
 31
0.0
  0
LINE
  5
25E6
330
2DD7
100
AcDbEntity
  8
0
 62
     0
100
AcDbLine
 10
43.88823597143526
 20
-679.0000000000016
 30
0.0
 11
361.4999999999927
 21
-467.2593646672376
 31
0.0
  0
LINE
  5
25E7
330
2DD7
100
AcDbEntity
  8
0
 62
     0
100
AcDbLine
 10
39.38827467754709
 20
-679.0000000000027
 30
0.0
 11
361.4999999999909
 21
-464.2593981318212
 31
0.0
  0
LINE
  5
25E8
330
2DD7
100
AcDbEntity
  8
0
 62
     0
100
AcDbLine
 10
34.88831338366435
 20
-679.0000000000036
 30
0.0
 11
361.4999999999927
 21
-461.259431596405
 31
0.0
  0
LINE
  5
25E9
330
2DD7
100
AcDbEntity
  8
0
 62
     0
100
AcDbLine
 10
30.38835208977616
 20
-679.0000000000016
 30
0.0
 11
361.4999999999909
 21
-458.259465060988
 31
0.0
  0
LINE
  5
25EA
330
2DD7
100
AcDbEntity
  8
0
 62
     0
100
AcDbLine
 10
25.88839079589343
 20
-679.0000000000036
 30
0.0
 11
361.4999999999927
 21
-455.2594985255727
 31
0.0
  0
LINE
  5
25EB
330
2DD7
100
AcDbEntity
  8
0
 62
     0
100
AcDbLine
 10
21.38842950200706
 20
-679.0000000000016
 30
0.0
 11
361.4999999999927
 21
-452.2595319901556
 31
0.0
  0
LINE
  5
25EC
330
2DD7
100
AcDbEntity
  8
0
 62
     0
100
AcDbLine
 10
16.88846820812432
 20
-679.0000000000016
 30
0.0
 11
361.4999999999946
 21
-449.2595654547403
 31
0.0
  0
LINE
  5
25ED
330
2DD7
100
AcDbEntity
  8
0
 62
     0
100
AcDbLine
 10
12.38850691423613
 20
-679.0000000000016
 30
0.0
 11
361.4999999999927
 21
-446.2595989193231
 31
0.0
  0
LINE
  5
25EE
330
2DD7
100
AcDbEntity
  8
0
 62
     0
100
AcDbLine
 10
7.888545620349759
 20
-679.0000000000036
 30
0.0
 11
361.4999999999909
 21
-443.2596323839076
 31
0.0
  0
LINE
  5
25EF
330
2DD7
100
AcDbEntity
  8
0
 62
     0
100
AcDbLine
 10
3.388584326465203
 20
-679.0000000000016
 30
0.0
 11
361.4999999999927
 21
-440.2596658484908
 31
0.0
  0
LINE
  5
25F0
330
2DD7
100
AcDbEntity
  8
0
 62
     0
100
AcDbLine
 10
-1.111376967419346
 20
-679.0000000000008
 30
0.0
 11
361.4999999999909
 21
-437.2596993130746
 31
0.0
  0
LINE
  5
25F1
330
2DD7
100
AcDbEntity
  8
0
 62
     0
100
AcDbLine
 10
-5.611338261305718
 20
-679.0000000000016
 30
0.0
 11
361.4999999999927
 21
-434.2597327776584
 31
0.0
  0
LINE
  5
25F2
330
2DD7
100
AcDbEntity
  8
0
 62
     0
100
AcDbLine
 10
-10.11129955519209
 20
-679.0000000000027
 30
0.0
 11
361.4999999999909
 21
-431.2597662422422
 31
0.0
  0
LINE
  5
25F3
330
2DD7
100
AcDbEntity
  8
0
 62
     0
100
AcDbLine
 10
-14.61126084907482
 20
-679.0000000000016
 30
0.0
 11
361.4999999999927
 21
-428.2597997068277
 31
0.0
  0
LINE
  5
25F4
330
2DD7
100
AcDbEntity
  8
0
 62
     0
100
AcDbLine
 10
-19.11122214296117
 20
-679.0000000000027
 30
0.0
 11
361.4999999999927
 21
-425.2598331714096
 31
0.0
  0
LINE
  5
25F5
330
2DD7
100
AcDbEntity
  8
0
 62
     0
100
AcDbLine
 10
-23.61118343684939
 20
-679.0000000000016
 30
0.0
 11
361.4999999999927
 21
-422.2598666359933
 31
0.0
  0
LINE
  5
25F6
330
2DD7
100
AcDbEntity
  8
0
 62
     0
100
AcDbLine
 10
-28.11114473073395
 20
-679.0000000000027
 30
0.0
 11
361.4999999999927
 21
-419.259900100577
 31
0.0
  0
LINE
  5
25F7
330
2DD7
100
AcDbEntity
  8
0
 62
     0
100
AcDbLine
 10
-32.6111060246185
 20
-679.0000000000016
 30
0.0
 11
361.4999999999909
 21
-416.2599335651631
 31
0.0
  0
LINE
  5
25F8
330
2DD7
100
AcDbEntity
  8
0
 62
     0
100
AcDbLine
 10
-37.11106731850306
 20
-679.0000000000016
 30
0.0
 11
361.4999999999927
 21
-413.259967029744
 31
0.0
  0
LINE
  5
25F9
330
2DD7
100
AcDbEntity
  8
0
 62
     0
100
AcDbLine
 10
-41.61102861239124
 20
-679.0000000000036
 30
0.0
 11
361.4999999999927
 21
-410.2600004943306
 31
0.0
  0
LINE
  5
25FA
330
2DD7
100
AcDbEntity
  8
0
 62
     0
100
AcDbLine
 10
-46.11098990627396
 20
-679.0
 30
0.0
 11
361.4999999999909
 21
-407.2600339589135
 31
0.0
  0
LINE
  5
25FB
330
2DD7
100
AcDbEntity
  8
0
 62
     0
100
AcDbLine
 10
-50.61095120016034
 20
-679.0000000000016
 30
0.0
 11
361.4999999999927
 21
-404.260067423498
 31
0.0
  0
LINE
  5
25FC
330
2DD7
100
AcDbEntity
  8
0
 62
     0
100
AcDbLine
 10
-55.11091249404671
 20
-679.0000000000016
 30
0.0
 11
361.4999999999909
 21
-401.2601008880809
 31
0.0
  0
LINE
  5
25FD
330
2DD7
100
AcDbEntity
  8
0
 62
     0
100
AcDbLine
 10
-59.61087378793127
 20
-679.0000000000027
 30
0.0
 11
361.4999999999927
 21
-398.2601343526649
 31
0.0
  0
LINE
  5
25FE
330
2DD7
100
AcDbEntity
  8
0
 62
     0
100
AcDbLine
 10
-64.11083508181582
 20
-679.0000000000016
 30
0.0
 11
361.4999999999909
 21
-395.2601678172486
 31
0.0
  0
LINE
  5
25FF
330
2DD7
100
AcDbEntity
  8
0
 62
     0
100
AcDbLine
 10
-68.61079637570401
 20
-679.0000000000008
 30
0.0
 11
361.4999999999927
 21
-392.2602012818325
 31
0.0
  0
LINE
  5
2600
330
2DD7
100
AcDbEntity
  8
0
 62
     0
100
AcDbLine
 10
-73.11075766958857
 20
-679.0000000000016
 30
0.0
 11
361.4999999999909
 21
-389.2602347464162
 31
0.0
  0
LINE
  5
2601
330
2DD7
100
AcDbEntity
  8
0
 62
     0
100
AcDbLine
 10
-77.61071896347494
 20
-679.0000000000027
 30
0.0
 11
361.4999999999927
 21
-386.260268211
 31
0.0
  0
LINE
  5
2602
330
2DD7
100
AcDbEntity
  8
0
 62
     0
100
AcDbLine
 10
-82.1106802573613
 20
-679.0000000000036
 30
0.0
 11
361.4999999999927
 21
-383.2603016755837
 31
0.0
  0
LINE
  5
2603
330
2DD7
100
AcDbEntity
  8
0
 62
     0
100
AcDbLine
 10
-86.61064155124586
 20
-679.0000000000027
 30
0.0
 11
361.4999999999909
 21
-380.2603351401676
 31
0.0
  0
LINE
  5
2604
330
2DD7
100
AcDbEntity
  8
0
 62
     0
100
AcDbLine
 10
-91.1106028451304
 20
-679.0000000000016
 30
0.0
 11
361.4999999999927
 21
-377.2603686047514
 31
0.0
  0
LINE
  5
2605
330
2DD7
100
AcDbEntity
  8
0
 62
     0
100
AcDbLine
 10
-95.61056413901679
 20
-679.0000000000016
 30
0.0
 11
361.4999999999909
 21
-374.2604020693343
 31
0.0
  0
LINE
  5
2606
330
2DD7
100
AcDbEntity
  8
0
 62
     0
100
AcDbLine
 10
-100.1105254329013
 20
-679.0000000000016
 30
0.0
 11
361.4999999999909
 21
-371.2604355339191
 31
0.0
  0
LINE
  5
2607
330
2DD7
100
AcDbEntity
  8
0
 62
     0
100
AcDbLine
 10
-104.6104867267877
 20
-679.0000000000016
 30
0.0
 11
361.4999999999909
 21
-368.2604689985017
 31
0.0
  0
LINE
  5
2608
330
2DD7
100
AcDbEntity
  8
0
 62
     0
100
AcDbLine
 10
-109.1104480206741
 20
-679.0000000000036
 30
0.0
 11
361.4999999999927
 21
-365.2605024630868
 31
0.0
  0
LINE
  5
2609
330
2DD7
100
AcDbEntity
  8
0
 62
     0
100
AcDbLine
 10
-113.6104093145568
 20
-679.0
 30
0.0
 11
361.4999999999927
 21
-362.2605359276696
 31
0.0
  0
LINE
  5
260A
330
2DD7
100
AcDbEntity
  8
0
 62
     0
100
AcDbLine
 10
-118.1103706084432
 20
-679.0000000000016
 30
0.0
 11
361.4999999999927
 21
-359.2605693922542
 31
0.0
  0
LINE
  5
260B
330
2DD7
100
AcDbEntity
  8
0
 62
     0
100
AcDbLine
 10
-122.6103319023277
 20
-679.0000000000016
 30
0.0
 11
361.4999999999927
 21
-356.2606028568372
 31
0.0
  0
LINE
  5
260C
330
2DD7
100
AcDbEntity
  8
0
 62
     0
100
AcDbLine
 10
-127.1102931962159
 20
-679.0000000000027
 30
0.0
 11
361.4999999999927
 21
-353.2606363214209
 31
0.0
  0
LINE
  5
260D
330
2DD7
100
AcDbEntity
  8
0
 62
     0
100
AcDbLine
 10
-131.6102544901023
 20
-679.0000000000036
 30
0.0
 11
361.4999999999909
 21
-350.2606697860047
 31
0.0
  0
LINE
  5
260E
330
2DD7
100
AcDbEntity
  8
0
 62
     0
100
AcDbLine
 10
-136.110215783985
 20
-679.0000000000008
 30
0.0
 11
361.4999999999927
 21
-347.2607032505903
 31
0.0
  0
LINE
  5
260F
330
2DD7
100
AcDbEntity
  8
0
 62
     0
100
AcDbLine
 10
-140.6101770778714
 20
-679.0000000000016
 30
0.0
 11
361.4999999999909
 21
-344.260736715174
 31
0.0
  0
LINE
  5
2610
330
2DD7
100
AcDbEntity
  8
0
 62
     0
100
AcDbLine
 10
-145.1101383717594
 20
-679.0000000000027
 30
0.0
 11
361.4999999999909
 21
-341.2607701797579
 31
0.0
  0
LINE
  5
2611
330
2DD7
100
AcDbEntity
  8
0
 62
     0
100
AcDbLine
 10
-149.6100996656441
 20
-679.0000000000036
 30
0.0
 11
361.4999999999927
 21
-338.2608036443398
 31
0.0
  0
LINE
  5
2612
330
2DD7
100
AcDbEntity
  8
0
 62
     0
100
AcDbLine
 10
-154.1100609595287
 20
-679.0000000000016
 30
0.0
 11
361.4999999999927
 21
-335.2608371089228
 31
0.0
  0
LINE
  5
2613
330
2DD7
100
AcDbEntity
  8
0
 62
     0
100
AcDbLine
 10
-158.6100222534132
 20
-679.0000000000036
 30
0.0
 11
361.4999999999927
 21
-332.2608705735092
 31
0.0
  0
LINE
  5
2614
330
2DD7
100
AcDbEntity
  8
0
 62
     0
100
AcDbLine
 10
-163.1099835472978
 20
-679.0
 30
0.0
 11
361.4999999999927
 21
-329.260904038092
 31
0.0
  0
LINE
  5
2615
330
2DD7
100
AcDbEntity
  8
0
 62
     0
100
AcDbLine
 10
-167.6099448411842
 20
-679.0000000000016
 30
0.0
 11
361.4999999999927
 21
-326.2609375026768
 31
0.0
  0
LINE
  5
2616
330
2DD7
100
AcDbEntity
  8
0
 62
     0
100
AcDbLine
 10
-172.1099061350705
 20
-679.0000000000016
 30
0.0
 11
361.4999999999909
 21
-323.2609709672597
 31
0.0
  0
LINE
  5
2617
330
2DD7
100
AcDbEntity
  8
0
 62
     0
100
AcDbLine
 10
-176.6098674289569
 20
-679.0000000000036
 30
0.0
 11
361.4999999999909
 21
-320.2610044318443
 31
0.0
  0
LINE
  5
2618
330
2DD7
100
AcDbEntity
  8
0
 62
     0
100
AcDbLine
 10
-181.1098287228433
 20
-679.0000000000036
 30
0.0
 11
361.4999999999909
 21
-317.2610378964273
 31
0.0
  0
LINE
  5
2619
330
2DD7
100
AcDbEntity
  8
0
 62
     0
100
AcDbLine
 10
-185.609790016726
 20
-679.0000000000008
 30
0.0
 11
361.4999999999909
 21
-314.2610713610109
 31
0.0
  0
LINE
  5
261A
330
2DD7
100
AcDbEntity
  8
0
 62
     0
100
AcDbLine
 10
-190.1097513106124
 20
-679.0000000000016
 30
0.0
 11
361.4999999999927
 21
-311.2611048255949
 31
0.0
  0
LINE
  5
261B
330
2DD7
100
AcDbEntity
  8
0
 62
     0
100
AcDbLine
 10
-194.6097126044988
 20
-679.0000000000027
 30
0.0
 11
361.4999999999927
 21
-308.2611382901787
 31
0.0
  0
LINE
  5
261C
330
2DD7
100
AcDbEntity
  8
0
 62
     0
100
AcDbLine
 10
-199.1096738983851
 20
-679.0000000000036
 30
0.0
 11
361.4999999999927
 21
-305.2611717547625
 31
0.0
  0
LINE
  5
261D
330
2DD7
100
AcDbEntity
  8
0
 62
     0
100
AcDbLine
 10
-203.6096351922679
 20
-679.0000000000027
 30
0.0
 11
361.4999999999927
 21
-302.2612052193462
 31
0.0
  0
LINE
  5
261E
330
2DD7
100
AcDbEntity
  8
0
 62
     0
100
AcDbLine
 10
-208.1095964861561
 20
-679.0000000000016
 30
0.0
 11
361.4999999999909
 21
-299.2612386839301
 31
0.0
  0
LINE
  5
261F
330
2DD7
100
AcDbEntity
  8
0
 62
     0
100
AcDbLine
 10
-212.6095577800406
 20
-679.0000000000016
 30
0.0
 11
361.4999999999927
 21
-296.2612721485129
 31
0.0
  0
LINE
  5
2620
330
2DD7
100
AcDbEntity
  8
0
 62
     0
100
AcDbLine
 10
-217.1095190739252
 20
-679.0000000000016
 30
0.0
 11
361.4999999999909
 21
-293.2613056130977
 31
0.0
  0
LINE
  5
2621
330
2DD7
100
AcDbEntity
  8
0
 62
     0
100
AcDbLine
 10
-221.6094803678097
 20
-679.0000000000016
 30
0.0
 11
361.4999999999927
 21
-290.2613390776805
 31
0.0
  0
LINE
  5
2622
330
2DD7
100
AcDbEntity
  8
0
 62
     0
100
AcDbLine
 10
-226.1094416616979
 20
-679.0000000000036
 30
0.0
 11
361.4999999999909
 21
-287.2613725422652
 31
0.0
  0
LINE
  5
2623
330
2DD7
100
AcDbEntity
  8
0
 62
     0
100
AcDbLine
 10
-230.6094029555843
 20
-679.0000000000016
 30
0.0
 11
361.4999999999927
 21
-284.2614060068481
 31
0.0
  0
LINE
  5
2624
330
2DD7
100
AcDbEntity
  8
0
 62
     0
100
AcDbLine
 10
-235.109364249467
 20
-679.0000000000016
 30
0.0
 11
361.4999999999909
 21
-281.2614394714345
 31
0.0
  0
LINE
  5
2625
330
2DD7
100
AcDbEntity
  8
0
 62
     0
100
AcDbLine
 10
-239.6093255433534
 20
-679.0000000000016
 30
0.0
 11
361.4999999999927
 21
-278.2614729360157
 31
0.0
  0
LINE
  5
2626
330
2DD7
100
AcDbEntity
  8
0
 62
     0
100
AcDbLine
 10
-244.1092868372398
 20
-679.0000000000027
 30
0.0
 11
361.4999999999927
 21
-275.2615064005995
 31
0.0
  0
LINE
  5
2627
330
2DD7
100
AcDbEntity
  8
0
 62
     0
100
AcDbLine
 10
360.6923077353058
 20
-272.7999999999993
 30
0.0
 11
361.4999999999946
 21
-272.2615398651815
 31
0.0
  0
LINE
  5
2628
330
2DD7
100
AcDbEntity
  8
0
 62
     0
100
AcDbLine
 10
-248.6092481311262
 20
-679.0000000000036
 30
0.0
 11
360.6923077353058
 21
-272.8000000000011
 31
0.0
  0
LINE
  5
2629
330
2DD7
100
AcDbEntity
  8
0
 62
     0
100
AcDbLine
 10
356.1923464414194
 20
-272.8000000000001
 30
0.0
 11
361.4999999999946
 21
-269.2615733297653
 31
0.0
  0
LINE
  5
262A
330
2DD7
100
AcDbEntity
  8
0
 62
     0
100
AcDbLine
 10
-253.1092094250107
 20
-679.0000000000008
 30
0.0
 11
356.1923464414176
 21
-272.800000000002
 31
0.0
  0
LINE
  5
262B
330
2DD7
100
AcDbEntity
  8
0
 62
     0
100
AcDbLine
 10
351.6923851475349
 20
-272.8000000000011
 30
0.0
 11
361.4999999999946
 21
-266.2616067943509
 31
0.0
  0
LINE
  5
262C
330
2DD7
100
AcDbEntity
  8
0
 62
     0
100
AcDbLine
 10
-257.6091707188953
 20
-679.0000000000016
 30
0.0
 11
351.6923851475349
 21
-272.8000000000011
 31
0.0
  0
LINE
  5
262D
330
2DD7
100
AcDbEntity
  8
0
 62
     0
100
AcDbLine
 10
347.1924238536504
 20
-272.8000000000001
 30
0.0
 11
361.4999999999946
 21
-263.2616402589347
 31
0.0
  0
LINE
  5
262E
330
2DD7
100
AcDbEntity
  8
0
 62
     0
100
AcDbLine
 10
-262.1091320127835
 20
-679.0000000000027
 30
0.0
 11
347.1924238536467
 21
-272.800000000002
 31
0.0
  0
LINE
  5
262F
330
2DD7
100
AcDbEntity
  8
0
 62
     0
100
AcDbLine
 10
342.6924625597639
 20
-272.7999999999993
 30
0.0
 11
361.4999999999946
 21
-260.2616737235185
 31
0.0
  0
LINE
  5
2630
330
2DD7
100
AcDbEntity
  8
0
 62
     0
100
AcDbLine
 10
-266.609093306668
 20
-679.0000000000036
 30
0.0
 11
342.6924625597639
 21
-272.8000000000011
 31
0.0
  0
LINE
  5
2631
330
2DD7
100
AcDbEntity
  8
0
 62
     0
100
AcDbLine
 10
338.1925012658776
 20
-272.7999999999993
 30
0.0
 11
361.4999999999946
 21
-257.2617071881014
 31
0.0
  0
LINE
  5
2632
330
2DD7
100
AcDbEntity
  8
0
 62
     0
100
AcDbLine
 10
-271.1090546005526
 20
-679.0000000000016
 30
0.0
 11
338.1925012658758
 21
-272.8000000000011
 31
0.0
  0
LINE
  5
2633
330
2DD7
100
AcDbEntity
  8
0
 62
     0
100
AcDbLine
 10
333.6925399719931
 20
-272.8000000000011
 30
0.0
 11
361.4999999999946
 21
-254.261740652686
 31
0.0
  0
LINE
  5
2634
330
2DD7
100
AcDbEntity
  8
0
 62
     0
100
AcDbLine
 10
-275.6090158944372
 20
-679.0000000000016
 30
0.0
 11
333.6925399719912
 21
-272.8000000000029
 31
0.0
  0
LINE
  5
2635
330
2DD7
100
AcDbEntity
  8
0
 62
     0
100
AcDbLine
 10
329.1925786781048
 20
-272.8000000000011
 30
0.0
 11
361.4999999999946
 21
-251.2617741172671
 31
0.0
  0
LINE
  5
2636
330
2DD7
100
AcDbEntity
  8
0
 62
     0
100
AcDbLine
 10
-280.1089771883253
 20
-679.0000000000016
 30
0.0
 11
329.1925786781048
 21
-272.8000000000011
 31
0.0
  0
LINE
  5
2637
330
2DD7
100
AcDbEntity
  8
0
 62
     0
100
AcDbLine
 10
324.6926173842202
 20
-272.8000000000011
 30
0.0
 11
361.4999999999927
 21
-248.2618075818536
 31
0.0
  0
LINE
  5
2638
330
2DD7
100
AcDbEntity
  8
0
 62
     0
100
AcDbLine
 10
-284.608938482208
 20
-679.0000000000016
 30
0.0
 11
324.6926173842185
 21
-272.8000000000029
 31
0.0
  0
LINE
  5
2639
330
2DD7
100
AcDbEntity
  8
0
 62
     0
100
AcDbLine
 10
320.1926560903357
 20
-272.8000000000011
 30
0.0
 11
361.4999999999946
 21
-245.2618410464365
 31
0.0
  0
LINE
  5
263A
330
2DD7
100
AcDbEntity
  8
0
 62
     0
100
AcDbLine
 10
-289.1088997760942
 20
-679.0000000000016
 30
0.0
 11
320.1926560903339
 21
-272.8000000000011
 31
0.0
  0
LINE
  5
263B
330
2DD7
100
AcDbEntity
  8
0
 62
     0
100
AcDbLine
 10
315.6926947964493
 20
-272.8000000000011
 30
0.0
 11
361.4999999999927
 21
-242.2618745110213
 31
0.0
  0
LINE
  5
263C
330
2DD7
100
AcDbEntity
  8
0
 62
     0
100
AcDbLine
 10
-293.6088610699808
 20
-679.0000000000036
 30
0.0
 11
315.6926947964475
 21
-272.8000000000029
 31
0.0
  0
LINE
  5
263D
330
2DD7
100
AcDbEntity
  8
0
 62
     0
100
AcDbLine
 10
311.192733502563
 20
-272.8000000000011
 30
0.0
 11
361.4999999999946
 21
-239.2619079756041
 31
0.0
  0
LINE
  5
263E
330
2DD7
100
AcDbEntity
  8
0
 62
     0
100
AcDbLine
 10
-298.1088223638671
 20
-679.0000000000016
 30
0.0
 11
311.192733502563
 21
-272.8000000000011
 31
0.0
  0
LINE
  5
263F
330
2DD7
100
AcDbEntity
  8
0
 62
     0
100
AcDbLine
 10
306.6927722086784
 20
-272.7999999999993
 30
0.0
 11
361.4999999999946
 21
-236.261941440187
 31
0.0
  0
LINE
  5
2640
330
2DD7
100
AcDbEntity
  8
0
 62
     0
100
AcDbLine
 10
-302.6087836577499
 20
-679.0
 30
0.0
 11
306.6927722086784
 21
-272.7999999999993
 31
0.0
  0
LINE
  5
2641
330
2DD7
100
AcDbEntity
  8
0
 62
     0
100
AcDbLine
 10
302.1928109147939
 20
-272.8000000000011
 30
0.0
 11
361.4999999999946
 21
-233.2619749047717
 31
0.0
  0
LINE
  5
2642
330
2DD7
100
AcDbEntity
  8
0
 62
     0
100
AcDbLine
 10
-307.1087449516363
 20
-679.0000000000016
 30
0.0
 11
302.1928109147939
 21
-272.8000000000011
 31
0.0
  0
LINE
  5
2643
330
2DD7
100
AcDbEntity
  8
0
 62
     0
100
AcDbLine
 10
297.6928496209093
 20
-272.7999999999993
 30
0.0
 11
361.4999999999946
 21
-230.2620083693564
 31
0.0
  0
LINE
  5
2644
330
2DD7
100
AcDbEntity
  8
0
 62
     0
100
AcDbLine
 10
-311.6087062455226
 20
-679.0000000000036
 30
0.0
 11
297.6928496209075
 21
-272.8000000000029
 31
0.0
  0
LINE
  5
2645
330
2DD7
100
AcDbEntity
  8
0
 62
     0
100
AcDbLine
 10
293.1928883270229
 20
-272.7999999999993
 30
0.0
 11
361.4999999999927
 21
-227.2620418339393
 31
0.0
  0
LINE
  5
2646
330
2DD7
100
AcDbEntity
  8
0
 62
     0
100
AcDbLine
 10
-316.1086675394108
 20
-679.0000000000036
 30
0.0
 11
293.1928883270193
 21
-272.8000000000011
 31
0.0
  0
LINE
  5
2647
330
2DD7
100
AcDbEntity
  8
0
 62
     0
100
AcDbLine
 10
288.6929270331384
 20
-272.7999999999993
 30
0.0
 11
361.4999999999946
 21
-224.2620752985222
 31
0.0
  0
LINE
  5
2648
330
2DD7
100
AcDbEntity
  8
0
 62
     0
100
AcDbLine
 10
-320.6086288332917
 20
-679.0
 30
0.0
 11
288.6929270331366
 21
-272.8000000000011
 31
0.0
  0
LINE
  5
2649
330
2DD7
100
AcDbEntity
  8
0
 62
     0
100
AcDbLine
 10
284.1929657392502
 20
-272.8000000000011
 30
0.0
 11
361.4999999999927
 21
-221.2621087631069
 31
0.0
  0
LINE
  5
264A
330
2DD7
100
AcDbEntity
  8
0
 62
     0
100
AcDbLine
 10
-325.1085901271799
 20
-679.0000000000016
 30
0.0
 11
284.1929657392484
 21
-272.8000000000029
 31
0.0
  0
LINE
  5
264B
330
2DD7
100
AcDbEntity
  8
0
 62
     0
100
AcDbLine
 10
279.6930044453637
 20
-272.8000000000011
 30
0.0
 11
361.4999999999927
 21
-218.2621422276916
 31
0.0
  0
LINE
  5
264C
330
2DD7
100
AcDbEntity
  8
0
 62
     0
100
AcDbLine
 10
-329.6085514210663
 20
-679.0000000000016
 30
0.0
 11
279.6930044453637
 21
-272.8000000000011
 31
0.0
  0
LINE
  5
264D
330
2DD7
100
AcDbEntity
  8
0
 62
     0
100
AcDbLine
 10
275.1930431514811
 20
-272.8000000000011
 30
0.0
 11
361.4999999999927
 21
-215.2621756922763
 31
0.0
  0
LINE
  5
264E
330
2DD7
100
AcDbEntity
  8
0
 62
     0
100
AcDbLine
 10
-334.1085127149491
 20
-679.0000000000016
 30
0.0
 11
275.1930431514775
 21
-272.8000000000029
 31
0.0
  0
LINE
  5
264F
330
2DD7
100
AcDbEntity
  8
0
 62
     0
100
AcDbLine
 10
270.6930818575947
 20
-272.7999999999993
 30
0.0
 11
361.4999999999946
 21
-212.2622091568573
 31
0.0
  0
LINE
  5
2650
330
2DD7
100
AcDbEntity
  8
0
 62
     0
100
AcDbLine
 10
-338.6084740088354
 20
-679.0000000000016
 30
0.0
 11
270.6930818575929
 21
-272.8000000000011
 31
0.0
  0
LINE
  5
2651
330
2DD7
100
AcDbEntity
  8
0
 62
     0
100
AcDbLine
 10
266.1931205637084
 20
-272.8000000000011
 30
0.0
 11
361.4999999999946
 21
-209.2622426214421
 31
0.0
  0
LINE
  5
2652
330
2DD7
100
AcDbEntity
  8
0
 62
     0
100
AcDbLine
 10
-343.1084353027218
 20
-679.0000000000016
 30
0.0
 11
266.1931205637066
 21
-272.8000000000029
 31
0.0
  0
LINE
  5
2653
330
2DD7
100
AcDbEntity
  8
0
 62
     0
100
AcDbLine
 10
261.693159269822
 20
-272.8000000000011
 30
0.0
 11
361.4999999999946
 21
-206.262276086025
 31
0.0
  0
LINE
  5
2654
330
2DD7
100
AcDbEntity
  8
0
 62
     0
100
AcDbLine
 10
-347.608396596608
 20
-679.0000000000016
 30
0.0
 11
261.693159269822
 21
-272.8000000000011
 31
0.0
  0
LINE
  5
2655
330
2DD7
100
AcDbEntity
  8
0
 62
     0
100
AcDbLine
 10
257.1931979759392
 20
-272.8000000000011
 30
0.0
 11
361.4999999999946
 21
-203.2623095506115
 31
0.0
  0
LINE
  5
2656
330
2DD7
100
AcDbEntity
  8
0
 62
     0
100
AcDbLine
 10
-352.1083578904909
 20
-679.0000000000016
 30
0.0
 11
257.1931979759356
 21
-272.8000000000029
 31
0.0
  0
LINE
  5
2657
330
2DD7
100
AcDbEntity
  8
0
 62
     0
100
AcDbLine
 10
252.6932366820529
 20
-272.8000000000011
 30
0.0
 11
361.4999999999946
 21
-200.2623430151944
 31
0.0
  0
LINE
  5
2658
330
2DD7
100
AcDbEntity
  8
0
 62
     0
100
AcDbLine
 10
-356.6083191843772
 20
-679.0000000000016
 30
0.0
 11
252.6932366820511
 21
-272.8000000000011
 31
0.0
  0
LINE
  5
2659
330
2DD7
100
AcDbEntity
  8
0
 62
     0
100
AcDbLine
 10
248.1932753881647
 20
-272.7999999999993
 30
0.0
 11
361.4999999999927
 21
-197.2623764797772
 31
0.0
  0
LINE
  5
265A
330
2DD7
100
AcDbEntity
  8
0
 62
     0
100
AcDbLine
 10
-361.1082804782654
 20
-679.0000000000016
 30
0.0
 11
248.1932753881647
 21
-272.7999999999993
 31
0.0
  0
LINE
  5
265B
330
2DD7
100
AcDbEntity
  8
0
 62
     0
100
AcDbLine
 10
243.6933140942819
 20
-272.7999999999993
 30
0.0
 11
361.4999999999946
 21
-194.2624099443619
 31
0.0
  0
LINE
  5
265C
330
2DD7
100
AcDbEntity
  8
0
 62
     0
100
AcDbLine
 10
-361.5000000000091
 20
-676.2611791455729
 30
0.0
 11
243.6933140942802
 21
-272.8000000000011
 31
0.0
  0
LINE
  5
265D
330
2DD7
100
AcDbEntity
  8
0
 62
     0
100
AcDbLine
 10
239.1933528003956
 20
-272.8000000000011
 30
0.0
 11
361.4999999999927
 21
-191.2624434089466
 31
0.0
  0
LINE
  5
265E
330
2DD7
100
AcDbEntity
  8
0
 62
     0
100
AcDbLine
 10
-361.5000000000073
 20
-673.2612126101557
 30
0.0
 11
239.1933528003938
 21
-272.8000000000011
 31
0.0
  0
LINE
  5
265F
330
2DD7
100
AcDbEntity
  8
0
 62
     0
100
AcDbLine
 10
234.693391506511
 20
-272.8000000000011
 30
0.0
 11
361.4999999999946
 21
-188.2624768735294
 31
0.0
  0
LINE
  5
2660
330
2DD7
100
AcDbEntity
  8
0
 62
     0
100
AcDbLine
 10
-361.5000000000091
 20
-670.2612460747404
 30
0.0
 11
234.6933915065092
 21
-272.8000000000011
 31
0.0
  0
LINE
  5
2661
330
2DD7
100
AcDbEntity
  8
0
 62
     0
100
AcDbLine
 10
230.1934302126229
 20
-272.8000000000011
 30
0.0
 11
361.4999999999946
 21
-185.2625103381124
 31
0.0
  0
LINE
  5
2662
330
2DD7
100
AcDbEntity
  8
0
 62
     0
100
AcDbLine
 10
-361.5000000000073
 20
-667.2612795393215
 30
0.0
 11
230.1934302126229
 21
-272.8000000000011
 31
0.0
  0
LINE
  5
2663
330
2DD7
100
AcDbEntity
  8
0
 62
     0
100
AcDbLine
 10
225.6934689187419
 20
-272.7999999999993
 30
0.0
 11
361.4999999999946
 21
-182.2625438026971
 31
0.0
  0
LINE
  5
2664
330
2DD7
100
AcDbEntity
  8
0
 62
     0
100
AcDbLine
 10
-361.5000000000073
 20
-664.2613130039078
 30
0.0
 11
225.6934689187383
 21
-272.8000000000011
 31
0.0
  0
LINE
  5
2665
330
2DD7
100
AcDbEntity
  8
0
 62
     0
100
AcDbLine
 10
221.1935076248537
 20
-272.8000000000011
 30
0.0
 11
361.4999999999946
 21
-179.2625772672818
 31
0.0
  0
LINE
  5
2666
330
2DD7
100
AcDbEntity
  8
0
 62
     0
100
AcDbLine
 10
-361.5000000000073
 20
-661.2613464684927
 30
0.0
 11
221.1935076248519
 21
-272.8000000000029
 31
0.0
  0
LINE
  5
2667
330
2DD7
100
AcDbEntity
  8
0
 62
     0
100
AcDbLine
 10
216.6935463309674
 20
-272.8000000000011
 30
0.0
 11
361.4999999999927
 21
-176.2626107318647
 31
0.0
  0
LINE
  5
2668
330
2DD7
100
AcDbEntity
  8
0
 62
     0
100
AcDbLine
 10
-361.5000000000091
 20
-658.2613799330756
 30
0.0
 11
216.6935463309656
 21
-272.8000000000029
 31
0.0
  0
LINE
  5
2669
330
2DD7
100
AcDbEntity
  8
0
 62
     0
100
AcDbLine
 10
212.193585037081
 20
-272.8000000000011
 30
0.0
 11
361.4999999999946
 21
-173.2626441964476
 31
0.0
  0
LINE
  5
266A
330
2DD7
100
AcDbEntity
  8
0
 62
     0
100
AcDbLine
 10
-361.5000000000073
 20
-655.2614133976584
 30
0.0
 11
212.1935850370792
 21
-272.8000000000011
 31
0.0
  0
LINE
  5
266B
330
2DD7
100
AcDbEntity
  8
0
 62
     0
100
AcDbLine
 10
207.6936237431982
 20
-272.8000000000011
 30
0.0
 11
361.4999999999927
 21
-170.2626776610341
 31
0.0
  0
LINE
  5
266C
330
2DD7
100
AcDbEntity
  8
0
 62
     0
100
AcDbLine
 10
-361.5000000000091
 20
-652.2614468622432
 30
0.0
 11
207.6936237431946
 21
-272.8000000000029
 31
0.0
  0
LINE
  5
266D
330
2DD7
100
AcDbEntity
  8
0
 62
     0
100
AcDbLine
 10
203.1936624493118
 20
-272.7999999999993
 30
0.0
 11
361.4999999999927
 21
-167.262711125617
 31
0.0
  0
LINE
  5
266E
330
2DD7
100
AcDbEntity
  8
0
 62
     0
100
AcDbLine
 10
-361.5000000000073
 20
-649.2614803268261
 30
0.0
 11
203.1936624493082
 21
-272.8000000000011
 31
0.0
  0
LINE
  5
266F
330
2DD7
100
AcDbEntity
  8
0
 62
     0
100
AcDbLine
 10
198.6937011554254
 20
-272.8000000000011
 30
0.0
 11
361.4999999999927
 21
-164.2627445902017
 31
0.0
  0
LINE
  5
2670
330
2DD7
100
AcDbEntity
  8
0
 62
     0
100
AcDbLine
 10
-361.5000000000073
 20
-646.2615137914107
 30
0.0
 11
198.6937011554237
 21
-272.8000000000029
 31
0.0
  0
LINE
  5
2671
330
2DD7
100
AcDbEntity
  8
0
 62
     0
100
AcDbLine
 10
194.1937398615373
 20
-272.8000000000011
 30
0.0
 11
361.4999999999927
 21
-161.2627780547827
 31
0.0
  0
LINE
  5
2672
330
2DD7
100
AcDbEntity
  8
0
 62
     0
100
AcDbLine
 10
-361.5000000000109
 20
-643.2615472559936
 30
0.0
 11
194.1937398615373
 21
-272.8000000000011
 31
0.0
  0
LINE
  5
2673
330
2DD7
100
AcDbEntity
  8
0
 62
     0
100
AcDbLine
 10
189.6937785676564
 20
-272.7999999999993
 30
0.0
 11
361.4999999999927
 21
-158.2628115193674
 31
0.0
  0
LINE
  5
2674
330
2DD7
100
AcDbEntity
  8
0
 62
     0
100
AcDbLine
 10
-361.5000000000073
 20
-640.2615807205766
 30
0.0
 11
189.6937785676545
 21
-272.7999999999993
 31
0.0
  0
LINE
  5
2675
330
2DD7
100
AcDbEntity
  8
0
 62
     0
100
AcDbLine
 10
185.193817273768
 20
-272.8000000000011
 30
0.0
 11
361.4999999999927
 21
-155.2628449839521
 31
0.0
  0
LINE
  5
2676
330
2DD7
100
AcDbEntity
  8
0
 62
     0
100
AcDbLine
 10
-361.5000000000091
 20
-637.2616141851612
 30
0.0
 11
185.1938172737664
 21
-272.8000000000011
 31
0.0
  0
LINE
  5
2677
330
2DD7
100
AcDbEntity
  8
0
 62
     0
100
AcDbLine
 10
180.6938559798837
 20
-272.8000000000011
 30
0.0
 11
361.4999999999927
 21
-152.2628784485369
 31
0.0
  0
LINE
  5
2678
330
2DD7
100
AcDbEntity
  8
0
 62
     0
100
AcDbLine
 10
-361.5000000000073
 20
-634.261647649746
 30
0.0
 11
180.6938559798817
 21
-272.8000000000029
 31
0.0
  0
LINE
  5
2679
330
2DD7
100
AcDbEntity
  8
0
 62
     0
100
AcDbLine
 10
176.1938946859991
 20
-272.7999999999993
 30
0.0
 11
361.4999999999927
 21
-149.2629119131196
 31
0.0
  0
LINE
  5
267A
330
2DD7
100
AcDbEntity
  8
0
 62
     0
100
AcDbLine
 10
-361.5000000000091
 20
-631.2616811143287
 30
0.0
 11
176.1938946859954
 21
-272.8000000000011
 31
0.0
  0
LINE
  5
267B
330
2DD7
100
AcDbEntity
  8
0
 62
     0
100
AcDbLine
 10
171.6939333921127
 20
-272.7999999999993
 30
0.0
 11
361.4999999999909
 21
-146.2629453777026
 31
0.0
  0
LINE
  5
267C
330
2DD7
100
AcDbEntity
  8
0
 62
     0
100
AcDbLine
 10
-361.5000000000091
 20
-628.2617145789116
 30
0.0
 11
171.6939333921091
 21
-272.8000000000011
 31
0.0
  0
LINE
  5
267D
330
2DD7
100
AcDbEntity
  8
0
 62
     0
100
AcDbLine
 10
167.1939720982263
 20
-272.8000000000011
 30
0.0
 11
361.4999999999927
 21
-143.2629788422873
 31
0.0
  0
LINE
  5
267E
330
2DD7
100
AcDbEntity
  8
0
 62
     0
100
AcDbLine
 10
-361.5000000000091
 20
-625.2617480434962
 30
0.0
 11
167.1939720982244
 21
-272.8000000000011
 31
0.0
  0
LINE
  5
267F
330
2DD7
100
AcDbEntity
  8
0
 62
     0
100
AcDbLine
 10
162.6940108043399
 20
-272.8000000000029
 30
0.0
 11
361.4999999999909
 21
-140.263012306872
 31
0.0
  0
LINE
  5
2680
330
2DD7
100
AcDbEntity
  8
0
 62
     0
100
AcDbLine
 10
-361.5000000000091
 20
-622.2617815080813
 30
0.0
 11
162.6940108043382
 21
-272.8000000000029
 31
0.0
  0
LINE
  5
2681
330
2DD7
100
AcDbEntity
  8
0
 62
     0
100
AcDbLine
 10
158.1940495104572
 20
-272.7999999999993
 30
0.0
 11
361.4999999999927
 21
-137.2630457714549
 31
0.0
  0
LINE
  5
2682
330
2DD7
100
AcDbEntity
  8
0
 62
     0
100
AcDbLine
 10
-361.5000000000073
 20
-619.2618149726641
 30
0.0
 11
158.1940495104536
 21
-272.8000000000011
 31
0.0
  0
LINE
  5
2683
330
2DD7
100
AcDbEntity
  8
0
 62
     0
100
AcDbLine
 10
153.6940882165708
 20
-272.7999999999993
 30
0.0
 11
361.4999999999909
 21
-134.2630792360377
 31
0.0
  0
LINE
  5
2684
330
2DD7
100
AcDbEntity
  8
0
 62
     0
100
AcDbLine
 10
-361.5000000000091
 20
-616.2618484372488
 30
0.0
 11
153.6940882165672
 21
-272.8000000000011
 31
0.0
  0
LINE
  5
2685
330
2DD7
100
AcDbEntity
  8
0
 62
     0
100
AcDbLine
 10
149.1941269226844
 20
-272.8000000000011
 30
0.0
 11
361.4999999999927
 21
-131.2631127006225
 31
0.0
  0
LINE
  5
2686
330
2DD7
100
AcDbEntity
  8
0
 62
     0
100
AcDbLine
 10
-361.5000000000073
 20
-613.2618819018315
 30
0.0
 11
149.1941269226827
 21
-272.8000000000029
 31
0.0
  0
LINE
  5
2687
330
2DD7
100
AcDbEntity
  8
0
 62
     0
100
AcDbLine
 10
145.6999999999934
 20
-272.1294454648196
 30
0.0
 11
361.4999999999927
 21
-128.2631461652054
 31
0.0
  0
LINE
  5
2688
330
2DD7
100
AcDbEntity
  8
0
 62
     0
100
AcDbLine
 10
-361.5000000000073
 20
-610.2619153664145
 30
0.0
 11
145.6999999999934
 21
-272.1294454648196
 31
0.0
  0
LINE
  5
2689
330
2DD7
100
AcDbEntity
  8
0
 62
     0
100
AcDbLine
 10
145.6999999999914
 20
-269.1294789294043
 30
0.0
 11
361.4999999999909
 21
-125.2631796297919
 31
0.0
  0
LINE
  5
268A
330
2DD7
100
AcDbEntity
  8
0
 62
     0
100
AcDbLine
 10
-361.5000000000091
 20
-607.2619488309992
 30
0.0
 11
145.6999999999914
 21
-269.1294789294043
 31
0.0
  0
LINE
  5
268B
330
2DD7
100
AcDbEntity
  8
0
 62
     0
100
AcDbLine
 10
145.6999999999934
 20
-266.1295123939872
 30
0.0
 11
361.4999999999927
 21
-122.263213094373
 31
0.0
  0
LINE
  5
268C
330
2DD7
100
AcDbEntity
  8
0
 62
     0
100
AcDbLine
 10
-361.5000000000073
 20
-604.2619822955821
 30
0.0
 11
145.6999999999934
 21
-266.1295123939872
 31
0.0
  0
LINE
  5
268D
330
2DD7
100
AcDbEntity
  8
0
 62
     0
100
AcDbLine
 10
145.6999999999934
 20
-263.1295458585682
 30
0.0
 11
361.4999999999927
 21
-119.2632465589559
 31
0.0
  0
LINE
  5
268E
330
2DD7
100
AcDbEntity
  8
0
 62
     0
100
AcDbLine
 10
-361.5000000000091
 20
-601.2620157601668
 30
0.0
 11
145.6999999999914
 21
-263.1295458585701
 31
0.0
  0
LINE
  5
268F
330
2DD7
100
AcDbEntity
  8
0
 62
     0
100
AcDbLine
 10
145.6999999999952
 20
-260.1295793231547
 30
0.0
 11
361.4999999999927
 21
-116.2632800235406
 31
0.0
  0
LINE
  5
2690
330
2DD7
100
AcDbEntity
  8
0
 62
     0
100
AcDbLine
 10
-361.5000000000073
 20
-598.2620492247515
 30
0.0
 11
145.6999999999934
 21
-260.1295793231547
 31
0.0
  0
LINE
  5
2691
330
2DD7
100
AcDbEntity
  8
0
 62
     0
100
AcDbLine
 10
145.6999999999934
 20
-257.1296127877395
 30
0.0
 11
361.4999999999927
 21
-113.2633134881253
 31
0.0
  0
LINE
  5
2692
330
2DD7
100
AcDbEntity
  8
0
 62
     0
100
AcDbLine
 10
-361.5000000000091
 20
-595.2620826893361
 30
0.0
 11
145.6999999999934
 21
-257.1296127877395
 31
0.0
  0
LINE
  5
2693
330
2DD7
100
AcDbEntity
  8
0
 62
     0
100
AcDbLine
 10
145.6999999999952
 20
-254.1296462523224
 30
0.0
 11
361.4999999999927
 21
-110.26334695271
 31
0.0
  0
LINE
  5
2694
330
2DD7
100
AcDbEntity
  8
0
 62
     0
100
AcDbLine
 10
-361.5000000000073
 20
-592.2621161539168
 30
0.0
 11
145.6999999999934
 21
-254.1296462523224
 31
0.0
  0
LINE
  5
2695
330
2DD7
100
AcDbEntity
  8
0
 62
     0
100
AcDbLine
 10
145.6999999999934
 20
-251.1296797169052
 30
0.0
 11
361.4999999999927
 21
-107.2633804172928
 31
0.0
  0
LINE
  5
2696
330
2DD7
100
AcDbEntity
  8
0
 62
     0
100
AcDbLine
 10
-361.5000000000091
 20
-589.262149618502
 30
0.0
 11
145.6999999999934
 21
-251.1296797169052
 31
0.0
  0
LINE
  5
2697
330
2DD7
100
AcDbEntity
  8
0
 62
     0
100
AcDbLine
 10
145.6999999999934
 20
-248.1297131814899
 30
0.0
 11
361.4999999999909
 21
-104.2634138818775
 31
0.0
  0
LINE
  5
2698
330
2DD7
100
AcDbEntity
  8
0
 62
     0
100
AcDbLine
 10
-361.5000000000091
 20
-586.2621830830849
 30
0.0
 11
145.6999999999934
 21
-248.1297131814899
 31
0.0
  0
LINE
  5
2699
330
2DD7
100
AcDbEntity
  8
0
 62
     0
100
AcDbLine
 10
145.6999999999934
 20
-245.1297466460746
 30
0.0
 11
361.4999999999927
 21
-101.2634473464604
 31
0.0
  0
LINE
  5
269A
330
2DD7
100
AcDbEntity
  8
0
 62
     0
100
AcDbLine
 10
-361.5000000000073
 20
-583.2622165476712
 30
0.0
 11
145.6999999999934
 21
-245.1297466460746
 31
0.0
  0
LINE
  5
269B
330
2DD7
100
AcDbEntity
  8
0
 62
     0
100
AcDbLine
 10
145.6999999999934
 20
-242.1297801106575
 30
0.0
 11
361.4999999999909
 21
-98.26348081104516
 31
0.0
  0
LINE
  5
269C
330
2DD7
100
AcDbEntity
  8
0
 62
     0
100
AcDbLine
 10
-361.5000000000091
 20
-580.2622500122541
 30
0.0
 11
145.6999999999934
 21
-242.1297801106575
 31
0.0
  0
LINE
  5
269D
330
2DD7
100
AcDbEntity
  8
0
 62
     0
100
AcDbLine
 10
145.6999999999914
 20
-239.1298135752404
 30
0.0
 11
361.4999999999909
 21
-95.26351427562806
 31
0.0
  0
LINE
  5
269E
330
2DD7
100
AcDbEntity
  8
0
 62
     0
100
AcDbLine
 10
-361.5000000000091
 20
-577.2622834768369
 30
0.0
 11
145.6999999999914
 21
-239.1298135752404
 31
0.0
  0
LINE
  5
269F
330
2DD7
100
AcDbEntity
  8
0
 62
     0
100
AcDbLine
 10
145.6999999999934
 20
-236.1298470398252
 30
0.0
 11
361.4999999999927
 21
-92.26354774021272
 31
0.0
  0
LINE
  5
26A0
330
2DD7
100
AcDbEntity
  8
0
 62
     0
100
AcDbLine
 10
-361.5000000000091
 20
-574.2623169414216
 30
0.0
 11
145.6999999999934
 21
-236.1298470398252
 31
0.0
  0
LINE
  5
26A1
330
2DD7
100
AcDbEntity
  8
0
 62
     0
100
AcDbLine
 10
145.6999999999934
 20
-233.129880504408
 30
0.0
 11
361.4999999999909
 21
-89.26358120479562
 31
0.0
  0
LINE
  5
26A2
330
2DD7
100
AcDbEntity
  8
0
 62
     0
100
AcDbLine
 10
-361.5000000000091
 20
-571.2623504060047
 30
0.0
 11
145.6999999999914
 21
-233.129880504408
 31
0.0
  0
LINE
  5
26A3
330
2DD7
100
AcDbEntity
  8
0
 62
     0
100
AcDbLine
 10
145.6999999999934
 20
-230.1299139689927
 30
0.0
 11
361.4999999999927
 21
-86.26361466938034
 31
0.0
  0
LINE
  5
26A4
330
2DD7
100
AcDbEntity
  8
0
 62
     0
100
AcDbLine
 10
-361.5000000000073
 20
-568.2623838705892
 30
0.0
 11
145.6999999999934
 21
-230.1299139689927
 31
0.0
  0
LINE
  5
26A5
330
2DD7
100
AcDbEntity
  8
0
 62
     0
100
AcDbLine
 10
145.6999999999934
 20
-227.1299474335756
 30
0.0
 11
361.4999999999909
 21
-83.26364813396322
 31
0.0
  0
LINE
  5
26A6
330
2DD7
100
AcDbEntity
  8
0
 62
     0
100
AcDbLine
 10
-361.5000000000073
 20
-565.2624173351721
 30
0.0
 11
145.6999999999914
 21
-227.1299474335774
 31
0.0
  0
LINE
  5
26A7
330
2DD7
100
AcDbEntity
  8
0
 62
     0
100
AcDbLine
 10
145.6999999999934
 20
-224.1299808981603
 30
0.0
 11
361.4999999999927
 21
-80.26368159854794
 31
0.0
  0
LINE
  5
26A8
330
2DD7
100
AcDbEntity
  8
0
 62
     0
100
AcDbLine
 10
-361.5000000000073
 20
-562.2624507997569
 30
0.0
 11
145.6999999999934
 21
-224.1299808981603
 31
0.0
  0
LINE
  5
26A9
330
2DD7
100
AcDbEntity
  8
0
 62
     0
100
AcDbLine
 10
145.6999999999934
 20
-221.1300143627432
 30
0.0
 11
358.8955659441962
 21
-79.00000000000365
 31
0.0
  0
LINE
  5
26AA
330
2DD7
100
AcDbEntity
  8
0
 62
     0
100
AcDbLine
 10
-361.5000000000073
 20
-559.2624842643399
 30
0.0
 11
145.6999999999934
 21
-221.1300143627432
 31
0.0
  0
LINE
  5
26AB
330
2DD7
100
AcDbEntity
  8
0
 62
     0
100
AcDbLine
 10
145.6999999999914
 20
-218.1300478273278
 30
0.0
 11
354.3956046503117
 21
-79.00000000000365
 31
0.0
  0
LINE
  5
26AC
330
2DD7
100
AcDbEntity
  8
0
 62
     0
100
AcDbLine
 10
-361.5000000000091
 20
-556.2625177289247
 30
0.0
 11
145.6999999999914
 21
-218.1300478273278
 31
0.0
  0
LINE
  5
26AD
330
2DD7
100
AcDbEntity
  8
0
 62
     0
100
AcDbLine
 10
145.6999999999934
 20
-215.1300812919126
 30
0.0
 11
349.8956433564272
 21
-79.00000000000365
 31
0.0
  0
LINE
  5
26AE
330
2DD7
100
AcDbEntity
  8
0
 62
     0
100
AcDbLine
 10
-361.5000000000073
 20
-553.2625511935075
 30
0.0
 11
145.6999999999934
 21
-215.1300812919126
 31
0.0
  0
LINE
  5
26AF
330
2DD7
100
AcDbEntity
  8
0
 62
     0
100
AcDbLine
 10
145.6999999999914
 20
-212.1301147564955
 30
0.0
 11
345.3956820625408
 21
-79.00000000000182
 31
0.0
  0
LINE
  5
26B0
330
2DD7
100
AcDbEntity
  8
0
 62
     0
100
AcDbLine
 10
-361.5000000000091
 20
-550.2625846580904
 30
0.0
 11
145.6999999999914
 21
-212.1301147564955
 31
0.0
  0
LINE
  5
26B1
330
2DD7
100
AcDbEntity
  8
0
 62
     0
100
AcDbLine
 10
145.6999999999952
 20
-209.1301482210782
 30
0.0
 11
340.8957207686563
 21
-79.00000000000365
 31
0.0
  0
LINE
  5
26B2
330
2DD7
100
AcDbEntity
  8
0
 62
     0
100
AcDbLine
 10
-361.5000000000073
 20
-547.262618122675
 30
0.0
 11
145.6999999999934
 21
-209.1301482210802
 31
0.0
  0
LINE
  5
26B3
330
2DD7
100
AcDbEntity
  8
0
 62
     0
100
AcDbLine
 10
145.6999999999934
 20
-206.1301816856631
 30
0.0
 11
336.3957594747699
 21
-79.00000000000365
 31
0.0
  0
LINE
  5
26B4
330
2DD7
100
AcDbEntity
  8
0
 62
     0
100
AcDbLine
 10
-361.5000000000073
 20
-544.2626515872598
 30
0.0
 11
145.6999999999914
 21
-206.1301816856649
 31
0.0
  0
LINE
  5
26B5
330
2DD7
100
AcDbEntity
  8
0
 62
     0
100
AcDbLine
 10
145.6999999999952
 20
-203.1302151502459
 30
0.0
 11
331.8957981808853
 21
-79.00000000000365
 31
0.0
  0
LINE
  5
26B6
330
2DD7
100
AcDbEntity
  8
0
 62
     0
100
AcDbLine
 10
-361.5000000000073
 20
-541.2626850518427
 30
0.0
 11
145.6999999999952
 21
-203.1302151502459
 31
0.0
  0
LINE
  5
26B7
330
2DD7
100
AcDbEntity
  8
0
 62
     0
100
AcDbLine
 10
145.6999999999934
 20
-200.1302486148288
 30
0.0
 11
327.395836886999
 21
-79.00000000000182
 31
0.0
  0
LINE
  5
26B8
330
2DD7
100
AcDbEntity
  8
0
 62
     0
100
AcDbLine
 10
-361.5000000000073
 20
-538.2627185164252
 30
0.0
 11
145.6999999999914
 21
-200.1302486148306
 31
0.0
  0
LINE
  5
26B9
330
2DD7
100
AcDbEntity
  8
0
 62
     0
100
AcDbLine
 10
145.6999999999934
 20
-197.1302820794153
 30
0.0
 11
322.8958755931126
 21
-79.00000000000365
 31
0.0
  0
LINE
  5
26BA
330
2DD7
100
AcDbEntity
  8
0
 62
     0
100
AcDbLine
 10
-361.5000000000091
 20
-535.2627519810103
 30
0.0
 11
145.6999999999934
 21
-197.1302820794153
 31
0.0
  0
LINE
  5
26BB
330
2DD7
100
AcDbEntity
  8
0
 62
     0
100
AcDbLine
 10
145.6999999999934
 20
-194.1303155439981
 30
0.0
 11
318.395914299228
 21
-79.00000000000182
 31
0.0
  0
LINE
  5
26BC
330
2DD7
100
AcDbEntity
  8
0
 62
     0
100
AcDbLine
 10
-361.5000000000073
 20
-532.2627854455929
 30
0.0
 11
145.6999999999934
 21
-194.1303155439981
 31
0.0
  0
LINE
  5
26BD
330
2DD7
100
AcDbEntity
  8
0
 62
     0
100
AcDbLine
 10
145.6999999999934
 20
-191.1303490085829
 30
0.0
 11
313.8959530053416
 21
-79.00000000000365
 31
0.0
  0
LINE
  5
26BE
330
2DD7
100
AcDbEntity
  8
0
 62
     0
100
AcDbLine
 10
-361.5000000000091
 20
-529.2628189101779
 30
0.0
 11
145.6999999999934
 21
-191.1303490085829
 31
0.0
  0
LINE
  5
26BF
330
2DD7
100
AcDbEntity
  8
0
 62
     0
100
AcDbLine
 10
145.6999999999934
 20
-188.1303824731658
 30
0.0
 11
309.3959917114589
 21
-79.00000000000182
 31
0.0
  0
LINE
  5
26C0
330
2DD7
100
AcDbEntity
  8
0
 62
     0
100
AcDbLine
 10
-361.5000000000073
 20
-526.2628523747607
 30
0.0
 11
145.6999999999934
 21
-188.1303824731658
 31
0.0
  0
LINE
  5
26C1
330
2DD7
100
AcDbEntity
  8
0
 62
     0
100
AcDbLine
 10
145.6999999999934
 20
-185.1304159377504
 30
0.0
 11
304.8960304175708
 21
-79.00000000000365
 31
0.0
  0
LINE
  5
26C2
330
2DD7
100
AcDbEntity
  8
0
 62
     0
100
AcDbLine
 10
-361.5000000000091
 20
-523.2628858393455
 30
0.0
 11
145.6999999999934
 21
-185.1304159377504
 31
0.0
  0
LINE
  5
26C3
330
2DD7
100
AcDbEntity
  8
0
 62
     0
100
AcDbLine
 10
145.6999999999914
 20
-182.1304494023334
 30
0.0
 11
300.3960691236862
 21
-79.00000000000182
 31
0.0
  0
LINE
  5
26C4
330
2DD7
100
AcDbEntity
  8
0
 62
     0
100
AcDbLine
 10
-361.5000000000091
 20
-520.2629193039299
 30
0.0
 11
145.6999999999914
 21
-182.1304494023334
 31
0.0
  0
LINE
  5
26C5
330
2DD7
100
AcDbEntity
  8
0
 62
     0
100
AcDbLine
 10
145.6999999999934
 20
-179.1304828669181
 30
0.0
 11
295.8961078297998
 21
-79.00000000000365
 31
0.0
  0
LINE
  5
26C6
330
2DD7
100
AcDbEntity
  8
0
 62
     0
100
AcDbLine
 10
-361.5000000000073
 20
-517.2629527685129
 30
0.0
 11
145.6999999999934
 21
-179.1304828669181
 31
0.0
  0
LINE
  5
26C7
330
2DD7
100
AcDbEntity
  8
0
 62
     0
100
AcDbLine
 10
145.6999999999934
 20
-176.130516331501
 30
0.0
 11
291.3961465359134
 21
-79.00000000000365
 31
0.0
  0
LINE
  5
26C8
330
2DD7
100
AcDbEntity
  8
0
 62
     0
100
AcDbLine
 10
-361.5000000000073
 20
-514.262986233096
 30
0.0
 11
145.6999999999934
 21
-176.130516331501
 31
0.0
  0
LINE
  5
26C9
330
2DD7
100
AcDbEntity
  8
0
 62
     0
100
AcDbLine
 10
145.6999999999934
 20
-173.1305497960836
 30
0.0
 11
286.8961852420307
 21
-79.00000000000182
 31
0.0
  0
LINE
  5
26CA
330
2DD7
100
AcDbEntity
  8
0
 62
     0
100
AcDbLine
 10
-361.5000000000073
 20
-511.2630196976787
 30
0.0
 11
145.6999999999934
 21
-173.1305497960836
 31
0.0
  0
LINE
  5
26CB
330
2DD7
100
AcDbEntity
  8
0
 62
     0
100
AcDbLine
 10
145.6999999999934
 20
-170.1305832606684
 30
0.0
 11
282.3962239481425
 21
-79.00000000000365
 31
0.0
  0
LINE
  5
26CC
330
2DD7
100
AcDbEntity
  8
0
 62
     0
100
AcDbLine
 10
-361.5000000000073
 20
-508.2630531622633
 30
0.0
 11
145.6999999999934
 21
-170.1305832606684
 31
0.0
  0
LINE
  5
26CD
330
2DD7
100
AcDbEntity
  8
0
 62
     0
100
AcDbLine
 10
145.6999999999914
 20
-167.1306167252533
 30
0.0
 11
277.8962626542579
 21
-79.00000000000365
 31
0.0
  0
LINE
  5
26CE
330
2DD7
100
AcDbEntity
  8
0
 62
     0
100
AcDbLine
 10
-361.5000000000091
 20
-505.26308662685
 30
0.0
 11
145.6999999999914
 21
-167.1306167252533
 31
0.0
  0
LINE
  5
26CF
330
2DD7
100
AcDbEntity
  8
0
 62
     0
100
AcDbLine
 10
145.6999999999934
 20
-164.1306501898361
 30
0.0
 11
273.3963013603716
 21
-79.00000000000365
 31
0.0
  0
LINE
  5
26D0
330
2DD7
100
AcDbEntity
  8
0
 62
     0
100
AcDbLine
 10
-361.5000000000073
 20
-502.2631200914329
 30
0.0
 11
145.6999999999934
 21
-164.1306501898361
 31
0.0
  0
LINE
  5
26D1
330
2DD7
100
AcDbEntity
  8
0
 62
     0
100
AcDbLine
 10
145.6999999999914
 20
-161.130683654419
 30
0.0
 11
268.896340066487
 21
-79.00000000000182
 31
0.0
  0
LINE
  5
26D2
330
2DD7
100
AcDbEntity
  8
0
 62
     0
100
AcDbLine
 10
-361.5000000000091
 20
-499.2631535560157
 30
0.0
 11
145.6999999999914
 21
-161.130683654419
 31
0.0
  0
LINE
  5
26D3
330
2DD7
100
AcDbEntity
  8
0
 62
     0
100
AcDbLine
 10
145.6999999999934
 20
-158.1307171190037
 30
0.0
 11
264.3963787726006
 21
-79.00000000000365
 31
0.0
  0
LINE
  5
26D4
330
2DD7
100
AcDbEntity
  8
0
 62
     0
100
AcDbLine
 10
-361.5000000000073
 20
-496.2631870205988
 30
0.0
 11
145.6999999999934
 21
-158.1307171190037
 31
0.0
  0
LINE
  5
26D5
330
2DD7
100
AcDbEntity
  8
0
 62
     0
100
AcDbLine
 10
145.6999999999914
 20
-155.1307505835866
 30
0.0
 11
259.8964174787161
 21
-79.00000000000182
 31
0.0
  0
LINE
  5
26D6
330
2DD7
100
AcDbEntity
  8
0
 62
     0
100
AcDbLine
 10
-361.5000000000091
 20
-493.2632204851834
 30
0.0
 11
145.6999999999914
 21
-155.1307505835866
 31
0.0
  0
LINE
  5
26D7
330
2DD7
100
AcDbEntity
  8
0
 62
     0
100
AcDbLine
 10
145.6999999999934
 20
-152.1307840481731
 30
0.0
 11
255.3964561848315
 21
-79.00000000000365
 31
0.0
  0
LINE
  5
26D8
330
2DD7
100
AcDbEntity
  8
0
 62
     0
100
AcDbLine
 10
-361.5000000000073
 20
-490.2632539497663
 30
0.0
 11
145.6999999999934
 21
-152.1307840481731
 31
0.0
  0
LINE
  5
26D9
330
2DD7
100
AcDbEntity
  8
0
 62
     0
100
AcDbLine
 10
145.6999999999934
 20
-149.1308175127542
 30
0.0
 11
250.896494890947
 21
-79.0
 31
0.0
  0
LINE
  5
26DA
330
2DD7
100
AcDbEntity
  8
0
 62
     0
100
AcDbLine
 10
-361.5000000000073
 20
-487.2632874143508
 30
0.0
 11
145.6999999999934
 21
-149.1308175127542
 31
0.0
  0
LINE
  5
26DB
330
2DD7
100
AcDbEntity
  8
0
 62
     0
100
AcDbLine
 10
145.6999999999934
 20
-146.1308509773388
 30
0.0
 11
246.3965335970606
 21
-79.00000000000182
 31
0.0
  0
LINE
  5
26DC
330
2DD7
100
AcDbEntity
  8
0
 62
     0
100
AcDbLine
 10
-361.5000000000091
 20
-484.2633208789357
 30
0.0
 11
145.6999999999934
 21
-146.1308509773388
 31
0.0
  0
LINE
  5
26DD
330
2DD7
100
AcDbEntity
  8
0
 62
     0
100
AcDbLine
 10
145.6999999999934
 20
-143.1308844419218
 30
0.0
 11
241.8965723031742
 21
-79.00000000000182
 31
0.0
  0
LINE
  5
26DE
330
2DD7
100
AcDbEntity
  8
0
 62
     0
100
AcDbLine
 10
-361.5000000000073
 20
-481.2633543435185
 30
0.0
 11
145.6999999999934
 21
-143.1308844419218
 31
0.0
  0
LINE
  5
26DF
330
2DD7
100
AcDbEntity
  8
0
 62
     0
100
AcDbLine
 10
145.6999999999934
 20
-140.1309179065065
 30
0.0
 11
237.3966110092879
 21
-79.00000000000365
 31
0.0
  0
LINE
  5
26E0
330
2DD7
100
AcDbEntity
  8
0
 62
     0
100
AcDbLine
 10
-361.5000000000091
 20
-478.2633878081031
 30
0.0
 11
145.6999999999934
 21
-140.1309179065065
 31
0.0
  0
LINE
  5
26E1
330
2DD7
100
AcDbEntity
  8
0
 62
     0
100
AcDbLine
 10
145.6999999999934
 20
-137.1309513710894
 30
0.0
 11
232.8966497154052
 21
-79.00000000000182
 31
0.0
  0
LINE
  5
26E2
330
2DD7
100
AcDbEntity
  8
0
 62
     0
100
AcDbLine
 10
-361.5000000000073
 20
-475.2634212726857
 30
0.0
 11
145.6999999999934
 21
-137.1309513710894
 31
0.0
  0
LINE
  5
26E3
330
2DD7
100
AcDbEntity
  8
0
 62
     0
100
AcDbLine
 10
145.6999999999934
 20
-134.1309848356741
 30
0.0
 11
228.3966884215189
 21
-79.0
 31
0.0
  0
LINE
  5
26E4
330
2DD7
100
AcDbEntity
  8
0
 62
     0
100
AcDbLine
 10
-361.5000000000091
 20
-472.263454737269
 30
0.0
 11
145.6999999999934
 21
-134.1309848356741
 31
0.0
  0
LINE
  5
26E5
330
2DD7
100
AcDbEntity
  8
0
 62
     0
100
AcDbLine
 10
145.6999999999934
 20
-131.1310183002588
 30
0.0
 11
223.8967271276341
 21
-79.00000000000182
 31
0.0
  0
LINE
  5
26E6
330
2DD7
100
AcDbEntity
  8
0
 62
     0
100
AcDbLine
 10
-361.5000000000055
 20
-469.2634882018537
 30
0.0
 11
145.6999999999934
 21
-131.1310183002588
 31
0.0
  0
LINE
  5
26E7
330
2DD7
100
AcDbEntity
  8
0
 62
     0
100
AcDbLine
 10
145.6999999999934
 20
-128.1310517648435
 30
0.0
 11
219.396765833746
 21
-79.00000000000365
 31
0.0
  0
LINE
  5
26E8
330
2DD7
100
AcDbEntity
  8
0
 62
     0
100
AcDbLine
 10
-361.5000000000091
 20
-466.2635216664383
 30
0.0
 11
145.6999999999934
 21
-128.1310517648435
 31
0.0
  0
LINE
  5
26E9
330
2DD7
100
AcDbEntity
  8
0
 62
     0
100
AcDbLine
 10
145.6999999999914
 20
-125.1310852294264
 30
0.0
 11
214.8968045398596
 21
-79.00000000000365
 31
0.0
  0
LINE
  5
26EA
330
2DD7
100
AcDbEntity
  8
0
 62
     0
100
AcDbLine
 10
-361.5000000000073
 20
-463.2635551310213
 30
0.0
 11
145.6999999999914
 21
-125.1310852294264
 31
0.0
  0
LINE
  5
26EB
330
2DD7
100
AcDbEntity
  8
0
 62
     0
100
AcDbLine
 10
145.6999999999934
 20
-122.1311186940074
 30
0.0
 11
210.3968432459769
 21
-79.00000000000182
 31
0.0
  0
LINE
  5
26EC
330
2DD7
100
AcDbEntity
  8
0
 62
     0
100
AcDbLine
 10
-361.5000000000073
 20
-460.2635885956042
 30
0.0
 11
145.6999999999934
 21
-122.1311186940074
 31
0.0
  0
LINE
  5
26ED
330
2DD7
100
AcDbEntity
  8
0
 62
     0
100
AcDbLine
 10
145.6999999999934
 20
-119.131152158594
 30
0.0
 11
205.8968819520905
 21
-79.00000000000182
 31
0.0
  0
LINE
  5
26EE
330
2DD7
100
AcDbEntity
  8
0
 62
     0
100
AcDbLine
 10
-361.5000000000073
 20
-457.2636220601888
 30
0.0
 11
145.6999999999934
 21
-119.131152158594
 31
0.0
  0
LINE
  5
26EF
330
2DD7
100
AcDbEntity
  8
0
 62
     0
100
AcDbLine
 10
145.6999999999914
 20
-116.1311856231768
 30
0.0
 11
201.3969206582024
 21
-79.00000000000182
 31
0.0
  0
LINE
  5
26F0
330
2DD7
100
AcDbEntity
  8
0
 62
     0
100
AcDbLine
 10
-361.5000000000091
 20
-454.2636555247717
 30
0.0
 11
145.6999999999914
 21
-116.1311856231768
 31
0.0
  0
LINE
  5
26F1
330
2DD7
100
AcDbEntity
  8
0
 62
     0
100
AcDbLine
 10
145.6999999999934
 20
-113.1312190877615
 30
0.0
 11
196.8969593643196
 21
-79.00000000000182
 31
0.0
  0
LINE
  5
26F2
330
2DD7
100
AcDbEntity
  8
0
 62
     0
100
AcDbLine
 10
-361.5000000000073
 20
-451.2636889893565
 30
0.0
 11
145.6999999999934
 21
-113.1312190877615
 31
0.0
  0
LINE
  5
26F3
330
2DD7
100
AcDbEntity
  8
0
 62
     0
100
AcDbLine
 10
145.6999999999914
 20
-110.1312525523444
 30
0.0
 11
192.3969980704332
 21
-79.00000000000182
 31
0.0
  0
LINE
  5
26F4
330
2DD7
100
AcDbEntity
  8
0
 62
     0
100
AcDbLine
 10
-361.5000000000073
 20
-448.2637224539391
 30
0.0
 11
145.6999999999914
 21
-110.1312525523444
 31
0.0
  0
LINE
  5
26F5
330
2DD7
100
AcDbEntity
  8
0
 62
     0
100
AcDbLine
 10
145.6999999999934
 20
-107.1312860169291
 30
0.0
 11
187.8970367765487
 21
-79.00000000000365
 31
0.0
  0
LINE
  5
26F6
330
2DD7
100
AcDbEntity
  8
0
 62
     0
100
AcDbLine
 10
-361.5000000000073
 20
-445.2637559185241
 30
0.0
 11
145.6999999999934
 21
-107.1312860169291
 31
0.0
  0
LINE
  5
26F7
330
2DD7
100
AcDbEntity
  8
0
 62
     0
100
AcDbLine
 10
145.6999999999914
 20
-104.131319481512
 30
0.0
 11
183.3970754826641
 21
-79.0
 31
0.0
  0
LINE
  5
26F8
330
2DD7
100
AcDbEntity
  8
0
 62
     0
100
AcDbLine
 10
-361.5000000000073
 20
-442.263789383107
 30
0.0
 11
145.6999999999914
 21
-104.131319481512
 31
0.0
  0
LINE
  5
26F9
330
2DD7
100
AcDbEntity
  8
0
 62
     0
100
AcDbLine
 10
145.6999999999934
 20
-101.1313529460967
 30
0.0
 11
178.8971141887778
 21
-79.00000000000182
 31
0.0
  0
LINE
  5
26FA
330
2DD7
100
AcDbEntity
  8
0
 62
     0
100
AcDbLine
 10
-361.5000000000073
 20
-439.2638228476916
 30
0.0
 11
145.6999999999934
 21
-101.1313529460967
 31
0.0
  0
LINE
  5
26FB
330
2DD7
100
AcDbEntity
  8
0
 62
     0
100
AcDbLine
 10
145.6999999999914
 20
-98.13138641067963
 30
0.0
 11
174.3971528948914
 21
-79.00000000000182
 31
0.0
  0
LINE
  5
26FC
330
2DD7
100
AcDbEntity
  8
0
 62
     0
100
AcDbLine
 10
-361.5000000000073
 20
-436.2638563122744
 30
0.0
 11
145.6999999999914
 21
-98.13138641067963
 31
0.0
  0
LINE
  5
26FD
330
2DD7
100
AcDbEntity
  8
0
 62
     0
100
AcDbLine
 10
145.6999999999934
 20
-95.13141987526251
 30
0.0
 11
169.897191601005
 21
-79.00000000000182
 31
0.0
  0
LINE
  5
26FE
330
2DD7
100
AcDbEntity
  8
0
 62
     0
100
AcDbLine
 10
-361.5000000000091
 20
-433.2638897768574
 30
0.0
 11
145.6999999999914
 21
-95.13141987526251
 31
0.0
  0
LINE
  5
26FF
330
2DD7
100
AcDbEntity
  8
0
 62
     0
100
AcDbLine
 10
145.6999999999934
 20
-92.13145333984718
 30
0.0
 11
165.3972303071223
 21
-79.00000000000182
 31
0.0
  0
LINE
  5
2700
330
2DD7
100
AcDbEntity
  8
0
 62
     0
100
AcDbLine
 10
-361.5000000000073
 20
-430.2639232414422
 30
0.0
 11
145.6999999999914
 21
-92.13145333984718
 31
0.0
  0
LINE
  5
2701
330
2DD7
100
AcDbEntity
  8
0
 62
     0
100
AcDbLine
 10
145.6999999999934
 20
-89.13148680443191
 30
0.0
 11
160.8972690132359
 21
-79.00000000000182
 31
0.0
  0
LINE
  5
2702
330
2DD7
100
AcDbEntity
  8
0
 62
     0
100
AcDbLine
 10
-361.5000000000091
 20
-427.2639567060267
 30
0.0
 11
145.6999999999934
 21
-89.13148680443191
 31
0.0
  0
LINE
  5
2703
330
2DD7
100
AcDbEntity
  8
0
 62
     0
100
AcDbLine
 10
145.6999999999934
 20
-86.13152026901476
 30
0.0
 11
156.3973077193495
 21
-79.00000000000182
 31
0.0
  0
LINE
  5
2704
330
2DD7
100
AcDbEntity
  8
0
 62
     0
100
AcDbLine
 10
-361.5000000000073
 20
-424.2639901706115
 30
0.0
 11
145.6999999999934
 21
-86.13152026901476
 31
0.0
  0
LINE
  5
2705
330
2DD7
100
AcDbEntity
  8
0
 62
     0
100
AcDbLine
 10
145.6999999999934
 20
-83.13155373359768
 30
0.0
 11
151.8973464254632
 21
-79.00000000000182
 31
0.0
  0
LINE
  5
2706
330
2DD7
100
AcDbEntity
  8
0
 62
     0
100
AcDbLine
 10
-361.5000000000073
 20
-421.2640236351925
 30
0.0
 11
145.6999999999934
 21
-83.13155373359768
 31
0.0
  0
LINE
  5
2707
330
2DD7
100
AcDbEntity
  8
0
 62
     0
100
AcDbLine
 10
145.6999999999934
 20
-80.13158719818241
 30
0.0
 11
147.3973851315768
 21
-79.00000000000365
 31
0.0
  0
LINE
  5
2708
330
2DD7
100
AcDbEntity
  8
0
 62
     0
100
AcDbLine
 10
-361.5000000000073
 20
-418.2640570997791
 30
0.0
 11
145.6999999999934
 21
-80.13158719818241
 31
0.0
  0
LINE
  5
2709
330
2DD7
100
AcDbEntity
  8
0
 62
     0
100
AcDbLine
 10
-361.5000000000073
 20
-415.26409056436
 30
0.0
 11
142.8974238376941
 21
-79.00000000000182
 31
0.0
  0
LINE
  5
270A
330
2DD7
100
AcDbEntity
  8
0
 62
     0
100
AcDbLine
 10
-361.5000000000073
 20
-412.2641240289447
 30
0.0
 11
138.3974625438058
 21
-79.00000000000365
 31
0.0
  0
LINE
  5
270B
330
2DD7
100
AcDbEntity
  8
0
 62
     0
100
AcDbLine
 10
-361.5000000000073
 20
-409.2641574935296
 30
0.0
 11
133.8975012499231
 21
-79.0
 31
0.0
  0
LINE
  5
270C
330
2DD7
100
AcDbEntity
  8
0
 62
     0
100
AcDbLine
 10
-361.5000000000073
 20
-406.2641909581143
 30
0.0
 11
129.3975399560368
 21
-79.00000000000182
 31
0.0
  0
LINE
  5
270D
330
2DD7
100
AcDbEntity
  8
0
 62
     0
100
AcDbLine
 10
-361.5000000000073
 20
-403.2642244226972
 30
0.0
 11
124.8975786621522
 21
-79.00000000000182
 31
0.0
  0
LINE
  5
270E
330
2DD7
100
AcDbEntity
  8
0
 62
     0
100
AcDbLine
 10
-361.5000000000073
 20
-400.2642578872817
 30
0.0
 11
120.397617368264
 21
-79.00000000000365
 31
0.0
  0
LINE
  5
270F
330
2DD7
100
AcDbEntity
  8
0
 62
     0
100
AcDbLine
 10
-361.5000000000073
 20
-397.2642913518648
 30
0.0
 11
115.8976560743813
 21
-79.0
 31
0.0
  0
LINE
  5
2710
330
2DD7
100
AcDbEntity
  8
0
 62
     0
100
AcDbLine
 10
-361.5000000000073
 20
-394.2643248164458
 30
0.0
 11
111.3976947804949
 21
-79.0
 31
0.0
  0
LINE
  5
2711
330
2DD7
100
AcDbEntity
  8
0
 62
     0
100
AcDbLine
 10
-361.5000000000073
 20
-391.2643582810324
 30
0.0
 11
106.8977334866085
 21
-79.00000000000182
 31
0.0
  0
LINE
  5
2712
330
2DD7
100
AcDbEntity
  8
0
 62
     0
100
AcDbLine
 10
-361.5000000000073
 20
-388.2643917456172
 30
0.0
 11
102.3977721927222
 21
-79.00000000000365
 31
0.0
  0
LINE
  5
2713
330
2DD7
100
AcDbEntity
  8
0
 62
     0
100
AcDbLine
 10
-361.5000000000073
 20
-385.2644252102
 30
0.0
 11
97.89781089883577
 21
-79.00000000000365
 31
0.0
  0
LINE
  5
2714
330
2DD7
100
AcDbEntity
  8
0
 62
     0
100
AcDbLine
 10
-361.5000000000091
 20
-382.2644586747829
 30
0.0
 11
93.39784960495126
 21
-79.0
 31
0.0
  0
LINE
  5
2715
330
2DD7
100
AcDbEntity
  8
0
 62
     0
100
AcDbLine
 10
-361.5000000000073
 20
-379.2644921393676
 30
0.0
 11
88.89788831106669
 21
-79.00000000000182
 31
0.0
  0
LINE
  5
2716
330
2DD7
100
AcDbEntity
  8
0
 62
     0
100
AcDbLine
 10
-361.5000000000091
 20
-376.2645256039505
 30
0.0
 11
84.39792701717852
 21
-79.00000000000182
 31
0.0
  0
LINE
  5
2717
330
2DD7
100
AcDbEntity
  8
0
 62
     0
100
AcDbLine
 10
-361.5000000000073
 20
-373.2645590685351
 30
0.0
 11
79.8979657232976
 21
-79.00000000000182
 31
0.0
  0
LINE
  5
2718
330
2DD7
100
AcDbEntity
  8
0
 62
     0
100
AcDbLine
 10
-361.5000000000091
 20
-370.264592533118
 30
0.0
 11
75.39800442940941
 21
-79.00000000000182
 31
0.0
  0
LINE
  5
2719
330
2DD7
100
AcDbEntity
  8
0
 62
     0
100
AcDbLine
 10
-361.5000000000055
 20
-367.2646259977028
 30
0.0
 11
70.89804313552486
 21
-79.00000000000365
 31
0.0
  0
LINE
  5
271A
330
2DD7
100
AcDbEntity
  8
0
 62
     0
100
AcDbLine
 10
-361.5000000000073
 20
-364.2646594622856
 30
0.0
 11
66.39808184164031
 21
-79.0
 31
0.0
  0
LINE
  5
271B
330
2DD7
100
AcDbEntity
  8
0
 62
     0
100
AcDbLine
 10
-361.5000000000073
 20
-361.2646929268704
 30
0.0
 11
61.89812054775392
 21
-79.00000000000182
 31
0.0
  0
LINE
  5
271C
330
2DD7
100
AcDbEntity
  8
0
 62
     0
100
AcDbLine
 10
-361.5000000000073
 20
-358.2647263914532
 30
0.0
 11
57.39815925386756
 21
-79.00000000000182
 31
0.0
  0
LINE
  5
271D
330
2DD7
100
AcDbEntity
  8
0
 62
     0
100
AcDbLine
 10
-361.5000000000073
 20
-355.2647598560361
 30
0.0
 11
52.89819795998118
 21
-79.00000000000182
 31
0.0
  0
LINE
  5
271E
330
2DD7
100
AcDbEntity
  8
0
 62
     0
100
AcDbLine
 10
-361.5000000000073
 20
-352.2647933206208
 30
0.0
 11
48.39823666609482
 21
-79.00000000000365
 31
0.0
  0
LINE
  5
271F
330
2DD7
100
AcDbEntity
  8
0
 62
     0
100
AcDbLine
 10
-361.5000000000073
 20
-349.2648267852055
 30
0.0
 11
43.89827537221207
 21
-79.00000000000182
 31
0.0
  0
LINE
  5
2720
330
2DD7
100
AcDbEntity
  8
0
 62
     0
100
AcDbLine
 10
-361.5000000000073
 20
-346.2648602497903
 30
0.0
 11
39.39831407832571
 21
-79.00000000000182
 31
0.0
  0
LINE
  5
2721
330
2DD7
100
AcDbEntity
  8
0
 62
     0
100
AcDbLine
 10
-361.5000000000073
 20
-343.2648937143732
 30
0.0
 11
34.89835278443933
 21
-79.00000000000182
 31
0.0
  0
LINE
  5
2722
330
2DD7
100
AcDbEntity
  8
0
 62
     0
100
AcDbLine
 10
-361.5000000000073
 20
-340.264927178956
 30
0.0
 11
30.39839149055115
 21
-79.00000000000365
 31
0.0
  0
LINE
  5
2723
330
2DD7
100
AcDbEntity
  8
0
 62
     0
100
AcDbLine
 10
-361.5000000000073
 20
-337.2649606435389
 30
0.0
 11
25.89843019667024
 21
-79.00000000000182
 31
0.0
  0
LINE
  5
2724
330
2DD7
100
AcDbEntity
  8
0
 62
     0
100
AcDbLine
 10
-361.5000000000073
 20
-334.2649941081236
 30
0.0
 11
21.39846890278204
 21
-79.00000000000182
 31
0.0
  0
LINE
  5
2725
330
2DD7
100
AcDbEntity
  8
0
 62
     0
100
AcDbLine
 10
-361.5000000000073
 20
-331.2650275727082
 30
0.0
 11
16.89850760890112
 21
-79.0
 31
0.0
  0
LINE
  5
2726
330
2DD7
100
AcDbEntity
  8
0
 62
     0
100
AcDbLine
 10
-361.5000000000073
 20
-328.2650610372929
 30
0.0
 11
12.39854631501293
 21
-79.00000000000182
 31
0.0
  0
LINE
  5
2727
330
2DD7
100
AcDbEntity
  8
0
 62
     0
100
AcDbLine
 10
-361.5000000000091
 20
-325.265094501876
 30
0.0
 11
7.898585021126563
 21
-79.00000000000182
 31
0.0
  0
LINE
  5
2728
330
2DD7
100
AcDbEntity
  8
0
 62
     0
100
AcDbLine
 10
-361.5000000000073
 20
-322.2651279664606
 30
0.0
 11
3.39862372724019
 21
-79.00000000000365
 31
0.0
  0
LINE
  5
2729
330
2DD7
100
AcDbEntity
  8
0
 62
     0
100
AcDbLine
 10
-361.5000000000091
 20
-319.2651614310435
 30
0.0
 11
-1.101337566646179
 21
-79.00000000000182
 31
0.0
  0
LINE
  5
272A
330
2DD7
100
AcDbEntity
  8
0
 62
     0
100
AcDbLine
 10
-361.5000000000073
 20
-316.2651948956263
 30
0.0
 11
-5.601298860528912
 21
-79.0
 31
0.0
  0
LINE
  5
272B
330
2DD7
100
AcDbEntity
  8
0
 62
     0
100
AcDbLine
 10
-361.5000000000073
 20
-313.2652283602109
 30
0.0
 11
-10.10126015441528
 21
-79.00000000000182
 31
0.0
  0
LINE
  5
272C
330
2DD7
100
AcDbEntity
  8
0
 62
     0
100
AcDbLine
 10
-361.5000000000073
 20
-310.2652618247958
 30
0.0
 11
-14.60122144830348
 21
-79.00000000000365
 31
0.0
  0
LINE
  5
272D
330
2DD7
100
AcDbEntity
  8
0
 62
     0
100
AcDbLine
 10
-361.5000000000073
 20
-307.2652952893786
 30
0.0
 11
-19.10118274218803
 21
-79.00000000000365
 31
0.0
  0
LINE
  5
272E
330
2DD7
100
AcDbEntity
  8
0
 62
     0
100
AcDbLine
 10
-361.5000000000073
 20
-304.2653287539615
 30
0.0
 11
-23.60114403607257
 21
-79.0
 31
0.0
  0
LINE
  5
272F
330
2DD7
100
AcDbEntity
  8
0
 62
     0
100
AcDbLine
 10
-361.5000000000073
 20
-301.2653622185463
 30
0.0
 11
-28.10110532995714
 21
-79.00000000000182
 31
0.0
  0
LINE
  5
2730
330
2DD7
100
AcDbEntity
  8
0
 62
     0
100
AcDbLine
 10
-361.5000000000073
 20
-298.2653956831291
 30
0.0
 11
-32.60106662384533
 21
-79.00000000000182
 31
0.0
  0
LINE
  5
2731
330
2DD7
100
AcDbEntity
  8
0
 62
     0
100
AcDbLine
 10
-361.5000000000073
 20
-295.2654291477138
 30
0.0
 11
-37.10102791772624
 21
-79.00000000000182
 31
0.0
  0
LINE
  5
2732
330
2DD7
100
AcDbEntity
  8
0
 62
     0
100
AcDbLine
 10
-361.5000000000073
 20
-292.2654626122967
 30
0.0
 11
-41.6009892116144
 21
-79.00000000000182
 31
0.0
  0
LINE
  5
2733
330
2DD7
100
AcDbEntity
  8
0
 62
     0
100
AcDbLine
 10
-361.5000000000091
 20
-289.2654960768814
 30
0.0
 11
-46.10095050550079
 21
-79.00000000000182
 31
0.0
  0
LINE
  5
2734
330
2DD7
100
AcDbEntity
  8
0
 62
     0
100
AcDbLine
 10
-361.5000000000073
 20
-286.2655295414642
 30
0.0
 11
-50.60091179938718
 21
-79.00000000000182
 31
0.0
  0
LINE
  5
2735
330
2DD7
100
AcDbEntity
  8
0
 62
     0
100
AcDbLine
 10
-361.5000000000073
 20
-283.2655630060489
 30
0.0
 11
-55.10087309326991
 21
-79.00000000000182
 31
0.0
  0
LINE
  5
2736
330
2DD7
100
AcDbEntity
  8
0
 62
     0
100
AcDbLine
 10
-361.5000000000073
 20
-280.2655964706318
 30
0.0
 11
-59.60083438715628
 21
-79.00000000000182
 31
0.0
  0
LINE
  5
2737
330
2DD7
100
AcDbEntity
  8
0
 62
     0
100
AcDbLine
 10
-361.5000000000073
 20
-277.2656299352147
 30
0.0
 11
-64.10079568104265
 21
-79.00000000000182
 31
0.0
  0
LINE
  5
2738
330
2DD7
100
AcDbEntity
  8
0
 62
     0
100
AcDbLine
 10
-361.5000000000073
 20
-274.2656633997996
 30
0.0
 11
-68.60075697492722
 21
-79.00000000000182
 31
0.0
  0
LINE
  5
2739
330
2DD7
100
AcDbEntity
  8
0
 62
     0
100
AcDbLine
 10
-361.5000000000073
 20
-271.2656968643841
 30
0.0
 11
-73.10071826881177
 21
-79.00000000000182
 31
0.0
  0
LINE
  5
273A
330
2DD7
100
AcDbEntity
  8
0
 62
     0
100
AcDbLine
 10
-361.5000000000091
 20
-268.2657303289689
 30
0.0
 11
-77.60067956269995
 21
-79.00000000000182
 31
0.0
  0
LINE
  5
273B
330
2DD7
100
AcDbEntity
  8
0
 62
     0
100
AcDbLine
 10
-361.5000000000055
 20
-265.2657637935499
 30
0.0
 11
-82.1006408565845
 21
-79.00000000000182
 31
0.0
  0
LINE
  5
273C
330
2DD7
100
AcDbEntity
  8
0
 62
     0
100
AcDbLine
 10
-361.5000000000091
 20
-262.2657972581365
 30
0.0
 11
-86.60060215047087
 21
-79.00000000000365
 31
0.0
  0
LINE
  5
273D
330
2DD7
100
AcDbEntity
  8
0
 62
     0
100
AcDbLine
 10
-361.5000000000073
 20
-259.2658307227175
 30
0.0
 11
-91.10056344435543
 21
-79.0
 31
0.0
  0
LINE
  5
273E
330
2DD7
100
AcDbEntity
  8
0
 62
     0
100
AcDbLine
 10
-361.5000000000073
 20
-256.2658641873022
 30
0.0
 11
-95.6005247382418
 21
-79.00000000000182
 31
0.0
  0
LINE
  5
273F
330
2DD7
100
AcDbEntity
  8
0
 62
     0
100
AcDbLine
 10
-361.5000000000073
 20
-253.2658976518851
 30
0.0
 11
-100.1004860321281
 21
-79.00000000000182
 31
0.0
  0
LINE
  5
2740
330
2DD7
100
AcDbEntity
  8
0
 62
     0
100
AcDbLine
 10
-361.5000000000073
 20
-250.2659311164716
 30
0.0
 11
-104.6004473260109
 21
-79.00000000000182
 31
0.0
  0
LINE
  5
2741
330
2DD7
100
AcDbEntity
  8
0
 62
     0
100
AcDbLine
 10
-361.5000000000073
 20
-247.2659645810545
 30
0.0
 11
-109.1004086198973
 21
-79.00000000000182
 31
0.0
  0
LINE
  5
2742
330
2DD7
100
AcDbEntity
  8
0
 62
     0
100
AcDbLine
 10
-361.5000000000073
 20
-244.2659980456392
 30
0.0
 11
-113.6003699137836
 21
-79.00000000000182
 31
0.0
  0
LINE
  5
2743
330
2DD7
100
AcDbEntity
  8
0
 62
     0
100
AcDbLine
 10
-361.5000000000073
 20
-241.2660315102221
 30
0.0
 11
-118.10033120767
 21
-79.00000000000182
 31
0.0
  0
LINE
  5
2744
330
2DD7
100
AcDbEntity
  8
0
 62
     0
100
AcDbLine
 10
-361.5000000000073
 20
-238.2660649748032
 30
0.0
 11
-122.6002925015545
 21
-79.0
 31
0.0
  0
LINE
  5
2745
330
2DD7
100
AcDbEntity
  8
0
 62
     0
100
AcDbLine
 10
-361.5000000000073
 20
-235.2660984393897
 30
0.0
 11
-127.1002537954391
 21
-79.00000000000182
 31
0.0
  0
LINE
  5
2746
330
2DD7
100
AcDbEntity
  8
0
 62
     0
100
AcDbLine
 10
-361.5000000000073
 20
-232.2661319039744
 30
0.0
 11
-131.6002150893255
 21
-79.00000000000365
 31
0.0
  0
LINE
  5
2747
330
2DD7
100
AcDbEntity
  8
0
 62
     0
100
AcDbLine
 10
-361.5000000000055
 20
-229.2661653685573
 30
0.0
 11
-136.1001763832119
 21
-79.00000000000182
 31
0.0
  0
LINE
  5
2748
330
2DD7
100
AcDbEntity
  8
0
 62
     0
100
AcDbLine
 10
-361.5000000000073
 20
-226.2661988331402
 30
0.0
 11
-140.6001376770982
 21
-79.00000000000182
 31
0.0
  0
LINE
  5
2749
330
2DD7
100
AcDbEntity
  8
0
 62
     0
100
AcDbLine
 10
-361.5000000000073
 20
-223.2662322977248
 30
0.0
 11
-145.1000989709808
 21
-79.00000000000182
 31
0.0
  0
LINE
  5
274A
330
2DD7
100
AcDbEntity
  8
0
 62
     0
100
AcDbLine
 10
-361.5000000000073
 20
-220.2662657623077
 30
0.0
 11
-149.6000602648673
 21
-79.00000000000182
 31
0.0
  0
LINE
  5
274B
330
2DD7
100
AcDbEntity
  8
0
 62
     0
100
AcDbLine
 10
-361.5000000000091
 20
-217.2662992268925
 30
0.0
 11
-154.1000215587555
 21
-79.00000000000365
 31
0.0
  0
LINE
  5
274C
330
2DD7
100
AcDbEntity
  8
0
 62
     0
100
AcDbLine
 10
-361.5000000000073
 20
-214.2663326914753
 30
0.0
 11
-158.5999828526382
 21
-79.0
 31
0.0
  0
LINE
  5
274D
330
2DD7
100
AcDbEntity
  8
0
 62
     0
100
AcDbLine
 10
-361.5000000000073
 20
-211.26636615606
 30
0.0
 11
-163.0999441465246
 21
-79.00000000000182
 31
0.0
  0
LINE
  5
274E
330
2DD7
100
AcDbEntity
  8
0
 62
     0
100
AcDbLine
 10
-361.5000000000073
 20
-208.2663996206429
 30
0.0
 11
-167.5999054404091
 21
-79.00000000000182
 31
0.0
  0
LINE
  5
274F
330
2DD7
100
AcDbEntity
  8
0
 62
     0
100
AcDbLine
 10
-361.5000000000073
 20
-205.2664330852276
 30
0.0
 11
-172.0998667342974
 21
-79.00000000000365
 31
0.0
  0
LINE
  5
2750
330
2DD7
100
AcDbEntity
  8
0
 62
     0
100
AcDbLine
 10
-361.5000000000073
 20
-202.2664665498105
 30
0.0
 11
-176.5998280281818
 21
-79.00000000000182
 31
0.0
  0
LINE
  5
2751
330
2DD7
100
AcDbEntity
  8
0
 62
     0
100
AcDbLine
 10
-361.5000000000073
 20
-199.2665000143934
 30
0.0
 11
-181.0997893220665
 21
-79.0
 31
0.0
  0
LINE
  5
2752
330
2DD7
100
AcDbEntity
  8
0
 62
     0
100
AcDbLine
 10
-361.5000000000073
 20
-196.2665334789781
 30
0.0
 11
-185.5997506159529
 21
-79.00000000000182
 31
0.0
  0
LINE
  5
2753
330
2DD7
100
AcDbEntity
  8
0
 62
     0
100
AcDbLine
 10
-361.5000000000073
 20
-193.2665669435628
 30
0.0
 11
-190.0997119098392
 21
-79.00000000000365
 31
0.0
  0
LINE
  5
2754
330
2DD7
100
AcDbEntity
  8
0
 62
     0
100
AcDbLine
 10
-361.5000000000073
 20
-190.2666004081457
 30
0.0
 11
-194.599673203722
 21
-79.00000000000182
 31
0.0
  0
LINE
  5
2755
330
2DD7
100
AcDbEntity
  8
0
 62
     0
100
AcDbLine
 10
-361.5000000000091
 20
-187.2666338727304
 30
0.0
 11
-199.0996344976101
 21
-79.00000000000182
 31
0.0
  0
LINE
  5
2756
330
2DD7
100
AcDbEntity
  8
0
 62
     0
100
AcDbLine
 10
-361.5000000000055
 20
-184.2666673373132
 30
0.0
 11
-203.5995957914947
 21
-79.00000000000182
 31
0.0
  0
LINE
  5
2757
330
2DD7
100
AcDbEntity
  8
0
 62
     0
100
AcDbLine
 10
-361.5000000000091
 20
-181.266700801898
 30
0.0
 11
-208.0995570853829
 21
-79.00000000000182
 31
0.0
  0
LINE
  5
2758
330
2DD7
100
AcDbEntity
  8
0
 62
     0
100
AcDbLine
 10
-361.5000000000055
 20
-178.2667342664808
 30
0.0
 11
-212.5995183792638
 21
-79.00000000000182
 31
0.0
  0
LINE
  5
2759
330
2DD7
100
AcDbEntity
  8
0
 62
     0
100
AcDbLine
 10
-361.5000000000073
 20
-175.2667677310637
 30
0.0
 11
-217.099479673152
 21
-79.00000000000182
 31
0.0
  0
LINE
  5
275A
330
2DD7
100
AcDbEntity
  8
0
 62
     0
100
AcDbLine
 10
-361.5000000000055
 20
-172.2668011956502
 30
0.0
 11
-221.5994409670366
 21
-79.00000000000365
 31
0.0
  0
LINE
  5
275B
330
2DD7
100
AcDbEntity
  8
0
 62
     0
100
AcDbLine
 10
-361.5000000000073
 20
-169.2668346602331
 30
0.0
 11
-226.0994022609211
 21
-79.0
 31
0.0
  0
LINE
  5
275C
330
2DD7
100
AcDbEntity
  8
0
 62
     0
100
AcDbLine
 10
-361.5000000000091
 20
-166.2668681248178
 30
0.0
 11
-230.5993635548075
 21
-79.00000000000182
 31
0.0
  0
LINE
  5
275D
330
2DD7
100
AcDbEntity
  8
0
 62
     0
100
AcDbLine
 10
-361.5000000000073
 20
-163.2669015894007
 30
0.0
 11
-235.0993248486939
 21
-79.00000000000182
 31
0.0
  0
LINE
  5
275E
330
2DD7
100
AcDbEntity
  8
0
 62
     0
100
AcDbLine
 10
-361.5000000000091
 20
-160.2669350539836
 30
0.0
 11
-239.5992861425802
 21
-79.00000000000182
 31
0.0
  0
LINE
  5
275F
330
2DD7
100
AcDbEntity
  8
0
 62
     0
100
AcDbLine
 10
-361.5000000000055
 20
-157.2669685185665
 30
0.0
 11
-244.099247436463
 21
-79.00000000000182
 31
0.0
  0
LINE
  5
2760
330
2DD7
100
AcDbEntity
  8
0
 62
     0
100
AcDbLine
 10
-361.5000000000091
 20
-154.267001983153
 30
0.0
 11
-248.5992087303493
 21
-79.00000000000182
 31
0.0
  0
LINE
  5
2761
330
2DD7
100
AcDbEntity
  8
0
 62
     0
100
AcDbLine
 10
-361.5000000000055
 20
-151.2670354477359
 30
0.0
 11
-253.0991700242357
 21
-79.00000000000182
 31
0.0
  0
LINE
  5
2762
330
2DD7
100
AcDbEntity
  8
0
 62
     0
100
AcDbLine
 10
-361.5000000000073
 20
-148.2670689123188
 30
0.0
 11
-257.5991313181221
 21
-79.00000000000182
 31
0.0
  0
LINE
  5
2763
330
2DD7
100
AcDbEntity
  8
0
 62
     0
100
AcDbLine
 10
-361.5000000000073
 20
-145.2671023769035
 30
0.0
 11
-262.0990926120066
 21
-79.00000000000182
 31
0.0
  0
LINE
  5
2764
330
2DD7
100
AcDbEntity
  8
0
 62
     0
100
AcDbLine
 10
-361.5000000000073
 20
-142.2671358414864
 30
0.0
 11
-266.5990539058912
 21
-79.00000000000182
 31
0.0
  0
LINE
  5
2765
330
2DD7
100
AcDbEntity
  8
0
 62
     0
100
AcDbLine
 10
-361.5000000000073
 20
-139.2671693060711
 30
0.0
 11
-271.0990151997793
 21
-79.00000000000365
 31
0.0
  0
LINE
  5
2766
330
2DD7
100
AcDbEntity
  8
0
 62
     0
100
AcDbLine
 10
-361.5000000000091
 20
-136.2672027706539
 30
0.0
 11
-275.5989764936621
 21
-79.0
 31
0.0
  0
LINE
  5
2767
330
2DD7
100
AcDbEntity
  8
0
 62
     0
100
AcDbLine
 10
-361.5000000000073
 20
-133.2672362352386
 30
0.0
 11
-280.0989377875485
 21
-79.00000000000182
 31
0.0
  0
LINE
  5
2768
330
2DD7
100
AcDbEntity
  8
0
 62
     0
100
AcDbLine
 10
-361.5000000000073
 20
-130.2672696998215
 30
0.0
 11
-284.5988990814348
 21
-79.00000000000182
 31
0.0
  0
LINE
  5
2769
330
2DD7
100
AcDbEntity
  8
0
 62
     0
100
AcDbLine
 10
-361.5000000000073
 20
-127.2673031644062
 30
0.0
 11
-289.0988603753212
 21
-79.00000000000365
 31
0.0
  0
LINE
  5
276A
330
2DD7
100
AcDbEntity
  8
0
 62
     0
100
AcDbLine
 10
-361.5000000000073
 20
-124.2673366289891
 30
0.0
 11
-293.5988216692041
 21
-79.0
 31
0.0
  0
LINE
  5
276B
330
2DD7
100
AcDbEntity
  8
0
 62
     0
100
AcDbLine
 10
-361.5000000000055
 20
-121.267370093572
 30
0.0
 11
-298.0987829630903
 21
-79.0
 31
0.0
  0
LINE
  5
276C
330
2DD7
100
AcDbEntity
  8
0
 62
     0
100
AcDbLine
 10
-361.5000000000073
 20
-118.2674035581567
 30
0.0
 11
-302.5987442569767
 21
-79.00000000000182
 31
0.0
  0
LINE
  5
276D
330
2DD7
100
AcDbEntity
  8
0
 62
     0
100
AcDbLine
 10
-361.5000000000073
 20
-115.2674370227414
 30
0.0
 11
-307.0987055508648
 21
-79.00000000000365
 31
0.0
  0
LINE
  5
276E
330
2DD7
100
AcDbEntity
  8
0
 62
     0
100
AcDbLine
 10
-361.5000000000073
 20
-112.2674704873243
 30
0.0
 11
-311.5986668447495
 21
-79.00000000000365
 31
0.0
  0
LINE
  5
276F
330
2DD7
100
AcDbEntity
  8
0
 62
     0
100
AcDbLine
 10
-361.5000000000073
 20
-109.267503951909
 30
0.0
 11
-316.098628138634
 21
-79.00000000000182
 31
0.0
  0
LINE
  5
2770
330
2DD7
100
AcDbEntity
  8
0
 62
     0
100
AcDbLine
 10
-361.5000000000073
 20
-106.2675374164937
 30
0.0
 11
-320.5985894325185
 21
-79.00000000000182
 31
0.0
  0
LINE
  5
2771
330
2DD7
100
AcDbEntity
  8
0
 62
     0
100
AcDbLine
 10
-361.5000000000073
 20
-103.2675708810766
 30
0.0
 11
-325.0985507264068
 21
-79.00000000000365
 31
0.0
  0
LINE
  5
2772
330
2DD7
100
AcDbEntity
  8
0
 62
     0
100
AcDbLine
 10
-361.5000000000073
 20
-100.2676043456613
 30
0.0
 11
-329.5985120202877
 21
-79.00000000000182
 31
0.0
  0
LINE
  5
2773
330
2DD7
100
AcDbEntity
  8
0
 62
     0
100
AcDbLine
 10
-361.5000000000073
 20
-97.2676378102424
 30
0.0
 11
-334.098473314176
 21
-79.00000000000182
 31
0.0
  0
LINE
  5
2774
330
2DD7
100
AcDbEntity
  8
0
 62
     0
100
AcDbLine
 10
-361.5000000000073
 20
-94.26767127482708
 30
0.0
 11
-338.5984346080622
 21
-79.00000000000365
 31
0.0
  0
LINE
  5
2775
330
2DD7
100
AcDbEntity
  8
0
 62
     0
100
AcDbLine
 10
-361.5000000000073
 20
-91.26770473941176
 30
0.0
 11
-343.0983959019451
 21
-79.0
 31
0.0
  0
LINE
  5
2776
330
2DD7
100
AcDbEntity
  8
0
 62
     0
100
AcDbLine
 10
-361.5000000000073
 20
-88.26773820399649
 30
0.0
 11
-347.5983571958312
 21
-79.00000000000182
 31
0.0
  0
LINE
  5
2777
330
2DD7
100
AcDbEntity
  8
0
 62
     0
100
AcDbLine
 10
-361.5000000000073
 20
-85.26777166857938
 30
0.0
 11
-352.0983184897177
 21
-79.00000000000182
 31
0.0
  0
LINE
  5
2778
330
2DD7
100
AcDbEntity
  8
0
 62
     0
100
AcDbLine
 10
-361.5000000000073
 20
-82.26780513316226
 30
0.0
 11
-356.598279783604
 21
-79.00000000000182
 31
0.0
  0
LINE
  5
2779
330
2DD7
100
AcDbEntity
  8
0
 62
     0
100
AcDbLine
 10
-361.5000000000091
 20
-79.26783859774696
 30
0.0
 11
-361.0982410774905
 21
-79.00000000000365
 31
0.0
  0
ENDBLK
  5
277A
330
2DD7
100
AcDbEntity
  8
0
100
AcDbBlockEnd
  0
BLOCK
  5
2DDA
330
2DD9
100
AcDbEntity
  8
0
100
AcDbBlockBegin
  2
*X67
 70
     1
 10
0.0
 20
0.0
 30
0.0
  3
*X67
  1

  0
LINE
  5
277D
330
2DD9
100
AcDbEntity
  8
0
 62
     0
100
AcDbLine
 10
-361.5000000000037
 20
-677.416304971918
 30
0.0
 11
-359.1244513918572
 21
-679.0000000000016
 31
0.0
  0
LINE
  5
277E
330
2DD9
100
AcDbEntity
  8
0
 62
     0
100
AcDbLine
 10
-361.5000000000037
 20
-674.4163384365036
 30
0.0
 11
-354.6244900979719
 21
-679.0000000000027
 31
0.0
  0
LINE
  5
277F
330
2DD9
100
AcDbEntity
  8
0
 62
     0
100
AcDbLine
 10
-361.5000000000037
 20
-671.4163719010864
 30
0.0
 11
-350.1245288040863
 21
-679.0000000000016
 31
0.0
  0
LINE
  5
2780
330
2DD9
100
AcDbEntity
  8
0
 62
     0
100
AcDbLine
 10
-361.5000000000037
 20
-668.4164053656712
 30
0.0
 11
-345.6245675102009
 21
-679.0000000000027
 31
0.0
  0
LINE
  5
2781
330
2DD9
100
AcDbEntity
  8
0
 62
     0
100
AcDbLine
 10
-361.5000000000037
 20
-665.4164388302541
 30
0.0
 11
-341.1246062163154
 21
-679.0000000000027
 31
0.0
  0
LINE
  5
2782
330
2DD9
100
AcDbEntity
  8
0
 62
     0
100
AcDbLine
 10
-361.5000000000037
 20
-662.4164722948388
 30
0.0
 11
-336.62464492243
 21
-679.0000000000027
 31
0.0
  0
LINE
  5
2783
330
2DD9
100
AcDbEntity
  8
0
 62
     0
100
AcDbLine
 10
-361.5000000000037
 20
-659.4165057594218
 30
0.0
 11
-332.1246836285436
 21
-679.0000000000027
 31
0.0
  0
LINE
  5
2784
330
2DD9
100
AcDbEntity
  8
0
 62
     0
100
AcDbLine
 10
-361.5000000000026
 20
-656.4165392240075
 30
0.0
 11
-327.6247223346591
 21
-679.0000000000027
 31
0.0
  0
LINE
  5
2785
330
2DD9
100
AcDbEntity
  8
0
 62
     0
100
AcDbLine
 10
-361.5000000000037
 20
-653.4165726885894
 30
0.0
 11
-323.1247610407737
 21
-679.0000000000016
 31
0.0
  0
LINE
  5
2786
330
2DD9
100
AcDbEntity
  8
0
 62
     0
100
AcDbLine
 10
-361.5000000000037
 20
-650.4166061531723
 30
0.0
 11
-318.6247997468881
 21
-679.0000000000016
 31
0.0
  0
LINE
  5
2787
330
2DD9
100
AcDbEntity
  8
0
 62
     0
100
AcDbLine
 10
-361.5000000000037
 20
-647.416639617757
 30
0.0
 11
-314.1248384530026
 21
-679.0000000000016
 31
0.0
  0
LINE
  5
2788
330
2DD9
100
AcDbEntity
  8
0
 62
     0
100
AcDbLine
 10
-361.5000000000026
 20
-644.4166730823408
 30
0.0
 11
-309.6248771591172
 21
-679.0000000000008
 31
0.0
  0
LINE
  5
2789
330
2DD9
100
AcDbEntity
  8
0
 62
     0
100
AcDbLine
 10
-361.5000000000026
 20
-641.4167065469255
 30
0.0
 11
-305.1249158652308
 21
-679.0000000000016
 31
0.0
  0
LINE
  5
278A
330
2DD9
100
AcDbEntity
  8
0
 62
     0
100
AcDbLine
 10
-361.5000000000026
 20
-638.4167400115081
 30
0.0
 11
-300.6249545713454
 21
-679.0000000000016
 31
0.0
  0
LINE
  5
278B
330
2DD9
100
AcDbEntity
  8
0
 62
     0
100
AcDbLine
 10
-361.5000000000026
 20
-635.4167734760931
 30
0.0
 11
-296.1249932774608
 21
-679.0000000000027
 31
0.0
  0
LINE
  5
278C
330
2DD9
100
AcDbEntity
  8
0
 62
     0
100
AcDbLine
 10
-361.5000000000026
 20
-632.4168069406757
 30
0.0
 11
-291.6250319835744
 21
-679.0000000000016
 31
0.0
  0
LINE
  5
278D
330
2DD9
100
AcDbEntity
  8
0
 62
     0
100
AcDbLine
 10
-361.5000000000026
 20
-629.4168404052616
 30
0.0
 11
-287.1250706896899
 21
-679.0000000000027
 31
0.0
  0
LINE
  5
278E
330
2DD9
100
AcDbEntity
  8
0
 62
     0
100
AcDbLine
 10
-361.5000000000037
 20
-626.4168738698436
 30
0.0
 11
-282.6251093958026
 21
-679.0000000000016
 31
0.0
  0
LINE
  5
278F
330
2DD9
100
AcDbEntity
  8
0
 62
     0
100
AcDbLine
 10
-361.5000000000017
 20
-623.4169073344292
 30
0.0
 11
-278.1251481019181
 21
-679.0000000000027
 31
0.0
  0
LINE
  5
2790
330
2DD9
100
AcDbEntity
  8
0
 62
     0
100
AcDbLine
 10
-361.5000000000037
 20
-620.4169407990113
 30
0.0
 11
-273.6251868080317
 21
-679.0000000000027
 31
0.0
  0
LINE
  5
2791
330
2DD9
100
AcDbEntity
  8
0
 62
     0
100
AcDbLine
 10
-361.5000000000037
 20
-617.4169742635958
 30
0.0
 11
-269.1252255141471
 21
-679.0000000000027
 31
0.0
  0
LINE
  5
2792
330
2DD9
100
AcDbEntity
  8
0
 62
     0
100
AcDbLine
 10
-361.5000000000037
 20
-614.4170077281786
 30
0.0
 11
-264.6252642202626
 21
-679.0000000000016
 31
0.0
  0
LINE
  5
2793
330
2DD9
100
AcDbEntity
  8
0
 62
     0
100
AcDbLine
 10
-361.5000000000037
 20
-611.4170411927625
 30
0.0
 11
-260.1253029263762
 21
-679.0000000000008
 31
0.0
  0
LINE
  5
2794
330
2DD9
100
AcDbEntity
  8
0
 62
     0
100
AcDbLine
 10
-361.5000000000026
 20
-608.4170746573472
 30
0.0
 11
-255.6253416324907
 21
-679.0000000000016
 31
0.0
  0
LINE
  5
2795
330
2DD9
100
AcDbEntity
  8
0
 62
     0
100
AcDbLine
 10
-361.5000000000026
 20
-605.4171081219301
 30
0.0
 11
-251.1253803386053
 21
-679.0
 31
0.0
  0
LINE
  5
2796
330
2DD9
100
AcDbEntity
  8
0
 62
     0
100
AcDbLine
 10
-361.5000000000026
 20
-602.4171415865148
 30
0.0
 11
-246.6254190447197
 21
-679.0000000000016
 31
0.0
  0
LINE
  5
2797
330
2DD9
100
AcDbEntity
  8
0
 62
     0
100
AcDbLine
 10
-361.5000000000037
 20
-599.4171750510965
 30
0.0
 11
-242.1254577508344
 21
-679.0000000000008
 31
0.0
  0
LINE
  5
2798
330
2DD9
100
AcDbEntity
  8
0
 62
     0
100
AcDbLine
 10
-361.5000000000026
 20
-596.4172085156833
 30
0.0
 11
-237.6254964569489
 21
-679.0000000000016
 31
0.0
  0
LINE
  5
2799
330
2DD9
100
AcDbEntity
  8
0
 62
     0
100
AcDbLine
 10
-361.5000000000037
 20
-593.4172419802653
 30
0.0
 11
-233.1255351630625
 21
-679.0000000000016
 31
0.0
  0
LINE
  5
279A
330
2DD9
100
AcDbEntity
  8
0
 62
     0
100
AcDbLine
 10
-361.5000000000026
 20
-590.41727544485
 30
0.0
 11
-228.6255738691771
 21
-679.0000000000027
 31
0.0
  0
LINE
  5
279B
330
2DD9
100
AcDbEntity
  8
0
 62
     0
100
AcDbLine
 10
-361.5000000000026
 20
-587.4173089094329
 30
0.0
 11
-224.1256125752907
 21
-679.0000000000016
 31
0.0
  0
LINE
  5
279C
330
2DD9
100
AcDbEntity
  8
0
 62
     0
100
AcDbLine
 10
-361.5000000000026
 20
-584.4173423740175
 30
0.0
 11
-219.6256512814061
 21
-679.0000000000027
 31
0.0
  0
LINE
  5
279D
330
2DD9
100
AcDbEntity
  8
0
 62
     0
100
AcDbLine
 10
-361.5000000000026
 20
-581.4173758386012
 30
0.0
 11
-215.1256899875197
 21
-679.0000000000016
 31
0.0
  0
LINE
  5
279E
330
2DD9
100
AcDbEntity
  8
0
 62
     0
100
AcDbLine
 10
-361.5000000000026
 20
-578.4174093031861
 30
0.0
 11
-210.6257286936352
 21
-679.0000000000027
 31
0.0
  0
LINE
  5
279F
330
2DD9
100
AcDbEntity
  8
0
 62
     0
100
AcDbLine
 10
-361.5000000000026
 20
-575.4174427677687
 30
0.0
 11
-206.1257673997488
 21
-679.0000000000027
 31
0.0
  0
LINE
  5
27A0
330
2DD9
100
AcDbEntity
  8
0
 62
     0
100
AcDbLine
 10
-361.5000000000037
 20
-572.4174762323508
 30
0.0
 11
-201.6258061058634
 21
-679.0000000000008
 31
0.0
  0
LINE
  5
27A1
330
2DD9
100
AcDbEntity
  8
0
 62
     0
100
AcDbLine
 10
-361.5000000000017
 20
-569.4175096969363
 30
0.0
 11
-197.1258448119788
 21
-679.0000000000016
 31
0.0
  0
LINE
  5
27A2
330
2DD9
100
AcDbEntity
  8
0
 62
     0
100
AcDbLine
 10
-361.5000000000037
 20
-566.4175431615184
 30
0.0
 11
-192.6258835180942
 21
-679.0
 31
0.0
  0
LINE
  5
27A3
330
2DD9
100
AcDbEntity
  8
0
 62
     0
100
AcDbLine
 10
-361.5000000000037
 20
-563.4175766261042
 30
0.0
 11
-188.1259222242079
 21
-679.0000000000016
 31
0.0
  0
LINE
  5
27A4
330
2DD9
100
AcDbEntity
  8
0
 62
     0
100
AcDbLine
 10
-361.5000000000037
 20
-560.417610090687
 30
0.0
 11
-183.6259609303233
 21
-679.0000000000008
 31
0.0
  0
LINE
  5
27A5
330
2DD9
100
AcDbEntity
  8
0
 62
     0
100
AcDbLine
 10
-361.5000000000037
 20
-557.4176435552717
 30
0.0
 11
-179.125999636437
 21
-679.0000000000016
 31
0.0
  0
LINE
  5
27A6
330
2DD9
100
AcDbEntity
  8
0
 62
     0
100
AcDbLine
 10
-361.5000000000026
 20
-554.4176770198546
 30
0.0
 11
-174.6260383425524
 21
-679.0
 31
0.0
  0
LINE
  5
27A7
330
2DD9
100
AcDbEntity
  8
0
 62
     0
100
AcDbLine
 10
-361.5000000000026
 20
-551.4177104844393
 30
0.0
 11
-170.1260770486669
 21
-679.0000000000008
 31
0.0
  0
LINE
  5
27A8
330
2DD9
100
AcDbEntity
  8
0
 62
     0
100
AcDbLine
 10
-361.5000000000026
 20
-548.4177439490231
 30
0.0
 11
-165.6261157547806
 21
-679.0000000000008
 31
0.0
  0
LINE
  5
27A9
330
2DD9
100
AcDbEntity
  8
0
 62
     0
100
AcDbLine
 10
-361.5000000000026
 20
-545.4177774136078
 30
0.0
 11
-161.1261544608941
 21
-679.0000000000027
 31
0.0
  0
LINE
  5
27AA
330
2DD9
100
AcDbEntity
  8
0
 62
     0
100
AcDbLine
 10
-361.5000000000026
 20
-542.4178108781907
 30
0.0
 11
-156.6261931670078
 21
-679.0000000000016
 31
0.0
  0
LINE
  5
27AB
330
2DD9
100
AcDbEntity
  8
0
 62
     0
100
AcDbLine
 10
-361.5000000000037
 20
-539.4178443427745
 30
0.0
 11
-152.1262318731251
 21
-679.0000000000016
 31
0.0
  0
LINE
  5
27AC
330
2DD9
100
AcDbEntity
  8
0
 62
     0
100
AcDbLine
 10
-361.5000000000017
 20
-536.4178778073583
 30
0.0
 11
-147.6262705792378
 21
-679.0000000000008
 31
0.0
  0
LINE
  5
27AD
330
2DD9
100
AcDbEntity
  8
0
 62
     0
100
AcDbLine
 10
-361.5000000000026
 20
-533.4179112719412
 30
0.0
 11
-143.1263092853514
 21
-679.0000000000008
 31
0.0
  0
LINE
  5
27AE
330
2DD9
100
AcDbEntity
  8
0
 62
     0
100
AcDbLine
 10
-361.5000000000026
 20
-530.4179447365259
 30
0.0
 11
-138.6263479914687
 21
-679.0000000000008
 31
0.0
  0
LINE
  5
27AF
330
2DD9
100
AcDbEntity
  8
0
 62
     0
100
AcDbLine
 10
-361.5000000000026
 20
-527.4179782011088
 30
0.0
 11
-134.1263866975823
 21
-679.0
 31
0.0
  0
LINE
  5
27B0
330
2DD9
100
AcDbEntity
  8
0
 62
     0
100
AcDbLine
 10
-361.5000000000026
 20
-524.4180116656933
 30
0.0
 11
-129.626425403696
 21
-679.0000000000016
 31
0.0
  0
LINE
  5
27B1
330
2DD9
100
AcDbEntity
  8
0
 62
     0
100
AcDbLine
 10
-361.5000000000026
 20
-521.4180451302762
 30
0.0
 11
-125.1264641098123
 21
-678.9999999999992
 31
0.0
  0
LINE
  5
27B2
330
2DD9
100
AcDbEntity
  8
0
 62
     0
100
AcDbLine
 10
-361.5000000000017
 20
-518.4180785948617
 30
0.0
 11
-120.6265028159259
 21
-679.0000000000008
 31
0.0
  0
LINE
  5
27B3
330
2DD9
100
AcDbEntity
  8
0
 62
     0
100
AcDbLine
 10
-361.5000000000017
 20
-515.4181120594448
 30
0.0
 11
-116.1265415220396
 21
-679.0000000000008
 31
0.0
  0
LINE
  5
27B4
330
2DD9
100
AcDbEntity
  8
0
 62
     0
100
AcDbLine
 10
-361.5000000000037
 20
-512.4181455240285
 30
0.0
 11
-111.6265802281532
 21
-679.0000000000016
 31
0.0
  0
LINE
  5
27B5
330
2DD9
100
AcDbEntity
  8
0
 62
     0
100
AcDbLine
 10
-361.5000000000017
 20
-509.4181789886122
 30
0.0
 11
-107.1266189342668
 21
-679.0000000000016
 31
0.0
  0
LINE
  5
27B6
330
2DD9
100
AcDbEntity
  8
0
 62
     0
100
AcDbLine
 10
-361.5000000000037
 20
-506.4182124531962
 30
0.0
 11
-102.6266576403841
 21
-679.0000000000008
 31
0.0
  0
LINE
  5
27B7
330
2DD9
100
AcDbEntity
  8
0
 62
     0
100
AcDbLine
 10
-361.5000000000026
 20
-503.4182459177791
 30
0.0
 11
-98.12669634649685
 21
-679.0000000000008
 31
0.0
  0
LINE
  5
27B8
330
2DD9
100
AcDbEntity
  8
0
 62
     0
100
AcDbLine
 10
-361.5000000000026
 20
-500.4182793823647
 30
0.0
 11
-93.62673505261044
 21
-679.0000000000027
 31
0.0
  0
LINE
  5
27B9
330
2DD9
100
AcDbEntity
  8
0
 62
     0
100
AcDbLine
 10
-361.5000000000026
 20
-497.4183128469475
 30
0.0
 11
-89.12677375872409
 21
-679.0000000000016
 31
0.0
  0
LINE
  5
27BA
330
2DD9
100
AcDbEntity
  8
0
 62
     0
100
AcDbLine
 10
-361.5000000000026
 20
-494.4183463115304
 30
0.0
 11
-84.62681246484136
 21
-679.0
 31
0.0
  0
LINE
  5
27BB
330
2DD9
100
AcDbEntity
  8
0
 62
     0
100
AcDbLine
 10
-361.5000000000026
 20
-491.4183797761152
 30
0.0
 11
-80.12685117095498
 21
-679.0000000000008
 31
0.0
  0
LINE
  5
27BC
330
2DD9
100
AcDbEntity
  8
0
 62
     0
100
AcDbLine
 10
-361.5000000000026
 20
-488.4184132406978
 30
0.0
 11
-75.62688987707224
 21
-678.9999999999992
 31
0.0
  0
LINE
  5
27BD
330
2DD9
100
AcDbEntity
  8
0
 62
     0
100
AcDbLine
 10
-361.5000000000026
 20
-485.4184467052828
 30
0.0
 11
-71.12692858318496
 21
-679.0000000000008
 31
0.0
  0
LINE
  5
27BE
330
2DD9
100
AcDbEntity
  8
0
 62
     0
100
AcDbLine
 10
-361.5000000000017
 20
-482.4184801698666
 30
0.0
 11
-66.62696728929859
 21
-679.0
 31
0.0
  0
LINE
  5
27BF
330
2DD9
100
AcDbEntity
  8
0
 62
     0
100
AcDbLine
 10
-361.5000000000026
 20
-479.4185136344504
 30
0.0
 11
-62.12700599541221
 21
-679.0000000000016
 31
0.0
  0
LINE
  5
27C0
330
2DD9
100
AcDbEntity
  8
0
 62
     0
100
AcDbLine
 10
-361.5000000000026
 20
-476.4185470990333
 30
0.0
 11
-57.62704470152584
 21
-679.0000000000016
 31
0.0
  0
LINE
  5
27C1
330
2DD9
100
AcDbEntity
  8
0
 62
     0
100
AcDbLine
 10
-361.5000000000026
 20
-473.418580563618
 30
0.0
 11
-53.12708340764309
 21
-679.0000000000008
 31
0.0
  0
LINE
  5
27C2
330
2DD9
100
AcDbEntity
  8
0
 62
     0
100
AcDbLine
 10
-361.5000000000026
 20
-470.4186140282017
 30
0.0
 11
-48.62712211375674
 21
-679.0000000000008
 31
0.0
  0
LINE
  5
27C3
330
2DD9
100
AcDbEntity
  8
0
 62
     0
100
AcDbLine
 10
-361.5000000000017
 20
-467.4186474927862
 30
0.0
 11
-44.12716081986945
 21
-679.0000000000016
 31
0.0
  0
LINE
  5
27C4
330
2DD9
100
AcDbEntity
  8
0
 62
     0
100
AcDbLine
 10
-361.5000000000017
 20
-464.4186809573691
 30
0.0
 11
-39.62719952598309
 21
-679.0000000000016
 31
0.0
  0
LINE
  5
27C5
330
2DD9
100
AcDbEntity
  8
0
 62
     0
100
AcDbLine
 10
-361.5000000000017
 20
-461.4187144219537
 30
0.0
 11
-35.12723823210035
 21
-679.0000000000008
 31
0.0
  0
LINE
  5
27C6
330
2DD9
100
AcDbEntity
  8
0
 62
     0
100
AcDbLine
 10
-361.5000000000017
 20
-458.4187478865366
 30
0.0
 11
-30.62727693821398
 21
-679.0000000000008
 31
0.0
  0
LINE
  5
27C7
330
2DD9
100
AcDbEntity
  8
0
 62
     0
100
AcDbLine
 10
-361.5000000000017
 20
-455.4187813511226
 30
0.0
 11
-26.12731564432761
 21
-679.0000000000027
 31
0.0
  0
LINE
  5
27C8
330
2DD9
100
AcDbEntity
  8
0
 62
     0
100
AcDbLine
 10
-361.5000000000037
 20
-452.4188148157043
 30
0.0
 11
-21.62735435044488
 21
-679.0
 31
0.0
  0
LINE
  5
27C9
330
2DD9
100
AcDbEntity
  8
0
 62
     0
100
AcDbLine
 10
-361.5000000000009
 20
-449.4188482802881
 30
0.0
 11
-17.12739305655759
 21
-679.0
 31
0.0
  0
LINE
  5
27CA
330
2DD9
100
AcDbEntity
  8
0
 62
     0
100
AcDbLine
 10
-361.5000000000026
 20
-446.4188817448721
 30
0.0
 11
-12.62743176267122
 21
-679.0000000000016
 31
0.0
  0
LINE
  5
27CB
330
2DD9
100
AcDbEntity
  8
0
 62
     0
100
AcDbLine
 10
-361.5000000000026
 20
-443.418915209455
 30
0.0
 11
-8.127470468784851
 21
-679.0000000000008
 31
0.0
  0
LINE
  5
27CC
330
2DD9
100
AcDbEntity
  8
0
 62
     0
100
AcDbLine
 10
-361.5000000000026
 20
-440.4189486740397
 30
0.0
 11
-3.627509174902112
 21
-679.0000000000008
 31
0.0
  0
LINE
  5
27CD
330
2DD9
100
AcDbEntity
  8
0
 62
     0
100
AcDbLine
 10
-361.5000000000026
 20
-437.4189821386233
 30
0.0
 11
0.8724521189842562
 21
-679.0
 31
0.0
  0
LINE
  5
27CE
330
2DD9
100
AcDbEntity
  8
0
 62
     0
100
AcDbLine
 10
-361.5000000000026
 20
-434.4190156032079
 30
0.0
 11
5.372413412870628
 21
-679.0000000000016
 31
0.0
  0
LINE
  5
27CF
330
2DD9
100
AcDbEntity
  8
0
 62
     0
100
AcDbLine
 10
-361.5000000000017
 20
-431.4190490677908
 30
0.0
 11
9.872374706757
 21
-679.0000000000016
 31
0.0
  0
LINE
  5
27D0
330
2DD9
100
AcDbEntity
  8
0
 62
     0
100
AcDbLine
 10
-361.5000000000017
 20
-428.4190825323758
 30
0.0
 11
14.37233600064064
 21
-679.0000000000008
 31
0.0
  0
LINE
  5
27D1
330
2DD9
100
AcDbEntity
  8
0
 62
     0
100
AcDbLine
 10
-361.5000000000026
 20
-425.4191159969577
 30
0.0
 11
18.87229729452701
 21
-679.0000000000008
 31
0.0
  0
LINE
  5
27D2
330
2DD9
100
AcDbEntity
  8
0
 62
     0
100
AcDbLine
 10
-361.5000000000017
 20
-422.4191494615443
 30
0.0
 11
23.37225858841339
 21
-679.0000000000016
 31
0.0
  0
LINE
  5
27D3
330
2DD9
100
AcDbEntity
  8
0
 62
     0
100
AcDbLine
 10
-361.5000000000026
 20
-419.4191829261262
 30
0.0
 11
27.87221988229885
 21
-679.0000000000016
 31
0.0
  0
LINE
  5
27D4
330
2DD9
100
AcDbEntity
  8
0
 62
     0
100
AcDbLine
 10
-361.5000000000026
 20
-416.4192163907109
 30
0.0
 11
32.3721811761825
 21
-679.0000000000008
 31
0.0
  0
LINE
  5
27D5
330
2DD9
100
AcDbEntity
  8
0
 62
     0
100
AcDbLine
 10
-361.5000000000017
 20
-413.4192498552939
 30
0.0
 11
36.87214247006977
 21
-679.0000000000008
 31
0.0
  0
LINE
  5
27D6
330
2DD9
100
AcDbEntity
  8
0
 62
     0
100
AcDbLine
 10
-361.5000000000017
 20
-410.4192833198768
 30
0.0
 11
41.37210376395524
 21
-679.0000000000008
 31
0.0
  0
LINE
  5
27D7
330
2DD9
100
AcDbEntity
  8
0
 62
     0
100
AcDbLine
 10
-361.5000000000017
 20
-407.4193167844621
 30
0.0
 11
45.87206505783888
 21
-679.0
 31
0.0
  0
LINE
  5
27D8
330
2DD9
100
AcDbEntity
  8
0
 62
     0
100
AcDbLine
 10
-361.5000000000017
 20
-404.4193502490449
 30
0.0
 11
50.37202635172525
 21
-679.0
 31
0.0
  0
LINE
  5
27D9
330
2DD9
100
AcDbEntity
  8
0
 62
     0
100
AcDbLine
 10
-361.5000000000017
 20
-401.4193837136296
 30
0.0
 11
54.87198764561163
 21
-679.0000000000016
 31
0.0
  0
LINE
  5
27DA
330
2DD9
100
AcDbEntity
  8
0
 62
     0
100
AcDbLine
 10
-361.5000000000037
 20
-398.419417178212
 30
0.0
 11
59.37194893949708
 21
-679.0000000000008
 31
0.0
  0
LINE
  5
27DB
330
2DD9
100
AcDbEntity
  8
0
 62
     0
100
AcDbLine
 10
-361.5000000000009
 20
-395.4194506427975
 30
0.0
 11
63.87191023338164
 21
-679.0000000000008
 31
0.0
  0
LINE
  5
27DC
330
2DD9
100
AcDbEntity
  8
0
 62
     0
100
AcDbLine
 10
-361.5000000000026
 20
-392.4194841073796
 30
0.0
 11
68.37187152726801
 21
-679.0
 31
0.0
  0
LINE
  5
27DD
330
2DD9
100
AcDbEntity
  8
0
 62
     0
100
AcDbLine
 10
-361.5000000000026
 20
-389.4195175719651
 30
0.0
 11
72.87183282115347
 21
-679.0000000000016
 31
0.0
  0
LINE
  5
27DE
330
2DD9
100
AcDbEntity
  8
0
 62
     0
100
AcDbLine
 10
-361.5000000000026
 20
-386.419551036548
 30
0.0
 11
77.37179411503982
 21
-679.0000000000016
 31
0.0
  0
LINE
  5
27DF
330
2DD9
100
AcDbEntity
  8
0
 62
     0
100
AcDbLine
 10
-361.5000000000026
 20
-383.4195845011326
 30
0.0
 11
81.87175540892623
 21
-679.0000000000027
 31
0.0
  0
LINE
  5
27E0
330
2DD9
100
AcDbEntity
  8
0
 62
     0
100
AcDbLine
 10
-361.5000000000026
 20
-380.4196179657156
 30
0.0
 11
86.37171670280986
 21
-679.0000000000008
 31
0.0
  0
LINE
  5
27E1
330
2DD9
100
AcDbEntity
  8
0
 62
     0
100
AcDbLine
 10
-361.5000000000017
 20
-377.4196514303012
 30
0.0
 11
90.87167799669627
 21
-679.0000000000016
 31
0.0
  0
LINE
  5
27E2
330
2DD9
100
AcDbEntity
  8
0
 62
     0
100
AcDbLine
 10
-361.5000000000017
 20
-374.419684894884
 30
0.0
 11
95.37163929057985
 21
-679.0
 31
0.0
  0
LINE
  5
27E3
330
2DD9
100
AcDbEntity
  8
0
 62
     0
100
AcDbLine
 10
-361.5000000000017
 20
-371.4197183594671
 30
0.0
 11
99.87160058446626
 21
-679.0
 31
0.0
  0
LINE
  5
27E4
330
2DD9
100
AcDbEntity
  8
0
 62
     0
100
AcDbLine
 10
-361.5000000000017
 20
-368.4197518240517
 30
0.0
 11
104.3715618783517
 21
-679.0000000000008
 31
0.0
  0
LINE
  5
27E5
330
2DD9
100
AcDbEntity
  8
0
 62
     0
100
AcDbLine
 10
-361.5000000000026
 20
-365.4197852886337
 30
0.0
 11
108.8715231722381
 21
-679.0000000000008
 31
0.0
  0
LINE
  5
27E6
330
2DD9
100
AcDbEntity
  8
0
 62
     0
100
AcDbLine
 10
-361.5000000000017
 20
-362.4198187532183
 30
0.0
 11
113.3714844661226
 21
-679.0
 31
0.0
  0
LINE
  5
27E7
330
2DD9
100
AcDbEntity
  8
0
 62
     0
100
AcDbLine
 10
-361.5000000000017
 20
-359.4198522178022
 30
0.0
 11
117.871445760009
 21
-679.0
 31
0.0
  0
LINE
  5
27E8
330
2DD9
100
AcDbEntity
  8
0
 62
     0
100
AcDbLine
 10
-361.5000000000017
 20
-356.4198856823868
 30
0.0
 11
122.3714070538944
 21
-679.0000000000016
 31
0.0
  0
LINE
  5
27E9
330
2DD9
100
AcDbEntity
  8
0
 62
     0
100
AcDbLine
 10
-361.5000000000017
 20
-353.4199191469697
 30
0.0
 11
126.8713683477808
 21
-679.0000000000008
 31
0.0
  0
LINE
  5
27EA
330
2DD9
100
AcDbEntity
  8
0
 62
     0
100
AcDbLine
 10
-361.5000000000017
 20
-350.4199526115544
 30
0.0
 11
131.3713296416672
 21
-679.0000000000027
 31
0.0
  0
LINE
  5
27EB
330
2DD9
100
AcDbEntity
  8
0
 62
     0
100
AcDbLine
 10
-361.5000000000017
 20
-347.4199860761373
 30
0.0
 11
135.8712909355498
 21
-679.0
 31
0.0
  0
LINE
  5
27EC
330
2DD9
100
AcDbEntity
  8
0
 62
     0
100
AcDbLine
 10
-361.5000000000026
 20
-344.420019540722
 30
0.0
 11
140.3712522294372
 21
-679.0000000000016
 31
0.0
  0
LINE
  5
27ED
330
2DD9
100
AcDbEntity
  8
0
 62
     0
100
AcDbLine
 10
-361.5000000000009
 20
-341.4200530053058
 30
0.0
 11
144.8712135233236
 21
-679.0000000000016
 31
0.0
  0
LINE
  5
27EE
330
2DD9
100
AcDbEntity
  8
0
 62
     0
100
AcDbLine
 10
-361.5000000000026
 20
-338.4200864698897
 30
0.0
 11
149.3711748172072
 21
-679.0000000000008
 31
0.0
  0
LINE
  5
27EF
330
2DD9
100
AcDbEntity
  8
0
 62
     0
100
AcDbLine
 10
-361.5000000000009
 20
-335.4201199344734
 30
0.0
 11
153.8711361110927
 21
-679.0000000000008
 31
0.0
  0
LINE
  5
27F0
330
2DD9
100
AcDbEntity
  8
0
 62
     0
100
AcDbLine
 10
-361.5000000000026
 20
-332.4201533990554
 30
0.0
 11
158.371097404979
 21
-679.0000000000008
 31
0.0
  0
LINE
  5
27F1
330
2DD9
100
AcDbEntity
  8
0
 62
     0
100
AcDbLine
 10
-361.5000000000026
 20
-329.420186863641
 30
0.0
 11
162.8710586988627
 21
-679.0
 31
0.0
  0
LINE
  5
27F2
330
2DD9
100
AcDbEntity
  8
0
 62
     0
100
AcDbLine
 10
-361.5000000000017
 20
-326.4202203282239
 30
0.0
 11
167.3710199927491
 21
-679.0
 31
0.0
  0
LINE
  5
27F3
330
2DD9
100
AcDbEntity
  8
0
 62
     0
100
AcDbLine
 10
-361.5000000000017
 20
-323.4202537928086
 30
0.0
 11
171.8709812866354
 21
-679.0000000000008
 31
0.0
  0
LINE
  5
27F4
330
2DD9
100
AcDbEntity
  8
0
 62
     0
100
AcDbLine
 10
-361.5000000000017
 20
-320.4202872573915
 30
0.0
 11
176.3709425805218
 21
-679.0000000000008
 31
0.0
  0
LINE
  5
27F5
330
2DD9
100
AcDbEntity
  8
0
 62
     0
100
AcDbLine
 10
-361.5000000000017
 20
-317.4203207219762
 30
0.0
 11
180.8709038744064
 21
-679.0000000000008
 31
0.0
  0
LINE
  5
27F6
330
2DD9
100
AcDbEntity
  8
0
 62
     0
100
AcDbLine
 10
-361.5000000000026
 20
-314.4203541865581
 30
0.0
 11
185.3708651682908
 21
-679.0
 31
0.0
  0
LINE
  5
27F7
330
2DD9
100
AcDbEntity
  8
0
 62
     0
100
AcDbLine
 10
-361.5000000000026
 20
-311.4203876511437
 30
0.0
 11
189.8708264621772
 21
-679.0000000000016
 31
0.0
  0
LINE
  5
27F8
330
2DD9
100
AcDbEntity
  8
0
 62
     0
100
AcDbLine
 10
-361.5000000000017
 20
-308.4204211157265
 30
0.0
 11
194.3707877560628
 21
-679.0
 31
0.0
  0
LINE
  5
27F9
330
2DD9
100
AcDbEntity
  8
0
 62
     0
100
AcDbLine
 10
-361.5000000000017
 20
-305.4204545803112
 30
0.0
 11
198.8707490499491
 21
-679.0000000000016
 31
0.0
  0
LINE
  5
27FA
330
2DD9
100
AcDbEntity
  8
0
 62
     0
100
AcDbLine
 10
-361.5000000000017
 20
-302.4204880448943
 30
0.0
 11
203.3707103438337
 21
-679.0
 31
0.0
  0
LINE
  5
27FB
330
2DD9
100
AcDbEntity
  8
0
 62
     0
100
AcDbLine
 10
-361.5000000000017
 20
-299.4205215094789
 30
0.0
 11
207.8706716377183
 21
-679.0000000000008
 31
0.0
  0
LINE
  5
27FC
330
2DD9
100
AcDbEntity
  8
0
 62
     0
100
AcDbLine
 10
-361.5000000000017
 20
-296.4205549740628
 30
0.0
 11
212.3706329316037
 21
-679.0
 31
0.0
  0
LINE
  5
27FD
330
2DD9
100
AcDbEntity
  8
0
 62
     0
100
AcDbLine
 10
-361.5000000000017
 20
-293.4205884386456
 30
0.0
 11
216.8705942254892
 21
-678.9999999999992
 31
0.0
  0
LINE
  5
27FE
330
2DD9
100
AcDbEntity
  8
0
 62
     0
100
AcDbLine
 10
-361.5000000000026
 20
-290.4206219032293
 30
0.0
 11
221.3705555193755
 21
-679.0
 31
0.0
  0
LINE
  5
27FF
330
2DD9
100
AcDbEntity
  8
0
 62
     0
100
AcDbLine
 10
-361.5000000000009
 20
-287.4206553678132
 30
0.0
 11
225.870516813261
 21
-678.9999999999992
 31
0.0
  0
LINE
  5
2800
330
2DD9
100
AcDbEntity
  8
0
 62
     0
100
AcDbLine
 10
-361.5000000000026
 20
-284.4206888323969
 30
0.0
 11
230.3704781071473
 21
-679.0000000000008
 31
0.0
  0
LINE
  5
2801
330
2DD9
100
AcDbEntity
  8
0
 62
     0
100
AcDbLine
 10
-361.5000000000026
 20
-281.4207222969809
 30
0.0
 11
234.870439401032
 21
-679.0
 31
0.0
  0
LINE
  5
2802
330
2DD9
100
AcDbEntity
  8
0
 62
     0
100
AcDbLine
 10
-361.5000000000026
 20
-278.4207557615655
 30
0.0
 11
239.3704006949183
 21
-679.0000000000008
 31
0.0
  0
LINE
  5
2803
330
2DD9
100
AcDbEntity
  8
0
 62
     0
100
AcDbLine
 10
-361.5000000000026
 20
-275.4207892261484
 30
0.0
 11
243.8703619888029
 21
-679.0
 31
0.0
  0
LINE
  5
2804
330
2DD9
100
AcDbEntity
  8
0
 62
     0
100
AcDbLine
 10
-361.5000000000017
 20
-272.4208226907331
 30
0.0
 11
248.3703232826901
 21
-679.0000000000016
 31
0.0
  0
LINE
  5
2805
330
2DD9
100
AcDbEntity
  8
0
 62
     0
100
AcDbLine
 10
-361.5000000000017
 20
-269.420856155316
 30
0.0
 11
252.8702845765747
 21
-679.0
 31
0.0
  0
LINE
  5
2806
330
2DD9
100
AcDbEntity
  8
0
 62
     0
100
AcDbLine
 10
-361.5000000000017
 20
-266.4208896199016
 30
0.0
 11
257.3702458704611
 21
-679.0000000000016
 31
0.0
  0
LINE
  5
2807
330
2DD9
100
AcDbEntity
  8
0
 62
     0
100
AcDbLine
 10
-361.5000000000017
 20
-263.4209230844845
 30
0.0
 11
261.8702071643456
 21
-679.0
 31
0.0
  0
LINE
  5
2808
330
2DD9
100
AcDbEntity
  8
0
 62
     0
100
AcDbLine
 10
-361.5000000000026
 20
-260.4209565490683
 30
0.0
 11
266.3701684582302
 21
-679.0000000000008
 31
0.0
  0
LINE
  5
2809
330
2DD9
100
AcDbEntity
  8
0
 62
     0
100
AcDbLine
 10
-361.5000000000026
 20
-257.4209900136511
 30
0.0
 11
270.8701297521147
 21
-678.9999999999992
 31
0.0
  0
LINE
  5
280A
330
2DD9
100
AcDbEntity
  8
0
 62
     0
100
AcDbLine
 10
-361.5000000000017
 20
-254.4210234782358
 30
0.0
 11
275.370091046002
 21
-679.0000000000008
 31
0.0
  0
LINE
  5
280B
330
2DD9
100
AcDbEntity
  8
0
 62
     0
100
AcDbLine
 10
-361.5000000000017
 20
-251.4210569428187
 30
0.0
 11
279.8700523398884
 21
-679.0000000000008
 31
0.0
  0
LINE
  5
280C
330
2DD9
100
AcDbEntity
  8
0
 62
     0
100
AcDbLine
 10
-361.5000000000017
 20
-248.4210904074025
 30
0.0
 11
284.370013633773
 21
-678.9999999999992
 31
0.0
  0
LINE
  5
280D
330
2DD9
100
AcDbEntity
  8
0
 62
     0
100
AcDbLine
 10
-361.5000000000017
 20
-245.4211238719872
 30
0.0
 11
288.8699749276593
 21
-679.0000000000008
 31
0.0
  0
LINE
  5
280E
330
2DD9
100
AcDbEntity
  8
0
 62
     0
100
AcDbLine
 10
-361.5000000000037
 20
-242.4211573365692
 30
0.0
 11
293.3699362215439
 21
-679.0
 31
0.0
  0
LINE
  5
280F
330
2DD9
100
AcDbEntity
  8
0
 62
     0
100
AcDbLine
 10
-361.5000000000009
 20
-239.4211908011548
 30
0.0
 11
297.8698975154312
 21
-679.0000000000008
 31
0.0
  0
LINE
  5
2810
330
2DD9
100
AcDbEntity
  8
0
 62
     0
100
AcDbLine
 10
-361.5000000000026
 20
-236.4212242657368
 30
0.0
 11
302.3698588093157
 21
-679.0
 31
0.0
  0
LINE
  5
2811
330
2DD9
100
AcDbEntity
  8
0
 62
     0
100
AcDbLine
 10
-361.5000000000026
 20
-233.4212577303224
 30
0.0
 11
306.8698201032021
 21
-679.0000000000008
 31
0.0
  0
LINE
  5
2812
330
2DD9
100
AcDbEntity
  8
0
 62
     0
100
AcDbLine
 10
-361.5000000000026
 20
-230.4212911949053
 30
0.0
 11
311.3697813970866
 21
-679.0
 31
0.0
  0
LINE
  5
2813
330
2DD9
100
AcDbEntity
  8
0
 62
     0
100
AcDbLine
 10
-361.5000000000026
 20
-227.42132465949
 30
0.0
 11
315.869742690973
 21
-679.0000000000016
 31
0.0
  0
LINE
  5
2814
330
2DD9
100
AcDbEntity
  8
0
 62
     0
100
AcDbLine
 10
-361.5000000000026
 20
-224.4213581240729
 30
0.0
 11
320.3697039848576
 21
-679.0
 31
0.0
  0
LINE
  5
2815
330
2DD9
100
AcDbEntity
  8
0
 62
     0
100
AcDbLine
 10
-361.5000000000017
 20
-221.4213915886576
 30
0.0
 11
324.869665278743
 21
-679.0000000000008
 31
0.0
  0
LINE
  5
2816
330
2DD9
100
AcDbEntity
  8
0
 62
     0
100
AcDbLine
 10
-361.5000000000017
 20
-218.4214250532414
 30
0.0
 11
329.3696265726292
 21
-679.0
 31
0.0
  0
LINE
  5
2817
330
2DD9
100
AcDbEntity
  8
0
 62
     0
100
AcDbLine
 10
-361.5000000000026
 20
-215.4214585178252
 30
0.0
 11
333.8695878665139
 21
-679.0000000000008
 31
0.0
  0
LINE
  5
2818
330
2DD9
100
AcDbEntity
  8
0
 62
     0
100
AcDbLine
 10
-361.5000000000017
 20
-212.421491982409
 30
0.0
 11
338.3695491604003
 21
-679.0000000000008
 31
0.0
  0
LINE
  5
2819
330
2DD9
100
AcDbEntity
  8
0
 62
     0
100
AcDbLine
 10
-361.5000000000026
 20
-209.4215254469909
 30
0.0
 11
342.8695104542849
 21
-678.9999999999992
 31
0.0
  0
LINE
  5
281A
330
2DD9
100
AcDbEntity
  8
0
 62
     0
100
AcDbLine
 10
-361.5000000000026
 20
-206.4215589115756
 30
0.0
 11
347.3694717481712
 21
-679.0000000000008
 31
0.0
  0
LINE
  5
281B
330
2DD9
100
AcDbEntity
  8
0
 62
     0
100
AcDbLine
 10
-361.5000000000017
 20
-203.4215923761585
 30
0.0
 11
351.8694330420566
 21
-678.9999999999992
 31
0.0
  0
LINE
  5
281C
330
2DD9
100
AcDbEntity
  8
0
 62
     0
100
AcDbLine
 10
-361.5000000000017
 20
-200.4216258407441
 30
0.0
 11
356.3693943359433
 21
-679.0000000000008
 31
0.0
  0
LINE
  5
281D
330
2DD9
100
AcDbEntity
  8
0
 62
     0
100
AcDbLine
 10
-361.5000000000017
 20
-197.4216593053269
 30
0.0
 11
360.8693556298277
 21
-679.0
 31
0.0
  0
LINE
  5
281E
330
2DD9
100
AcDbEntity
  8
0
 62
     0
100
AcDbLine
 10
-361.5000000000017
 20
-194.4216927699114
 30
0.0
 11
361.4999999999973
 21
-676.42046197112
 31
0.0
  0
LINE
  5
281F
330
2DD9
100
AcDbEntity
  8
0
 62
     0
100
AcDbLine
 10
-361.5000000000017
 20
-191.4217262344946
 30
0.0
 11
361.4999999999973
 21
-673.4204954357036
 31
0.0
  0
LINE
  5
2820
330
2DD9
100
AcDbEntity
  8
0
 62
     0
100
AcDbLine
 10
-361.5000000000037
 20
-188.4217596990784
 30
0.0
 11
361.4999999999973
 21
-670.4205289002884
 31
0.0
  0
LINE
  5
2821
330
2DD9
100
AcDbEntity
  8
0
 62
     0
100
AcDbLine
 10
-361.5000000000009
 20
-185.4217931636631
 30
0.0
 11
361.4999999999982
 21
-667.4205623648711
 31
0.0
  0
LINE
  5
2822
330
2DD9
100
AcDbEntity
  8
0
 62
     0
100
AcDbLine
 10
-361.5000000000026
 20
-182.4218266282469
 30
0.0
 11
361.4999999999982
 21
-664.420595829456
 31
0.0
  0
LINE
  5
2823
330
2DD9
100
AcDbEntity
  8
0
 62
     0
100
AcDbLine
 10
-361.5000000000026
 20
-179.4218600928298
 30
0.0
 11
361.4999999999982
 21
-661.4206292940385
 31
0.0
  0
LINE
  5
2824
330
2DD9
100
AcDbEntity
  8
0
 62
     0
100
AcDbLine
 10
-361.5000000000026
 20
-176.4218935574145
 30
0.0
 11
361.4999999999964
 21
-658.4206627586236
 31
0.0
  0
LINE
  5
2825
330
2DD9
100
AcDbEntity
  8
0
 62
     0
100
AcDbLine
 10
-361.5000000000026
 20
-173.4219270219973
 30
0.0
 11
361.4999999999982
 21
-655.4206962232074
 31
0.0
  0
LINE
  5
2826
330
2DD9
100
AcDbEntity
  8
0
 62
     0
100
AcDbLine
 10
-361.5000000000026
 20
-170.4219604865811
 30
0.0
 11
361.4999999999964
 21
-652.4207296877894
 31
0.0
  0
LINE
  5
2827
330
2DD9
100
AcDbEntity
  8
0
 62
     0
100
AcDbLine
 10
-361.5000000000017
 20
-167.4219939511658
 30
0.0
 11
361.4999999999973
 21
-649.4207631523741
 31
0.0
  0
LINE
  5
2828
330
2DD9
100
AcDbEntity
  8
0
 62
     0
100
AcDbLine
 10
-361.5000000000017
 20
-164.4220274157487
 30
0.0
 11
361.4999999999973
 21
-646.420796616957
 31
0.0
  0
LINE
  5
2829
330
2DD9
100
AcDbEntity
  8
0
 62
     0
100
AcDbLine
 10
-361.5000000000026
 20
-161.4220608803325
 30
0.0
 11
361.4999999999973
 21
-643.4208300815424
 31
0.0
  0
LINE
  5
282A
330
2DD9
100
AcDbEntity
  8
0
 62
     0
100
AcDbLine
 10
-361.5000000000017
 20
-158.4220943449163
 30
0.0
 11
361.4999999999973
 21
-640.4208635461252
 31
0.0
  0
LINE
  5
282B
330
2DD9
100
AcDbEntity
  8
0
 62
     0
100
AcDbLine
 10
-361.5000000000026
 20
-155.4221278095001
 30
0.0
 11
361.4999999999973
 21
-637.4208970107101
 31
0.0
  0
LINE
  5
282C
330
2DD9
100
AcDbEntity
  8
0
 62
     0
100
AcDbLine
 10
-361.5000000000026
 20
-152.4221612740839
 30
0.0
 11
361.4999999999973
 21
-634.4209304752929
 31
0.0
  0
LINE
  5
282D
330
2DD9
100
AcDbEntity
  8
0
 62
     0
100
AcDbLine
 10
-361.5000000000017
 20
-149.4221947386686
 30
0.0
 11
361.4999999999973
 21
-631.4209639398768
 31
0.0
  0
LINE
  5
282E
330
2DD9
100
AcDbEntity
  8
0
 62
     0
100
AcDbLine
 10
-361.5000000000017
 20
-146.4222282032515
 30
0.0
 11
361.4999999999991
 21
-628.4209974044615
 31
0.0
  0
LINE
  5
282F
330
2DD9
100
AcDbEntity
  8
0
 62
     0
100
AcDbLine
 10
-361.5000000000017
 20
-143.4222616678361
 30
0.0
 11
361.4999999999973
 21
-625.4210308690455
 31
0.0
  0
LINE
  5
2830
330
2DD9
100
AcDbEntity
  8
0
 62
     0
100
AcDbLine
 10
-361.5000000000017
 20
-140.4222951324189
 30
0.0
 11
361.4999999999973
 21
-622.4210643336281
 31
0.0
  0
LINE
  5
2831
330
2DD9
100
AcDbEntity
  8
0
 62
     0
100
AcDbLine
 10
-361.5000000000017
 20
-137.4223285970047
 30
0.0
 11
361.4999999999973
 21
-619.4210977982129
 31
0.0
  0
LINE
  5
2832
330
2DD9
100
AcDbEntity
  8
0
 62
     0
100
AcDbLine
 10
-361.5000000000037
 20
-134.4223620615867
 30
0.0
 11
361.4999999999973
 21
-616.4211312627958
 31
0.0
  0
LINE
  5
2833
330
2DD9
100
AcDbEntity
  8
0
 62
     0
100
AcDbLine
 10
-361.5000000000009
 20
-131.4223955261704
 30
0.0
 11
361.4999999999982
 21
-613.4211647273787
 31
0.0
  0
LINE
  5
2834
330
2DD9
100
AcDbEntity
  8
0
 62
     0
100
AcDbLine
 10
-361.5000000000026
 20
-128.4224289907542
 30
0.0
 11
361.4999999999982
 21
-610.4211981919643
 31
0.0
  0
LINE
  5
2835
330
2DD9
100
AcDbEntity
  8
0
 62
     0
100
AcDbLine
 10
-361.5000000000026
 20
-125.4224624553371
 30
0.0
 11
361.4999999999982
 21
-607.421231656547
 31
0.0
  0
LINE
  5
2836
330
2DD9
100
AcDbEntity
  8
0
 62
     0
100
AcDbLine
 10
-361.5000000000026
 20
-122.4224959199228
 30
0.0
 11
361.4999999999964
 21
-604.421265121131
 31
0.0
  0
LINE
  5
2837
330
2DD9
100
AcDbEntity
  8
0
 62
     0
100
AcDbLine
 10
-361.5000000000026
 20
-119.4225293845056
 30
0.0
 11
361.4999999999964
 21
-601.4212985857136
 31
0.0
  0
LINE
  5
2838
330
2DD9
100
AcDbEntity
  8
0
 62
     0
100
AcDbLine
 10
-361.5000000000026
 20
-116.4225628490903
 30
0.0
 11
361.4999999999964
 21
-598.4213320502983
 31
0.0
  0
LINE
  5
2839
330
2DD9
100
AcDbEntity
  8
0
 62
     0
100
AcDbLine
 10
-361.5000000000017
 20
-113.4225963136732
 30
0.0
 11
361.4999999999973
 21
-595.4213655148824
 31
0.0
  0
LINE
  5
283A
330
2DD9
100
AcDbEntity
  8
0
 62
     0
100
AcDbLine
 10
-361.5000000000017
 20
-110.4226297782579
 30
0.0
 11
361.4999999999973
 21
-592.4213989794671
 31
0.0
  0
LINE
  5
283B
330
2DD9
100
AcDbEntity
  8
0
 62
     0
100
AcDbLine
 10
-361.5000000000026
 20
-107.4226632428399
 30
0.0
 11
361.4999999999973
 21
-589.42143244405
 31
0.0
  0
LINE
  5
283C
330
2DD9
100
AcDbEntity
  8
0
 62
     0
100
AcDbLine
 10
-361.5000000000017
 20
-104.4226967074264
 30
0.0
 11
361.4999999999973
 21
-586.4214659086344
 31
0.0
  0
LINE
  5
283D
330
2DD9
100
AcDbEntity
  8
0
 62
     0
100
AcDbLine
 10
-361.5000000000026
 20
-101.4227301720084
 30
0.0
 11
361.4999999999973
 21
-583.4214993732174
 31
0.0
  0
LINE
  5
283E
330
2DD9
100
AcDbEntity
  8
0
 62
     0
100
AcDbLine
 10
-361.5000000000017
 20
-98.42276363659314
 30
0.0
 11
361.4999999999982
 21
-580.4215328378031
 31
0.0
  0
LINE
  5
283F
330
2DD9
100
AcDbEntity
  8
0
 62
     0
100
AcDbLine
 10
-361.5000000000017
 20
-95.422797101176
 30
0.0
 11
361.4999999999973
 21
-577.4215663023851
 31
0.0
  0
LINE
  5
2840
330
2DD9
100
AcDbEntity
  8
0
 62
     0
100
AcDbLine
 10
-361.5000000000017
 20
-92.42283056575887
 30
0.0
 11
361.4999999999973
 21
-574.421599766968
 31
0.0
  0
LINE
  5
2841
330
2DD9
100
AcDbEntity
  8
0
 62
     0
100
AcDbLine
 10
-361.5000000000017
 20
-89.42286403034449
 30
0.0
 11
361.4999999999973
 21
-571.4216332315527
 31
0.0
  0
LINE
  5
2842
330
2DD9
100
AcDbEntity
  8
0
 62
     0
100
AcDbLine
 10
-361.5000000000017
 20
-86.42289749492737
 30
0.0
 11
361.4999999999973
 21
-568.4216666961356
 31
0.0
  0
LINE
  5
2843
330
2DD9
100
AcDbEntity
  8
0
 62
     0
100
AcDbLine
 10
-361.5000000000017
 20
-83.42293095951209
 30
0.0
 11
361.4999999999973
 21
-565.4217001607203
 31
0.0
  0
LINE
  5
2844
330
2DD9
100
AcDbEntity
  8
0
 62
     0
100
AcDbLine
 10
-361.5000000000026
 20
-80.42296442409407
 30
0.0
 11
361.4999999999982
 21
-562.421733625304
 31
0.0
  0
LINE
  5
2845
330
2DD9
100
AcDbEntity
  8
0
 62
     0
100
AcDbLine
 10
-359.1344907926349
 20
-79.0000000000009
 30
0.0
 11
361.4999999999982
 21
-559.4217670898887
 31
0.0
  0
LINE
  5
2846
330
2DD9
100
AcDbEntity
  8
0
 62
     0
100
AcDbLine
 10
-354.6345294987505
 20
-78.99999999999909
 30
0.0
 11
361.4999999999982
 21
-556.4218005544717
 31
0.0
  0
LINE
  5
2847
330
2DD9
100
AcDbEntity
  8
0
 62
     0
100
AcDbLine
 10
-350.134568204864
 20
-79.0000000000009
 30
0.0
 11
361.4999999999982
 21
-553.4218340190562
 31
0.0
  0
LINE
  5
2848
330
2DD9
100
AcDbEntity
  8
0
 62
     0
100
AcDbLine
 10
-345.6346069109795
 20
-78.99999999999909
 30
0.0
 11
361.4999999999964
 21
-550.4218674836383
 31
0.0
  0
LINE
  5
2849
330
2DD9
100
AcDbEntity
  8
0
 62
     0
100
AcDbLine
 10
-341.1346456170932
 20
-79.0000000000009
 30
0.0
 11
361.4999999999964
 21
-547.4219009482239
 31
0.0
  0
LINE
  5
284A
330
2DD9
100
AcDbEntity
  8
0
 62
     0
100
AcDbLine
 10
-336.6346843232077
 20
-79.0
 30
0.0
 11
361.4999999999973
 21
-544.4219344128066
 31
0.0
  0
LINE
  5
284B
330
2DD9
100
AcDbEntity
  8
0
 62
     0
100
AcDbLine
 10
-332.1347230293213
 20
-79.0000000000009
 30
0.0
 11
361.4999999999973
 21
-541.4219678773917
 31
0.0
  0
LINE
  5
284C
330
2DD9
100
AcDbEntity
  8
0
 62
     0
100
AcDbLine
 10
-327.634761735435
 20
-79.0000000000009
 30
0.0
 11
361.4999999999973
 21
-538.4220013419744
 31
0.0
  0
LINE
  5
284D
330
2DD9
100
AcDbEntity
  8
0
 62
     0
100
AcDbLine
 10
-323.1348004415504
 20
-79.00000000000182
 30
0.0
 11
361.4999999999973
 21
-535.4220348065592
 31
0.0
  0
LINE
  5
284E
330
2DD9
100
AcDbEntity
  8
0
 62
     0
100
AcDbLine
 10
-318.6348391476657
 20
-79.0
 30
0.0
 11
361.4999999999973
 21
-532.422068271143
 31
0.0
  0
LINE
  5
284F
330
2DD9
100
AcDbEntity
  8
0
 62
     0
100
AcDbLine
 10
-314.1348778537797
 20
-79.0
 30
0.0
 11
361.4999999999973
 21
-529.4221017357257
 31
0.0
  0
LINE
  5
2850
330
2DD9
100
AcDbEntity
  8
0
 62
     0
100
AcDbLine
 10
-309.634916559894
 20
-79.0
 30
0.0
 11
361.4999999999982
 21
-526.4221352003105
 31
0.0
  0
LINE
  5
2851
330
2DD9
100
AcDbEntity
  8
0
 62
     0
100
AcDbLine
 10
-305.1349552660095
 20
-78.99999999999909
 30
0.0
 11
361.4999999999973
 21
-523.4221686648925
 31
0.0
  0
LINE
  5
2852
330
2DD9
100
AcDbEntity
  8
0
 62
     0
100
AcDbLine
 10
-300.6349939721231
 20
-79.0000000000009
 30
0.0
 11
361.4999999999973
 21
-520.422202129477
 31
0.0
  0
LINE
  5
2853
330
2DD9
100
AcDbEntity
  8
0
 62
     0
100
AcDbLine
 10
-296.1350326782367
 20
-79.0
 30
0.0
 11
361.4999999999973
 21
-517.422235594061
 31
0.0
  0
LINE
  5
2854
330
2DD9
100
AcDbEntity
  8
0
 62
     0
100
AcDbLine
 10
-291.6350713843523
 20
-79.0000000000009
 30
0.0
 11
361.4999999999973
 21
-514.4222690586457
 31
0.0
  0
LINE
  5
2855
330
2DD9
100
AcDbEntity
  8
0
 62
     0
100
AcDbLine
 10
-287.1351100904657
 20
-79.0
 30
0.0
 11
361.4999999999973
 21
-511.4223025232286
 31
0.0
  0
LINE
  5
2856
330
2DD9
100
AcDbEntity
  8
0
 62
     0
100
AcDbLine
 10
-282.6351487965803
 20
-79.0000000000009
 30
0.0
 11
361.4999999999982
 21
-508.4223359878132
 31
0.0
  0
LINE
  5
2857
330
2DD9
100
AcDbEntity
  8
0
 62
     0
100
AcDbLine
 10
-278.135187502694
 20
-79.0000000000009
 30
0.0
 11
361.4999999999982
 21
-505.4223694523961
 31
0.0
  0
LINE
  5
2858
330
2DD9
100
AcDbEntity
  8
0
 62
     0
100
AcDbLine
 10
-273.6352262088094
 20
-79.0000000000009
 30
0.0
 11
361.4999999999964
 21
-502.42240291698
 31
0.0
  0
LINE
  5
2859
330
2DD9
100
AcDbEntity
  8
0
 62
     0
100
AcDbLine
 10
-269.135264914923
 20
-79.0000000000009
 30
0.0
 11
361.4999999999982
 21
-499.4224363815646
 31
0.0
  0
LINE
  5
285A
330
2DD9
100
AcDbEntity
  8
0
 62
     0
100
AcDbLine
 10
-264.6353036210385
 20
-79.0000000000009
 30
0.0
 11
361.4999999999964
 21
-496.4224698461483
 31
0.0
  0
LINE
  5
285B
330
2DD9
100
AcDbEntity
  8
0
 62
     0
100
AcDbLine
 10
-260.1353423271539
 20
-79.0
 30
0.0
 11
361.4999999999964
 21
-493.4225033107312
 31
0.0
  0
LINE
  5
285C
330
2DD9
100
AcDbEntity
  8
0
 62
     0
100
AcDbLine
 10
-255.6353810332666
 20
-79.0
 30
0.0
 11
361.4999999999973
 21
-490.422536775314
 31
0.0
  0
LINE
  5
285D
330
2DD9
100
AcDbEntity
  8
0
 62
     0
100
AcDbLine
 10
-251.1354197393821
 20
-79.0
 30
0.0
 11
361.4999999999973
 21
-487.4225702398988
 31
0.0
  0
LINE
  5
285E
330
2DD9
100
AcDbEntity
  8
0
 62
     0
100
AcDbLine
 10
-246.6354584454957
 20
-79.0
 30
0.0
 11
361.4999999999973
 21
-484.4226037044825
 31
0.0
  0
LINE
  5
285F
330
2DD9
100
AcDbEntity
  8
0
 62
     0
100
AcDbLine
 10
-242.1354971516112
 20
-79.0
 30
0.0
 11
361.4999999999973
 21
-481.4226371690674
 31
0.0
  0
LINE
  5
2860
330
2DD9
100
AcDbEntity
  8
0
 62
     0
100
AcDbLine
 10
-237.6355358577248
 20
-79.0
 30
0.0
 11
361.4999999999973
 21
-478.4226706336503
 31
0.0
  0
LINE
  5
2861
330
2DD9
100
AcDbEntity
  8
0
 62
     0
100
AcDbLine
 10
-233.1355745638402
 20
-79.0000000000009
 30
0.0
 11
361.4999999999973
 21
-475.4227040982349
 31
0.0
  0
LINE
  5
2862
330
2DD9
100
AcDbEntity
  8
0
 62
     0
100
AcDbLine
 10
-228.635613269953
 20
-79.0
 30
0.0
 11
361.4999999999982
 21
-472.4227375628177
 31
0.0
  0
LINE
  5
2863
330
2DD9
100
AcDbEntity
  8
0
 62
     0
100
AcDbLine
 10
-224.1356519760684
 20
-79.0000000000009
 30
0.0
 11
361.4999999999973
 21
-469.4227710274025
 31
0.0
  0
LINE
  5
2864
330
2DD9
100
AcDbEntity
  8
0
 62
     0
100
AcDbLine
 10
-219.635690682182
 20
-79.0000000000009
 30
0.0
 11
361.4999999999973
 21
-466.4228044919854
 31
0.0
  0
LINE
  5
2865
330
2DD9
100
AcDbEntity
  8
0
 62
     0
100
AcDbLine
 10
-215.1357293882966
 20
-79.00000000000182
 30
0.0
 11
361.4999999999973
 21
-463.4228379565702
 31
0.0
  0
LINE
  5
2866
330
2DD9
100
AcDbEntity
  8
0
 62
     0
100
AcDbLine
 10
-210.6357680944111
 20
-79.0000000000009
 30
0.0
 11
361.4999999999973
 21
-460.4228714211529
 31
0.0
  0
LINE
  5
2867
330
2DD9
100
AcDbEntity
  8
0
 62
     0
100
AcDbLine
 10
-206.1358068005256
 20
-79.0000000000009
 30
0.0
 11
361.4999999999982
 21
-457.4229048857376
 31
0.0
  0
LINE
  5
2868
330
2DD9
100
AcDbEntity
  8
0
 62
     0
100
AcDbLine
 10
-201.6358455066393
 20
-79.0000000000009
 30
0.0
 11
361.4999999999982
 21
-454.4229383503216
 31
0.0
  0
LINE
  5
2869
330
2DD9
100
AcDbEntity
  8
0
 62
     0
100
AcDbLine
 10
-197.1358842127546
 20
-78.99999999999909
 30
0.0
 11
361.4999999999982
 21
-451.4229718149045
 31
0.0
  0
LINE
  5
286A
330
2DD9
100
AcDbEntity
  8
0
 62
     0
100
AcDbLine
 10
-192.6359229188701
 20
-79.0
 30
0.0
 11
361.4999999999964
 21
-448.4230052794882
 31
0.0
  0
LINE
  5
286B
330
2DD9
100
AcDbEntity
  8
0
 62
     0
100
AcDbLine
 10
-188.1359616249836
 20
-79.0
 30
0.0
 11
361.4999999999982
 21
-445.423038744072
 31
0.0
  0
LINE
  5
286C
330
2DD9
100
AcDbEntity
  8
0
 62
     0
100
AcDbLine
 10
-183.6360003310992
 20
-79.0
 30
0.0
 11
361.4999999999964
 21
-442.4230722086559
 31
0.0
  0
LINE
  5
286D
330
2DD9
100
AcDbEntity
  8
0
 62
     0
100
AcDbLine
 10
-179.1360390372119
 20
-79.0
 30
0.0
 11
361.4999999999973
 21
-439.4231056732385
 31
0.0
  0
LINE
  5
286E
330
2DD9
100
AcDbEntity
  8
0
 62
     0
100
AcDbLine
 10
-174.6360777433265
 20
-79.00000000000182
 30
0.0
 11
361.4999999999973
 21
-436.4231391378242
 31
0.0
  0
LINE
  5
286F
330
2DD9
100
AcDbEntity
  8
0
 62
     0
100
AcDbLine
 10
-170.136116449441
 20
-79.0
 30
0.0
 11
361.4999999999973
 21
-433.4231726024071
 31
0.0
  0
LINE
  5
2870
330
2DD9
100
AcDbEntity
  8
0
 62
     0
100
AcDbLine
 10
-165.6361551555555
 20
-79.00000000000182
 30
0.0
 11
361.4999999999973
 21
-430.4232060669916
 31
0.0
  0
LINE
  5
2871
330
2DD9
100
AcDbEntity
  8
0
 62
     0
100
AcDbLine
 10
-161.1361938616701
 20
-79.0
 30
0.0
 11
361.4999999999973
 21
-427.4232395315747
 31
0.0
  0
LINE
  5
2872
330
2DD9
100
AcDbEntity
  8
0
 62
     0
100
AcDbLine
 10
-156.6362325677846
 20
-79.00000000000182
 30
0.0
 11
361.4999999999973
 21
-424.4232729961593
 31
0.0
  0
LINE
  5
2873
330
2DD9
100
AcDbEntity
  8
0
 62
     0
100
AcDbLine
 10
-152.1362712738992
 20
-79.0000000000009
 30
0.0
 11
361.4999999999973
 21
-421.4233064607423
 31
0.0
  0
LINE
  5
2874
330
2DD9
100
AcDbEntity
  8
0
 62
     0
100
AcDbLine
 10
-147.6363099800137
 20
-79.0000000000009
 30
0.0
 11
361.4999999999982
 21
-418.423339925328
 31
0.0
  0
LINE
  5
2875
330
2DD9
100
AcDbEntity
  8
0
 62
     0
100
AcDbLine
 10
145.6999999999989
 20
-271.5570740902976
 30
0.0
 11
147.5643936253255
 21
-272.7999999999984
 31
0.0
  0
LINE
  5
2876
330
2DD9
100
AcDbEntity
  8
0
 62
     0
100
AcDbLine
 10
147.5643936253291
 20
-272.8000000000001
 30
0.0
 11
361.4999999999973
 21
-415.4233733899099
 31
0.0
  0
LINE
  5
2877
330
2DD9
100
AcDbEntity
  8
0
 62
     0
100
AcDbLine
 10
-143.1363486861282
 20
-79.0000000000009
 30
0.0
 11
145.6999999999971
 21
-271.5570740902958
 31
0.0
  0
LINE
  5
2878
330
2DD9
100
AcDbEntity
  8
0
 62
     0
100
AcDbLine
 10
145.6999999999989
 20
-268.5571075548805
 30
0.0
 11
152.0643549192118
 21
-272.7999999999984
 31
0.0
  0
LINE
  5
2879
330
2DD9
100
AcDbEntity
  8
0
 62
     0
100
AcDbLine
 10
152.0643549192136
 20
-272.7999999999993
 30
0.0
 11
361.4999999999973
 21
-412.4234068544929
 31
0.0
  0
LINE
  5
287A
330
2DD9
100
AcDbEntity
  8
0
 62
     0
100
AcDbLine
 10
-138.6363873922428
 20
-78.99999999999909
 30
0.0
 11
145.6999999999971
 21
-268.5571075548796
 31
0.0
  0
LINE
  5
287B
330
2DD9
100
AcDbEntity
  8
0
 62
     0
100
AcDbLine
 10
145.6999999999989
 20
-265.5571410194653
 30
0.0
 11
156.5643162130982
 21
-272.8000000000001
 31
0.0
  0
LINE
  5
287C
330
2DD9
100
AcDbEntity
  8
0
 62
     0
100
AcDbLine
 10
156.5643162130982
 20
-272.8000000000001
 30
0.0
 11
361.4999999999973
 21
-409.4234403190776
 31
0.0
  0
LINE
  5
287D
330
2DD9
100
AcDbEntity
  8
0
 62
     0
100
AcDbLine
 10
-134.1364260983573
 20
-79.0000000000009
 30
0.0
 11
145.6999999999971
 21
-265.5571410194643
 31
0.0
  0
LINE
  5
287E
330
2DD9
100
AcDbEntity
  8
0
 62
     0
100
AcDbLine
 10
145.6999999999989
 20
-262.5571744840481
 30
0.0
 11
161.0642775069809
 21
-272.7999999999974
 31
0.0
  0
LINE
  5
287F
330
2DD9
100
AcDbEntity
  8
0
 62
     0
100
AcDbLine
 10
161.0642775069845
 20
-272.7999999999993
 30
0.0
 11
361.4999999999973
 21
-406.4234737836613
 31
0.0
  0
LINE
  5
2880
330
2DD9
100
AcDbEntity
  8
0
 62
     0
100
AcDbLine
 10
-129.6364648044718
 20
-79.0
 30
0.0
 11
145.6999999999962
 21
-262.5571744840463
 31
0.0
  0
LINE
  5
2881
330
2DD9
100
AcDbEntity
  8
0
 62
     0
100
AcDbLine
 10
145.6999999999998
 20
-259.5572079486328
 30
0.0
 11
165.5642388008682
 21
-272.7999999999993
 31
0.0
  0
LINE
  5
2882
330
2DD9
100
AcDbEntity
  8
0
 62
     0
100
AcDbLine
 10
165.56423880087
 20
-272.8000000000001
 30
0.0
 11
361.4999999999982
 21
-403.4235072482458
 31
0.0
  0
LINE
  5
2883
330
2DD9
100
AcDbEntity
  8
0
 62
     0
100
AcDbLine
 10
-125.1365035105855
 20
-79.0000000000009
 30
0.0
 11
145.6999999999971
 21
-259.557207948631
 31
0.0
  0
LINE
  5
2884
330
2DD9
100
AcDbEntity
  8
0
 62
     0
100
AcDbLine
 10
145.6999999999998
 20
-256.5572414132166
 30
0.0
 11
170.0642000947546
 21
-272.7999999999984
 31
0.0
  0
LINE
  5
2885
330
2DD9
100
AcDbEntity
  8
0
 62
     0
100
AcDbLine
 10
170.0642000947564
 20
-272.7999999999993
 30
0.0
 11
361.4999999999982
 21
-400.4235407128289
 31
0.0
  0
LINE
  5
2886
330
2DD9
100
AcDbEntity
  8
0
 62
     0
100
AcDbLine
 10
-120.6365422167009
 20
-79.0
 30
0.0
 11
145.6999999999971
 21
-256.5572414132139
 31
0.0
  0
LINE
  5
2887
330
2DD9
100
AcDbEntity
  8
0
 62
     0
100
AcDbLine
 10
145.6999999999998
 20
-253.5572748778013
 30
0.0
 11
174.5641613886382
 21
-272.7999999999984
 31
0.0
  0
LINE
  5
2888
330
2DD9
100
AcDbEntity
  8
0
 62
     0
100
AcDbLine
 10
174.5641613886409
 20
-272.8000000000001
 30
0.0
 11
361.4999999999982
 21
-397.4235741774137
 31
0.0
  0
LINE
  5
2889
330
2DD9
100
AcDbEntity
  8
0
 62
     0
100
AcDbLine
 10
-116.1365809228146
 20
-79.0000000000009
 30
0.0
 11
145.6999999999971
 21
-253.5572748777995
 31
0.0
  0
LINE
  5
288A
330
2DD9
100
AcDbEntity
  8
0
 62
     0
100
AcDbLine
 10
145.6999999999998
 20
-250.5573083423842
 30
0.0
 11
179.0641226825237
 21
-272.7999999999974
 31
0.0
  0
LINE
  5
288B
330
2DD9
100
AcDbEntity
  8
0
 62
     0
100
AcDbLine
 10
179.0641226825273
 20
-272.8000000000001
 30
0.0
 11
361.4999999999964
 21
-394.4236076419957
 31
0.0
  0
LINE
  5
288C
330
2DD9
100
AcDbEntity
  8
0
 62
     0
100
AcDbLine
 10
-111.63661962893
 20
-79.0
 30
0.0
 11
145.6999999999971
 21
-250.5573083423824
 31
0.0
  0
LINE
  5
288D
330
2DD9
100
AcDbEntity
  8
0
 62
     0
100
AcDbLine
 10
145.6999999999989
 20
-247.557341806968
 30
0.0
 11
183.5640839764101
 21
-272.7999999999993
 31
0.0
  0
LINE
  5
288E
330
2DD9
100
AcDbEntity
  8
0
 62
     0
100
AcDbLine
 10
183.5640839764118
 20
-272.8000000000001
 30
0.0
 11
361.4999999999982
 21
-391.4236411065822
 31
0.0
  0
LINE
  5
288F
330
2DD9
100
AcDbEntity
  8
0
 62
     0
100
AcDbLine
 10
-107.1366583350436
 20
-79.00000000000182
 30
0.0
 11
145.6999999999971
 21
-247.5573418069671
 31
0.0
  0
LINE
  5
2890
330
2DD9
100
AcDbEntity
  8
0
 62
     0
100
AcDbLine
 10
145.6999999999989
 20
-244.5573752715509
 30
0.0
 11
188.0640452702964
 21
-272.7999999999993
 31
0.0
  0
LINE
  5
2891
330
2DD9
100
AcDbEntity
  8
0
 62
     0
100
AcDbLine
 10
188.0640452702983
 20
-272.8000000000001
 30
0.0
 11
361.4999999999964
 21
-388.4236745711642
 31
0.0
  0
LINE
  5
2892
330
2DD9
100
AcDbEntity
  8
0
 62
     0
100
AcDbLine
 10
-102.6366970411572
 20
-79.0000000000009
 30
0.0
 11
145.6999999999971
 21
-244.55737527155
 31
0.0
  0
LINE
  5
2893
330
2DD9
100
AcDbEntity
  8
0
 62
     0
100
AcDbLine
 10
145.6999999999998
 20
-241.5574087361356
 30
0.0
 11
192.5640065641801
 21
-272.7999999999984
 31
0.0
  0
LINE
  5
2894
330
2DD9
100
AcDbEntity
  8
0
 62
     0
100
AcDbLine
 10
192.5640065641846
 20
-272.800000000002
 30
0.0
 11
361.4999999999973
 21
-385.4237080357489
 31
0.0
  0
LINE
  5
2895
330
2DD9
100
AcDbEntity
  8
0
 62
     0
100
AcDbLine
 10
-98.13673574726999
 20
-79.0000000000027
 30
0.0
 11
145.699999999998
 21
-241.5574087361347
 31
0.0
  0
LINE
  5
2896
330
2DD9
100
AcDbEntity
  8
0
 62
     0
100
AcDbLine
 10
145.6999999999998
 20
-238.5574422007194
 30
0.0
 11
197.0639678580664
 21
-272.7999999999984
 31
0.0
  0
LINE
  5
2897
330
2DD9
100
AcDbEntity
  8
0
 62
     0
100
AcDbLine
 10
197.0639678580701
 20
-272.8000000000001
 30
0.0
 11
361.4999999999973
 21
-382.4237415003318
 31
0.0
  0
LINE
  5
2898
330
2DD9
100
AcDbEntity
  8
0
 62
     0
100
AcDbLine
 10
-93.63677445338726
 20
-79.0
 30
0.0
 11
145.699999999998
 21
-238.5574422007185
 31
0.0
  0
LINE
  5
2899
330
2DD9
100
AcDbEntity
  8
0
 62
     0
100
AcDbLine
 10
145.6999999999998
 20
-235.5574756653041
 30
0.0
 11
201.5639291519528
 21
-272.8000000000001
 31
0.0
  0
LINE
  5
289A
330
2DD9
100
AcDbEntity
  8
0
 62
     0
100
AcDbLine
 10
201.5639291519556
 20
-272.800000000002
 30
0.0
 11
361.4999999999973
 21
-379.4237749649164
 31
0.0
  0
LINE
  5
289B
330
2DD9
100
AcDbEntity
  8
0
 62
     0
100
AcDbLine
 10
-89.13681315950091
 20
-79.00000000000182
 30
0.0
 11
145.6999999999962
 21
-235.5574756653023
 31
0.0
  0
LINE
  5
289C
330
2DD9
100
AcDbEntity
  8
0
 62
     0
100
AcDbLine
 10
145.699999999998
 20
-232.5575091298861
 30
0.0
 11
206.0638904458392
 21
-272.7999999999993
 31
0.0
  0
LINE
  5
289D
330
2DD9
100
AcDbEntity
  8
0
 62
     0
100
AcDbLine
 10
206.0638904458401
 20
-272.8000000000001
 30
0.0
 11
361.4999999999973
 21
-376.4238084294993
 31
0.0
  0
LINE
  5
289E
330
2DD9
100
AcDbEntity
  8
0
 62
     0
100
AcDbLine
 10
-84.63685186561452
 20
-79.00000000000182
 30
0.0
 11
145.6999999999962
 21
-232.5575091298851
 31
0.0
  0
LINE
  5
289F
330
2DD9
100
AcDbEntity
  8
0
 62
     0
100
AcDbLine
 10
145.6999999999998
 20
-229.5575425944698
 30
0.0
 11
210.563851739722
 21
-272.7999999999974
 31
0.0
  0
LINE
  5
28A0
330
2DD9
100
AcDbEntity
  8
0
 62
     0
100
AcDbLine
 10
210.5638517397256
 20
-272.7999999999993
 30
0.0
 11
361.4999999999973
 21
-373.4238418940831
 31
0.0
  0
LINE
  5
28A1
330
2DD9
100
AcDbEntity
  8
0
 62
     0
100
AcDbLine
 10
-80.13689057173179
 20
-78.99999999999909
 30
0.0
 11
145.6999999999962
 21
-229.557542594468
 31
0.0
  0
LINE
  5
28A2
330
2DD9
100
AcDbEntity
  8
0
 62
     0
100
AcDbLine
 10
145.699999999998
 20
-226.5575760590536
 30
0.0
 11
215.0638130336083
 21
-272.7999999999984
 31
0.0
  0
LINE
  5
28A3
330
2DD9
100
AcDbEntity
  8
0
 62
     0
100
AcDbLine
 10
215.0638130336101
 20
-272.7999999999993
 30
0.0
 11
361.4999999999973
 21
-370.4238753586678
 31
0.0
  0
LINE
  5
28A4
330
2DD9
100
AcDbEntity
  8
0
 62
     0
100
AcDbLine
 10
-75.6369292778454
 20
-79.0000000000009
 30
0.0
 11
145.6999999999962
 21
-226.5575760590528
 31
0.0
  0
LINE
  5
28A5
330
2DD9
100
AcDbEntity
  8
0
 62
     0
100
AcDbLine
 10
145.6999999999989
 20
-223.5576095236374
 30
0.0
 11
219.5637743274956
 21
-272.7999999999984
 31
0.0
  0
LINE
  5
28A6
330
2DD9
100
AcDbEntity
  8
0
 62
     0
100
AcDbLine
 10
219.5637743274974
 20
-272.7999999999993
 30
0.0
 11
361.4999999999973
 21
-367.4239088232498
 31
0.0
  0
LINE
  5
28A7
330
2DD9
100
AcDbEntity
  8
0
 62
     0
100
AcDbLine
 10
-71.13696798395811
 20
-79.0000000000009
 30
0.0
 11
145.6999999999971
 21
-223.5576095236356
 31
0.0
  0
LINE
  5
28A8
330
2DD9
100
AcDbEntity
  8
0
 62
     0
100
AcDbLine
 10
145.6999999999989
 20
-220.5576429882222
 30
0.0
 11
224.0637356213783
 21
-272.7999999999974
 31
0.0
  0
LINE
  5
28A9
330
2DD9
100
AcDbEntity
  8
0
 62
     0
100
AcDbLine
 10
224.063735621382
 20
-272.8000000000001
 30
0.0
 11
361.4999999999982
 21
-364.4239422878354
 31
0.0
  0
LINE
  5
28AA
330
2DD9
100
AcDbEntity
  8
0
 62
     0
100
AcDbLine
 10
-66.63700669007176
 20
-79.00000000000182
 30
0.0
 11
145.6999999999971
 21
-220.5576429882212
 31
0.0
  0
LINE
  5
28AB
330
2DD9
100
AcDbEntity
  8
0
 62
     0
100
AcDbLine
 10
145.6999999999989
 20
-217.557676452805
 30
0.0
 11
228.5636969152647
 21
-272.7999999999974
 31
0.0
  0
LINE
  5
28AC
330
2DD9
100
AcDbEntity
  8
0
 62
     0
100
AcDbLine
 10
228.5636969152683
 20
-272.7999999999993
 30
0.0
 11
361.4999999999973
 21
-361.4239757524174
 31
0.0
  0
LINE
  5
28AD
330
2DD9
100
AcDbEntity
  8
0
 62
     0
100
AcDbLine
 10
-62.13704539618539
 20
-79.00000000000182
 30
0.0
 11
145.6999999999971
 21
-217.5576764528041
 31
0.0
  0
LINE
  5
28AE
330
2DD9
100
AcDbEntity
  8
0
 62
     0
100
AcDbLine
 10
145.6999999999989
 20
-214.5577099173897
 30
0.0
 11
233.0636582091511
 21
-272.7999999999993
 31
0.0
  0
LINE
  5
28AF
330
2DD9
100
AcDbEntity
  8
0
 62
     0
100
AcDbLine
 10
233.0636582091528
 20
-272.8000000000001
 30
0.0
 11
361.4999999999973
 21
-358.424009217003
 31
0.0
  0
LINE
  5
28B0
330
2DD9
100
AcDbEntity
  8
0
 62
     0
100
AcDbLine
 10
-57.63708410230265
 20
-79.0000000000009
 30
0.0
 11
145.6999999999971
 21
-214.5577099173888
 31
0.0
  0
LINE
  5
28B1
330
2DD9
100
AcDbEntity
  8
0
 62
     0
100
AcDbLine
 10
145.6999999999989
 20
-211.5577433819726
 30
0.0
 11
237.5636195030375
 21
-272.7999999999984
 31
0.0
  0
LINE
  5
28B2
330
2DD9
100
AcDbEntity
  8
0
 62
     0
100
AcDbLine
 10
237.5636195030383
 20
-272.8000000000001
 30
0.0
 11
361.4999999999973
 21
-355.4240426815858
 31
0.0
  0
LINE
  5
28B3
330
2DD9
100
AcDbEntity
  8
0
 62
     0
100
AcDbLine
 10
-53.13712280841627
 20
-79.0000000000009
 30
0.0
 11
145.6999999999971
 21
-211.5577433819717
 31
0.0
  0
LINE
  5
28B4
330
2DD9
100
AcDbEntity
  8
0
 62
     0
100
AcDbLine
 10
145.6999999999989
 20
-208.5577768465582
 30
0.0
 11
242.0635807969202
 21
-272.7999999999984
 31
0.0
  0
LINE
  5
28B5
330
2DD9
100
AcDbEntity
  8
0
 62
     0
100
AcDbLine
 10
242.0635807969247
 20
-272.8000000000011
 30
0.0
 11
361.4999999999973
 21
-352.4240761461706
 31
0.0
  0
LINE
  5
28B6
330
2DD9
100
AcDbEntity
  8
0
 62
     0
100
AcDbLine
 10
-48.63716151452988
 20
-79.0000000000027
 30
0.0
 11
145.6999999999962
 21
-208.5577768465554
 31
0.0
  0
LINE
  5
28B7
330
2DD9
100
AcDbEntity
  8
0
 62
     0
100
AcDbLine
 10
145.699999999998
 20
-205.5578103111402
 30
0.0
 11
246.5635420908075
 21
-272.7999999999984
 31
0.0
  0
LINE
  5
28B8
330
2DD9
100
AcDbEntity
  8
0
 62
     0
100
AcDbLine
 10
246.5635420908101
 20
-272.8000000000001
 30
0.0
 11
361.4999999999982
 21
-349.4241096107535
 31
0.0
  0
LINE
  5
28B9
330
2DD9
100
AcDbEntity
  8
0
 62
     0
100
AcDbLine
 10
-44.1372002206426
 20
-79.00000000000182
 30
0.0
 11
145.6999999999971
 21
-205.5578103111393
 31
0.0
  0
LINE
  5
28BA
330
2DD9
100
AcDbEntity
  8
0
 62
     0
100
AcDbLine
 10
145.6999999999998
 20
-202.5578437757256
 30
0.0
 11
251.0635033846938
 21
-272.7999999999993
 31
0.0
  0
LINE
  5
28BB
330
2DD9
100
AcDbEntity
  8
0
 62
     0
100
AcDbLine
 10
251.0635033846966
 20
-272.8000000000011
 30
0.0
 11
361.4999999999982
 21
-346.4241430753383
 31
0.0
  0
LINE
  5
28BC
330
2DD9
100
AcDbEntity
  8
0
 62
     0
100
AcDbLine
 10
-39.63723892675989
 20
-79.00000000000182
 30
0.0
 11
145.6999999999971
 21
-202.557843775724
 31
0.0
  0
LINE
  5
28BD
330
2DD9
100
AcDbEntity
  8
0
 62
     0
100
AcDbLine
 10
145.699999999998
 20
-199.5578772403077
 30
0.0
 11
255.5634646785802
 21
-272.7999999999993
 31
0.0
  0
LINE
  5
28BE
330
2DD9
100
AcDbEntity
  8
0
 62
     0
100
AcDbLine
 10
255.5634646785811
 20
-272.8000000000001
 30
0.0
 11
361.4999999999982
 21
-343.424176539922
 31
0.0
  0
LINE
  5
28BF
330
2DD9
100
AcDbEntity
  8
0
 62
     0
100
AcDbLine
 10
-35.13727763287352
 20
-79.0000000000009
 30
0.0
 11
145.6999999999971
 21
-199.5578772403069
 31
0.0
  0
LINE
  5
28C0
330
2DD9
100
AcDbEntity
  8
0
 62
     0
100
AcDbLine
 10
145.699999999998
 20
-196.5579107048924
 30
0.0
 11
260.0634259724629
 21
-272.7999999999984
 31
0.0
  0
LINE
  5
28C1
330
2DD9
100
AcDbEntity
  8
0
 62
     0
100
AcDbLine
 10
260.0634259724675
 20
-272.800000000002
 30
0.0
 11
361.4999999999964
 21
-340.4242100045058
 31
0.0
  0
LINE
  5
28C2
330
2DD9
100
AcDbEntity
  8
0
 62
     0
100
AcDbLine
 10
-30.63731633898715
 20
-79.0000000000027
 30
0.0
 11
145.6999999999971
 21
-196.5579107048916
 31
0.0
  0
LINE
  5
28C3
330
2DD9
100
AcDbEntity
  8
0
 62
     0
100
AcDbLine
 10
145.6999999999989
 20
-193.5579441694754
 30
0.0
 11
264.5633872663493
 21
-272.7999999999984
 31
0.0
  0
LINE
  5
28C4
330
2DD9
100
AcDbEntity
  8
0
 62
     0
100
AcDbLine
 10
264.563387266352
 20
-272.8000000000001
 30
0.0
 11
361.4999999999982
 21
-337.4242434690895
 31
0.0
  0
LINE
  5
28C5
330
2DD9
100
AcDbEntity
  8
0
 62
     0
100
AcDbLine
 10
-26.13735504510442
 20
-79.0
 30
0.0
 11
145.6999999999971
 21
-193.5579441694745
 31
0.0
  0
LINE
  5
28C6
330
2DD9
100
AcDbEntity
  8
0
 62
     0
100
AcDbLine
 10
145.6999999999989
 20
-190.5579776340609
 30
0.0
 11
269.0633485602357
 21
-272.8000000000001
 31
0.0
  0
LINE
  5
28C7
330
2DD9
100
AcDbEntity
  8
0
 62
     0
100
AcDbLine
 10
269.0633485602365
 20
-272.8000000000011
 30
0.0
 11
361.4999999999964
 21
-334.4242769336734
 31
0.0
  0
LINE
  5
28C8
330
2DD9
100
AcDbEntity
  8
0
 62
     0
100
AcDbLine
 10
-21.63739375121804
 20
-79.00000000000182
 30
0.0
 11
145.6999999999971
 21
-190.5579776340601
 31
0.0
  0
LINE
  5
28C9
330
2DD9
100
AcDbEntity
  8
0
 62
     0
100
AcDbLine
 10
145.6999999999998
 20
-187.5580110986436
 30
0.0
 11
273.563309854123
 21
-272.7999999999993
 31
0.0
  0
LINE
  5
28CA
330
2DD9
100
AcDbEntity
  8
0
 62
     0
100
AcDbLine
 10
273.563309854123
 20
-272.7999999999993
 30
0.0
 11
361.4999999999973
 21
-331.4243103982562
 31
0.0
  0
LINE
  5
28CB
330
2DD9
100
AcDbEntity
  8
0
 62
     0
100
AcDbLine
 10
-17.13743245733076
 20
-79.00000000000182
 30
0.0
 11
145.6999999999962
 21
-187.558011098642
 31
0.0
  0
LINE
  5
28CC
330
2DD9
100
AcDbEntity
  8
0
 62
     0
100
AcDbLine
 10
145.6999999999998
 20
-184.5580445632267
 30
0.0
 11
278.0632711480057
 21
-272.7999999999974
 31
0.0
  0
LINE
  5
28CD
330
2DD9
100
AcDbEntity
  8
0
 62
     0
100
AcDbLine
 10
278.0632711480084
 20
-272.7999999999993
 30
0.0
 11
361.4999999999973
 21
-328.4243438628391
 31
0.0
  0
LINE
  5
28CE
330
2DD9
100
AcDbEntity
  8
0
 62
     0
100
AcDbLine
 10
-12.63747116344439
 20
-79.0000000000009
 30
0.0
 11
145.699999999998
 21
-184.5580445632257
 31
0.0
  0
LINE
  5
28CF
330
2DD9
100
AcDbEntity
  8
0
 62
     0
100
AcDbLine
 10
145.6999999999998
 20
-181.5580780278114
 30
0.0
 11
282.5632324418921
 21
-272.7999999999984
 31
0.0
  0
LINE
  5
28D0
330
2DD9
100
AcDbEntity
  8
0
 62
     0
100
AcDbLine
 10
282.5632324418939
 20
-272.8000000000001
 30
0.0
 11
361.4999999999973
 21
-325.4243773274247
 31
0.0
  0
LINE
  5
28D1
330
2DD9
100
AcDbEntity
  8
0
 62
     0
100
AcDbLine
 10
-8.137509869561654
 20
-79.0000000000009
 30
0.0
 11
145.6999999999962
 21
-181.5580780278096
 31
0.0
  0
LINE
  5
28D2
330
2DD9
100
AcDbEntity
  8
0
 62
     0
100
AcDbLine
 10
145.699999999998
 20
-178.5581114923934
 30
0.0
 11
287.0631937357785
 21
-272.7999999999984
 31
0.0
  0
LINE
  5
28D3
330
2DD9
100
AcDbEntity
  8
0
 62
     0
100
AcDbLine
 10
287.0631937357794
 20
-272.7999999999993
 30
0.0
 11
361.4999999999973
 21
-322.4244107920076
 31
0.0
  0
LINE
  5
28D4
330
2DD9
100
AcDbEntity
  8
0
 62
     0
100
AcDbLine
 10
-3.637548575675281
 20
-79.0000000000009
 30
0.0
 11
145.6999999999962
 21
-178.5581114923925
 31
0.0
  0
LINE
  5
28D5
330
2DD9
100
AcDbEntity
  8
0
 62
     0
100
AcDbLine
 10
145.6999999999998
 20
-175.5581449569799
 30
0.0
 11
291.5631550296612
 21
-272.7999999999984
 31
0.0
  0
LINE
  5
28D6
330
2DD9
100
AcDbEntity
  8
0
 62
     0
100
AcDbLine
 10
291.5631550296657
 20
-272.8000000000011
 30
0.0
 11
361.4999999999973
 21
-319.4244442565923
 31
0.0
  0
LINE
  5
28D7
330
2DD9
100
AcDbEntity
  8
0
 62
     0
100
AcDbLine
 10
0.8624127182110894
 20
-79.00000000000182
 30
0.0
 11
145.699999999998
 21
-175.558144956979
 31
0.0
  0
LINE
  5
28D8
330
2DD9
100
AcDbEntity
  8
0
 62
     0
100
AcDbLine
 10
145.6999999999989
 20
-172.5581784215618
 30
0.0
 11
296.0631163235484
 21
-272.7999999999974
 31
0.0
  0
LINE
  5
28D9
330
2DD9
100
AcDbEntity
  8
0
 62
     0
100
AcDbLine
 10
296.0631163235512
 20
-272.7999999999993
 30
0.0
 11
361.4999999999982
 21
-316.4244777211752
 31
0.0
  0
LINE
  5
28DA
330
2DD9
100
AcDbEntity
  8
0
 62
     0
100
AcDbLine
 10
5.362374012097459
 20
-79.00000000000182
 30
0.0
 11
145.6999999999989
 21
-172.5581784215618
 31
0.0
  0
LINE
  5
28DB
330
2DD9
100
AcDbEntity
  8
0
 62
     0
100
AcDbLine
 10
145.6999999999989
 20
-169.5582118861466
 30
0.0
 11
300.5630776174348
 21
-272.7999999999993
 31
0.0
  0
LINE
  5
28DC
330
2DD9
100
AcDbEntity
  8
0
 62
     0
100
AcDbLine
 10
300.5630776174375
 20
-272.8000000000011
 30
0.0
 11
361.4999999999973
 21
-313.424511185759
 31
0.0
  0
LINE
  5
28DD
330
2DD9
100
AcDbEntity
  8
0
 62
     0
100
AcDbLine
 10
9.86233530598383
 20
-79.00000000000365
 30
0.0
 11
145.6999999999989
 21
-169.5582118861466
 31
0.0
  0
LINE
  5
28DE
330
2DD9
100
AcDbEntity
  8
0
 62
     0
100
AcDbLine
 10
145.6999999999989
 20
-166.5582453507294
 30
0.0
 11
305.0630389113212
 21
-272.7999999999984
 31
0.0
  0
LINE
  5
28DF
330
2DD9
100
AcDbEntity
  8
0
 62
     0
100
AcDbLine
 10
305.0630389113221
 20
-272.8000000000001
 30
0.0
 11
361.4999999999982
 21
-310.4245446503437
 31
0.0
  0
LINE
  5
28E0
330
2DD9
100
AcDbEntity
  8
0
 62
     0
100
AcDbLine
 10
14.36229659986748
 20
-79.0000000000009
 30
0.0
 11
145.6999999999989
 21
-166.5582453507294
 31
0.0
  0
LINE
  5
28E1
330
2DD9
100
AcDbEntity
  8
0
 62
     0
100
AcDbLine
 10
145.6999999999989
 20
-163.5582788153141
 30
0.0
 11
309.5630002052039
 21
-272.7999999999984
 31
0.0
  0
LINE
  5
28E2
330
2DD9
100
AcDbEntity
  8
0
 62
     0
100
AcDbLine
 10
309.5630002052085
 20
-272.8000000000011
 30
0.0
 11
361.4999999999973
 21
-307.4245781149275
 31
0.0
  0
LINE
  5
28E3
330
2DD9
100
AcDbEntity
  8
0
 62
     0
100
AcDbLine
 10
18.86225789375385
 20
-79.0000000000027
 30
0.0
 11
145.6999999999989
 21
-163.5582788153141
 31
0.0
  0
LINE
  5
28E4
330
2DD9
100
AcDbEntity
  8
0
 62
     0
100
AcDbLine
 10
145.6999999999989
 20
-160.558312279898
 30
0.0
 11
314.0629614990903
 21
-272.7999999999984
 31
0.0
  0
LINE
  5
28E5
330
2DD9
100
AcDbEntity
  8
0
 62
     0
100
AcDbLine
 10
314.0629614990928
 20
-272.8000000000001
 30
0.0
 11
361.4999999999973
 21
-304.4246115795104
 31
0.0
  0
LINE
  5
28E6
330
2DD9
100
AcDbEntity
  8
0
 62
     0
100
AcDbLine
 10
23.36221918763931
 20
-79.00000000000182
 30
0.0
 11
145.6999999999989
 21
-160.558312279898
 31
0.0
  0
LINE
  5
28E7
330
2DD9
100
AcDbEntity
  8
0
 62
     0
100
AcDbLine
 10
145.6999999999971
 20
-157.5583457444818
 30
0.0
 11
318.5629227929767
 21
-272.7999999999993
 31
0.0
  0
LINE
  5
28E8
330
2DD9
100
AcDbEntity
  8
0
 62
     0
100
AcDbLine
 10
318.5629227929794
 20
-272.8000000000011
 30
0.0
 11
361.4999999999973
 21
-301.4246450440951
 31
0.0
  0
LINE
  5
28E9
330
2DD9
100
AcDbEntity
  8
0
 62
     0
100
AcDbLine
 10
27.86218048152296
 20
-79.00000000000182
 30
0.0
 11
145.6999999999971
 21
-157.5583457444818
 31
0.0
  0
LINE
  5
28EA
330
2DD9
100
AcDbEntity
  8
0
 62
     0
100
AcDbLine
 10
145.699999999998
 20
-154.5583792090647
 30
0.0
 11
323.062884086864
 21
-272.7999999999993
 31
0.0
  0
LINE
  5
28EB
330
2DD9
100
AcDbEntity
  8
0
 62
     0
100
AcDbLine
 10
323.0628840868649
 20
-272.8000000000001
 30
0.0
 11
361.4999999999982
 21
-298.424678508678
 31
0.0
  0
LINE
  5
28EC
330
2DD9
100
AcDbEntity
  8
0
 62
     0
100
AcDbLine
 10
32.36214177541024
 20
-79.0000000000009
 30
0.0
 11
145.699999999998
 21
-154.5583792090647
 31
0.0
  0
LINE
  5
28ED
330
2DD9
100
AcDbEntity
  8
0
 62
     0
100
AcDbLine
 10
145.699999999998
 20
-151.5584126736494
 30
0.0
 11
327.5628453807494
 21
-272.8000000000011
 31
0.0
  0
LINE
  5
28EE
330
2DD9
100
AcDbEntity
  8
0
 62
     0
100
AcDbLine
 10
327.5628453807494
 20
-272.8000000000011
 30
0.0
 11
361.4999999999982
 21
-295.4247119732636
 31
0.0
  0
LINE
  5
28EF
330
2DD9
100
AcDbEntity
  8
0
 62
     0
100
AcDbLine
 10
36.8621030692957
 20
-79.0000000000027
 30
0.0
 11
145.699999999998
 21
-151.5584126736494
 31
0.0
  0
LINE
  5
28F0
330
2DD9
100
AcDbEntity
  8
0
 62
     0
100
AcDbLine
 10
145.699999999998
 20
-148.5584461382322
 30
0.0
 11
332.0628066746331
 21
-272.7999999999984
 31
0.0
  0
LINE
  5
28F1
330
2DD9
100
AcDbEntity
  8
0
 62
     0
100
AcDbLine
 10
332.0628066746341
 20
-272.7999999999993
 30
0.0
 11
361.4999999999982
 21
-292.4247454378465
 31
0.0
  0
LINE
  5
28F2
330
2DD9
100
AcDbEntity
  8
0
 62
     0
100
AcDbLine
 10
41.36206436317934
 20
-79.0000000000009
 30
0.0
 11
145.699999999998
 21
-148.5584461382322
 31
0.0
  0
LINE
  5
28F3
330
2DD9
100
AcDbEntity
  8
0
 62
     0
100
AcDbLine
 10
145.699999999998
 20
-145.558479602816
 30
0.0
 11
336.5627679685194
 21
-272.7999999999984
 31
0.0
  0
LINE
  5
28F4
330
2DD9
100
AcDbEntity
  8
0
 62
     0
100
AcDbLine
 10
336.5627679685204
 20
-272.7999999999993
 30
0.0
 11
361.4999999999982
 21
-289.4247789024293
 31
0.0
  0
LINE
  5
28F5
330
2DD9
100
AcDbEntity
  8
0
 62
     0
100
AcDbLine
 10
45.8620256570657
 20
-79.0
 30
0.0
 11
145.699999999998
 21
-145.558479602816
 31
0.0
  0
LINE
  5
28F6
330
2DD9
100
AcDbEntity
  8
0
 62
     0
100
AcDbLine
 10
145.699999999998
 20
-142.5585130674008
 30
0.0
 11
341.0627292624022
 21
-272.7999999999974
 31
0.0
  0
LINE
  5
28F7
330
2DD9
100
AcDbEntity
  8
0
 62
     0
100
AcDbLine
 10
341.0627292624068
 20
-272.8000000000001
 30
0.0
 11
361.4999999999964
 21
-286.4248123670129
 31
0.0
  0
LINE
  5
28F8
330
2DD9
100
AcDbEntity
  8
0
 62
     0
100
AcDbLine
 10
50.36198695095208
 20
-79.00000000000182
 30
0.0
 11
145.699999999998
 21
-142.5585130674008
 31
0.0
  0
LINE
  5
28F9
330
2DD9
100
AcDbEntity
  8
0
 62
     0
100
AcDbLine
 10
145.699999999998
 20
-139.5585465319836
 30
0.0
 11
345.5626905562886
 21
-272.7999999999974
 31
0.0
  0
LINE
  5
28FA
330
2DD9
100
AcDbEntity
  8
0
 62
     0
100
AcDbLine
 10
345.5626905562913
 20
-272.7999999999993
 30
0.0
 11
361.4999999999964
 21
-283.424845831596
 31
0.0
  0
LINE
  5
28FB
330
2DD9
100
AcDbEntity
  8
0
 62
     0
100
AcDbLine
 10
54.86194824483754
 20
-79.00000000000182
 30
0.0
 11
145.699999999998
 21
-139.5585465319836
 31
0.0
  0
LINE
  5
28FC
330
2DD9
100
AcDbEntity
  8
0
 62
     0
100
AcDbLine
 10
145.6999999999998
 20
-136.5585799965683
 30
0.0
 11
350.0626518501757
 21
-272.7999999999984
 31
0.0
  0
LINE
  5
28FD
330
2DD9
100
AcDbEntity
  8
0
 62
     0
100
AcDbLine
 10
350.0626518501785
 20
-272.8000000000011
 30
0.0
 11
361.4999999999973
 21
-280.4248792961807
 31
0.0
  0
LINE
  5
28FE
330
2DD9
100
AcDbEntity
  8
0
 62
     0
100
AcDbLine
 10
59.36190953872483
 20
-79.0000000000027
 30
0.0
 11
145.6999999999998
 21
-136.5585799965683
 31
0.0
  0
LINE
  5
28FF
330
2DD9
100
AcDbEntity
  8
0
 62
     0
100
AcDbLine
 10
145.6999999999998
 20
-133.5586134611512
 30
0.0
 11
354.5626131440622
 21
-272.7999999999984
 31
0.0
  0
LINE
  5
2900
330
2DD9
100
AcDbEntity
  8
0
 62
     0
100
AcDbLine
 10
354.5626131440631
 20
-272.7999999999993
 30
0.0
 11
361.4999999999973
 21
-277.4249127607645
 31
0.0
  0
LINE
  5
2901
330
2DD9
100
AcDbEntity
  8
0
 62
     0
100
AcDbLine
 10
63.86187083260847
 20
-79.0000000000009
 30
0.0
 11
145.6999999999998
 21
-133.5586134611512
 31
0.0
  0
LINE
  5
2902
330
2DD9
100
AcDbEntity
  8
0
 62
     0
100
AcDbLine
 10
145.699999999998
 20
-130.558646925735
 30
0.0
 11
359.0625744379476
 21
-272.8000000000001
 31
0.0
  0
LINE
  5
2903
330
2DD9
100
AcDbEntity
  8
0
 62
     0
100
AcDbLine
 10
359.0625744379495
 20
-272.8000000000011
 30
0.0
 11
361.4999999999973
 21
-274.4249462253492
 31
0.0
  0
LINE
  5
2904
330
2DD9
100
AcDbEntity
  8
0
 62
     0
100
AcDbLine
 10
68.36183212649394
 20
-79.00000000000182
 30
0.0
 11
145.699999999998
 21
-130.558646925735
 31
0.0
  0
LINE
  5
2905
330
2DD9
100
AcDbEntity
  8
0
 62
     0
100
AcDbLine
 10
145.699999999998
 20
-127.5586803903188
 30
0.0
 11
361.4999999999991
 21
-271.424979689933
 31
0.0
  0
LINE
  5
2906
330
2DD9
100
AcDbEntity
  8
0
 62
     0
100
AcDbLine
 10
72.86179342038031
 20
-79.00000000000182
 30
0.0
 11
145.699999999998
 21
-127.5586803903188
 31
0.0
  0
LINE
  5
2907
330
2DD9
100
AcDbEntity
  8
0
 62
     0
100
AcDbLine
 10
145.699999999998
 20
-124.5587138549035
 30
0.0
 11
361.4999999999973
 21
-268.4250131545168
 31
0.0
  0
LINE
  5
2908
330
2DD9
100
AcDbEntity
  8
0
 62
     0
100
AcDbLine
 10
77.36175471426669
 20
-79.00000000000365
 30
0.0
 11
145.699999999998
 21
-124.5587138549035
 31
0.0
  0
LINE
  5
2909
330
2DD9
100
AcDbEntity
  8
0
 62
     0
100
AcDbLine
 10
145.699999999998
 20
-121.5587473194864
 30
0.0
 11
361.4999999999973
 21
-265.4250466190997
 31
0.0
  0
LINE
  5
290A
330
2DD9
100
AcDbEntity
  8
0
 62
     0
100
AcDbLine
 10
81.86171600815031
 20
-79.0000000000009
 30
0.0
 11
145.699999999998
 21
-121.5587473194864
 31
0.0
  0
LINE
  5
290B
330
2DD9
100
AcDbEntity
  8
0
 62
     0
100
AcDbLine
 10
145.6999999999989
 20
-118.5587807840711
 30
0.0
 11
361.4999999999982
 21
-262.4250800836853
 31
0.0
  0
LINE
  5
290C
330
2DD9
100
AcDbEntity
  8
0
 62
     0
100
AcDbLine
 10
86.36167730203665
 20
-79.0000000000027
 30
0.0
 11
145.6999999999989
 21
-118.5587807840711
 31
0.0
  0
LINE
  5
290D
330
2DD9
100
AcDbEntity
  8
0
 62
     0
100
AcDbLine
 10
145.6999999999989
 20
-115.558814248654
 30
0.0
 11
361.4999999999982
 21
-259.4251135482682
 31
0.0
  0
LINE
  5
290E
330
2DD9
100
AcDbEntity
  8
0
 62
     0
100
AcDbLine
 10
90.86163859592309
 20
-79.00000000000182
 30
0.0
 11
145.6999999999971
 21
-115.5588142486531
 31
0.0
  0
LINE
  5
290F
330
2DD9
100
AcDbEntity
  8
0
 62
     0
100
AcDbLine
 10
145.6999999999989
 20
-112.5588477132396
 30
0.0
 11
361.4999999999982
 21
-256.4251470128529
 31
0.0
  0
LINE
  5
2910
330
2DD9
100
AcDbEntity
  8
0
 62
     0
100
AcDbLine
 10
95.36159988980671
 20
-79.00000000000182
 30
0.0
 11
145.6999999999989
 21
-112.5588477132396
 31
0.0
  0
LINE
  5
2911
330
2DD9
100
AcDbEntity
  8
0
 62
     0
100
AcDbLine
 10
145.6999999999989
 20
-109.5588811778225
 30
0.0
 11
361.4999999999982
 21
-253.4251804774358
 31
0.0
  0
LINE
  5
2912
330
2DD9
100
AcDbEntity
  8
0
 62
     0
100
AcDbLine
 10
99.86156118369216
 20
-79.0000000000009
 30
0.0
 11
145.6999999999971
 21
-109.5588811778216
 31
0.0
  0
LINE
  5
2913
330
2DD9
100
AcDbEntity
  8
0
 62
     0
100
AcDbLine
 10
145.6999999999989
 20
-106.5589146424054
 30
0.0
 11
361.4999999999982
 21
-250.4252139420196
 31
0.0
  0
LINE
  5
2914
330
2DD9
100
AcDbEntity
  8
0
 62
     0
100
AcDbLine
 10
104.3615224775785
 20
-79.0000000000009
 30
0.0
 11
145.6999999999971
 21
-106.5589146424045
 31
0.0
  0
LINE
  5
2915
330
2DD9
100
AcDbEntity
  8
0
 62
     0
100
AcDbLine
 10
145.6999999999971
 20
-103.5589481069892
 30
0.0
 11
361.4999999999973
 21
-247.4252474066034
 31
0.0
  0
LINE
  5
2916
330
2DD9
100
AcDbEntity
  8
0
 62
     0
100
AcDbLine
 10
108.8614837714649
 20
-79.0000000000027
 30
0.0
 11
145.6999999999971
 21
-103.5589481069892
 31
0.0
  0
LINE
  5
2917
330
2DD9
100
AcDbEntity
  8
0
 62
     0
100
AcDbLine
 10
145.699999999998
 20
-100.5589815715721
 30
0.0
 11
361.4999999999991
 21
-244.4252808711872
 31
0.0
  0
LINE
  5
2918
330
2DD9
100
AcDbEntity
  8
0
 62
     0
100
AcDbLine
 10
113.3614450653494
 20
-79.0
 30
0.0
 11
145.699999999998
 21
-100.5589815715721
 31
0.0
  0
LINE
  5
2919
330
2DD9
100
AcDbEntity
  8
0
 62
     0
100
AcDbLine
 10
145.699999999998
 20
-97.55901503615771
 30
0.0
 11
361.4999999999982
 21
-241.425314335771
 31
0.0
  0
LINE
  5
291A
330
2DD9
100
AcDbEntity
  8
0
 62
     0
100
AcDbLine
 10
117.8614063592349
 20
-79.00000000000182
 30
0.0
 11
145.699999999998
 21
-97.55901503615771
 31
0.0
  0
LINE
  5
291B
330
2DD9
100
AcDbEntity
  8
0
 62
     0
100
AcDbLine
 10
145.699999999998
 20
-94.55904850074057
 30
0.0
 11
361.4999999999982
 21
-238.4253478003539
 31
0.0
  0
LINE
  5
291C
330
2DD9
100
AcDbEntity
  8
0
 62
     0
100
AcDbLine
 10
122.3613676531213
 20
-79.00000000000182
 30
0.0
 11
145.699999999998
 21
-94.55904850074057
 31
0.0
  0
LINE
  5
291D
330
2DD9
100
AcDbEntity
  8
0
 62
     0
100
AcDbLine
 10
145.699999999998
 20
-91.55908196532527
 30
0.0
 11
361.4999999999982
 21
-235.4253812649385
 31
0.0
  0
LINE
  5
291E
330
2DD9
100
AcDbEntity
  8
0
 62
     0
100
AcDbLine
 10
126.8613289470077
 20
-79.0000000000027
 30
0.0
 11
145.699999999998
 21
-91.55908196532527
 31
0.0
  0
LINE
  5
291F
330
2DD9
100
AcDbEntity
  8
0
 62
     0
100
AcDbLine
 10
145.699999999998
 20
-88.55911542990815
 30
0.0
 11
361.4999999999982
 21
-232.4254147295223
 31
0.0
  0
LINE
  5
2920
330
2DD9
100
AcDbEntity
  8
0
 62
     0
100
AcDbLine
 10
131.3612902408904
 20
-79.0000000000009
 30
0.0
 11
145.6999999999971
 21
-88.55911542990725
 31
0.0
  0
LINE
  5
2921
330
2DD9
100
AcDbEntity
  8
0
 62
     0
100
AcDbLine
 10
145.699999999998
 20
-85.55914889449285
 30
0.0
 11
361.4999999999982
 21
-229.4254481941071
 31
0.0
  0
LINE
  5
2922
330
2DD9
100
AcDbEntity
  8
0
 62
     0
100
AcDbLine
 10
135.8612515347768
 20
-79.00000000000182
 30
0.0
 11
145.699999999998
 21
-85.55914889449285
 31
0.0
  0
LINE
  5
2923
330
2DD9
100
AcDbEntity
  8
0
 62
     0
100
AcDbLine
 10
145.6999999999989
 20
-82.55918235907667
 30
0.0
 11
361.4999999999991
 21
-226.4254816586899
 31
0.0
  0
LINE
  5
2924
330
2DD9
100
AcDbEntity
  8
0
 62
     0
100
AcDbLine
 10
140.361212828664
 20
-79.00000000000182
 30
0.0
 11
145.699999999998
 21
-82.55918235907484
 31
0.0
  0
LINE
  5
2925
330
2DD9
100
AcDbEntity
  8
0
 62
     0
100
AcDbLine
 10
145.6999999999989
 20
-79.55921582366136
 30
0.0
 11
361.4999999999991
 21
-223.4255151232746
 31
0.0
  0
LINE
  5
2926
330
2DD9
100
AcDbEntity
  8
0
 62
     0
100
AcDbLine
 10
144.8611741225477
 20
-79.0000000000009
 30
0.0
 11
145.699999999998
 21
-79.55921582366045
 31
0.0
  0
LINE
  5
2927
330
2DD9
100
AcDbEntity
  8
0
 62
     0
100
AcDbLine
 10
149.3611354164331
 20
-79.0000000000009
 30
0.0
 11
361.4999999999973
 21
-220.4255485878566
 31
0.0
  0
LINE
  5
2928
330
2DD9
100
AcDbEntity
  8
0
 62
     0
100
AcDbLine
 10
153.8610967103194
 20
-79.0000000000027
 30
0.0
 11
361.4999999999991
 21
-217.4255820524432
 31
0.0
  0
LINE
  5
2929
330
2DD9
100
AcDbEntity
  8
0
 62
     0
100
AcDbLine
 10
158.3610580042059
 20
-79.00000000000182
 30
0.0
 11
361.4999999999973
 21
-214.4256155170251
 31
0.0
  0
LINE
  5
292A
330
2DD9
100
AcDbEntity
  8
0
 62
     0
100
AcDbLine
 10
162.8610192980886
 20
-79.0
 30
0.0
 11
361.4999999999973
 21
-211.425648981608
 31
0.0
  0
LINE
  5
292B
330
2DD9
100
AcDbEntity
  8
0
 62
     0
100
AcDbLine
 10
167.3609805919759
 20
-79.00000000000182
 30
0.0
 11
361.4999999999982
 21
-208.4256824461927
 31
0.0
  0
LINE
  5
292C
330
2DD9
100
AcDbEntity
  8
0
 62
     0
100
AcDbLine
 10
171.8609418858623
 20
-79.0000000000009
 30
0.0
 11
361.4999999999982
 21
-205.4257159107756
 31
0.0
  0
LINE
  5
292D
330
2DD9
100
AcDbEntity
  8
0
 62
     0
100
AcDbLine
 10
176.3609031797487
 20
-79.0000000000027
 30
0.0
 11
361.4999999999982
 21
-202.4257493753612
 31
0.0
  0
LINE
  5
292E
330
2DD9
100
AcDbEntity
  8
0
 62
     0
100
AcDbLine
 10
180.860864473635
 20
-79.0000000000027
 30
0.0
 11
361.4999999999973
 21
-199.4257828399431
 31
0.0
  0
LINE
  5
292F
330
2DD9
100
AcDbEntity
  8
0
 62
     0
100
AcDbLine
 10
185.3608257675178
 20
-79.00000000000182
 30
0.0
 11
361.4999999999982
 21
-196.4258163045288
 31
0.0
  0
LINE
  5
2930
330
2DD9
100
AcDbEntity
  8
0
 62
     0
100
AcDbLine
 10
189.860787061405
 20
-79.00000000000182
 30
0.0
 11
361.4999999999982
 21
-193.4258497691106
 31
0.0
  0
LINE
  5
2931
330
2DD9
100
AcDbEntity
  8
0
 62
     0
100
AcDbLine
 10
194.3607483552914
 20
-79.0000000000027
 30
0.0
 11
361.4999999999982
 21
-190.4258832336955
 31
0.0
  0
LINE
  5
2932
330
2DD9
100
AcDbEntity
  8
0
 62
     0
100
AcDbLine
 10
198.8607096491741
 20
-79.0000000000009
 30
0.0
 11
361.4999999999982
 21
-187.4259166982783
 31
0.0
  0
LINE
  5
2933
330
2DD9
100
AcDbEntity
  8
0
 62
     0
100
AcDbLine
 10
203.3606709430606
 20
-79.00000000000182
 30
0.0
 11
361.4999999999982
 21
-184.4259501628639
 31
0.0
  0
LINE
  5
2934
330
2DD9
100
AcDbEntity
  8
0
 62
     0
100
AcDbLine
 10
207.8606322369469
 20
-79.00000000000182
 30
0.0
 11
361.4999999999982
 21
-181.4259836274468
 31
0.0
  0
LINE
  5
2935
330
2DD9
100
AcDbEntity
  8
0
 62
     0
100
AcDbLine
 10
212.3605935308296
 20
-79.00000000000182
 30
0.0
 11
361.4999999999982
 21
-178.4260170920315
 31
0.0
  0
LINE
  5
2936
330
2DD9
100
AcDbEntity
  8
0
 62
     0
100
AcDbLine
 10
216.8605548247169
 20
-79.0000000000009
 30
0.0
 11
361.4999999999991
 21
-175.4260505566144
 31
0.0
  0
LINE
  5
2937
330
2DD9
100
AcDbEntity
  8
0
 62
     0
100
AcDbLine
 10
221.3605161186033
 20
-79.0000000000009
 30
0.0
 11
361.4999999999973
 21
-172.4260840211964
 31
0.0
  0
LINE
  5
2938
330
2DD9
100
AcDbEntity
  8
0
 62
     0
100
AcDbLine
 10
225.8604774124897
 20
-79.0000000000027
 30
0.0
 11
361.4999999999973
 21
-169.4261174857819
 31
0.0
  0
LINE
  5
2939
330
2DD9
100
AcDbEntity
  8
0
 62
     0
100
AcDbLine
 10
230.3604387063761
 20
-79.00000000000182
 30
0.0
 11
361.4999999999973
 21
-166.4261509503649
 31
0.0
  0
LINE
  5
293A
330
2DD9
100
AcDbEntity
  8
0
 62
     0
100
AcDbLine
 10
234.8604000002588
 20
-79.00000000000182
 30
0.0
 11
361.4999999999973
 21
-163.4261844149496
 31
0.0
  0
LINE
  5
293B
330
2DD9
100
AcDbEntity
  8
0
 62
     0
100
AcDbLine
 10
239.3603612941451
 20
-79.0000000000009
 30
0.0
 11
361.4999999999973
 21
-160.4262178795324
 31
0.0
  0
LINE
  5
293C
330
2DD9
100
AcDbEntity
  8
0
 62
     0
100
AcDbLine
 10
243.8603225880324
 20
-79.0000000000027
 30
0.0
 11
361.4999999999982
 21
-157.4262513441172
 31
0.0
  0
LINE
  5
293D
330
2DD9
100
AcDbEntity
  8
0
 62
     0
100
AcDbLine
 10
248.3602838819179
 20
-79.0000000000027
 30
0.0
 11
361.4999999999982
 21
-154.426284808701
 31
0.0
  0
LINE
  5
293E
330
2DD9
100
AcDbEntity
  8
0
 62
     0
100
AcDbLine
 10
252.8602451758015
 20
-79.00000000000182
 30
0.0
 11
361.4999999999982
 21
-151.4263182732857
 31
0.0
  0
LINE
  5
293F
330
2DD9
100
AcDbEntity
  8
0
 62
     0
100
AcDbLine
 10
257.3602064696879
 20
-79.00000000000182
 30
0.0
 11
361.4999999999982
 21
-148.4263517378686
 31
0.0
  0
LINE
  5
2940
330
2DD9
100
AcDbEntity
  8
0
 62
     0
100
AcDbLine
 10
261.8601677635707
 20
-79.0000000000009
 30
0.0
 11
361.4999999999973
 21
-145.4263852024523
 31
0.0
  0
LINE
  5
2941
330
2DD9
100
AcDbEntity
  8
0
 62
     0
100
AcDbLine
 10
266.3601290574571
 20
-79.0000000000009
 30
0.0
 11
361.4999999999973
 21
-142.4264186670352
 31
0.0
  0
LINE
  5
2942
330
2DD9
100
AcDbEntity
  8
0
 62
     0
100
AcDbLine
 10
270.8600903513443
 20
-79.00000000000182
 30
0.0
 11
361.4999999999982
 21
-139.4264521316199
 31
0.0
  0
LINE
  5
2943
330
2DD9
100
AcDbEntity
  8
0
 62
     0
100
AcDbLine
 10
275.3600516452307
 20
-79.00000000000182
 30
0.0
 11
361.4999999999982
 21
-136.4264855962037
 31
0.0
  0
LINE
  5
2944
330
2DD9
100
AcDbEntity
  8
0
 62
     0
100
AcDbLine
 10
279.8600129391161
 20
-79.00000000000365
 30
0.0
 11
361.4999999999982
 21
-133.4265190607884
 31
0.0
  0
LINE
  5
2945
330
2DD9
100
AcDbEntity
  8
0
 62
     0
100
AcDbLine
 10
284.3599742329998
 20
-79.0000000000009
 30
0.0
 11
361.4999999999982
 21
-130.4265525253713
 31
0.0
  0
LINE
  5
2946
330
2DD9
100
AcDbEntity
  8
0
 62
     0
100
AcDbLine
 10
288.8599355268862
 20
-79.0000000000009
 30
0.0
 11
361.4999999999982
 21
-127.4265859899542
 31
0.0
  0
LINE
  5
2947
330
2DD9
100
AcDbEntity
  8
0
 62
     0
100
AcDbLine
 10
293.3598968207725
 20
-79.0000000000027
 30
0.0
 11
361.4999999999982
 21
-124.4266194545389
 31
0.0
  0
LINE
  5
2948
330
2DD9
100
AcDbEntity
  8
0
 62
     0
100
AcDbLine
 10
297.8598581146589
 20
-79.00000000000182
 30
0.0
 11
361.4999999999991
 21
-121.4266529191227
 31
0.0
  0
LINE
  5
2949
330
2DD9
100
AcDbEntity
  8
0
 62
     0
100
AcDbLine
 10
302.3598194085425
 20
-79.00000000000182
 30
0.0
 11
361.4999999999973
 21
-118.4266863837065
 31
0.0
  0
LINE
  5
294A
330
2DD9
100
AcDbEntity
  8
0
 62
     0
100
AcDbLine
 10
306.8597807024289
 20
-79.0000000000009
 30
0.0
 11
361.4999999999973
 21
-115.4267198482894
 31
0.0
  0
LINE
  5
294B
330
2DD9
100
AcDbEntity
  8
0
 62
     0
100
AcDbLine
 10
311.3597419963144
 20
-79.0000000000027
 30
0.0
 11
361.4999999999973
 21
-112.4267533128741
 31
0.0
  0
LINE
  5
294C
330
2DD9
100
AcDbEntity
  8
0
 62
     0
100
AcDbLine
 10
315.859703290198
 20
-79.0
 30
0.0
 11
361.4999999999973
 21
-109.426786777457
 31
0.0
  0
LINE
  5
294D
330
2DD9
100
AcDbEntity
  8
0
 62
     0
100
AcDbLine
 10
320.3596645840844
 20
-79.00000000000182
 30
0.0
 11
361.4999999999973
 21
-106.4268202420426
 31
0.0
  0
LINE
  5
294E
330
2DD9
100
AcDbEntity
  8
0
 62
     0
100
AcDbLine
 10
324.8596258779717
 20
-79.00000000000182
 30
0.0
 11
361.4999999999973
 21
-103.4268537066245
 31
0.0
  0
LINE
  5
294F
330
2DD9
100
AcDbEntity
  8
0
 62
     0
100
AcDbLine
 10
329.3595871718571
 20
-79.0000000000027
 30
0.0
 11
361.4999999999982
 21
-100.4268871712101
 31
0.0
  0
LINE
  5
2950
330
2DD9
100
AcDbEntity
  8
0
 62
     0
100
AcDbLine
 10
333.8595484657408
 20
-79.0000000000009
 30
0.0
 11
361.4999999999973
 21
-97.42692063579216
 31
0.0
  0
LINE
  5
2951
330
2DD9
100
AcDbEntity
  8
0
 62
     0
100
AcDbLine
 10
338.3595097596272
 20
-79.0000000000027
 30
0.0
 11
361.4999999999973
 21
-94.42695410037686
 31
0.0
  0
LINE
  5
2952
330
2DD9
100
AcDbEntity
  8
0
 62
     0
100
AcDbLine
 10
342.8594710535126
 20
-79.00000000000182
 30
0.0
 11
361.4999999999973
 21
-91.42698756495972
 31
0.0
  0
LINE
  5
2953
330
2DD9
100
AcDbEntity
  8
0
 62
     0
100
AcDbLine
 10
347.3594323473989
 20
-79.00000000000182
 30
0.0
 11
361.4999999999973
 21
-88.42702102954348
 31
0.0
  0
LINE
  5
2954
330
2DD9
100
AcDbEntity
  8
0
 62
     0
100
AcDbLine
 10
351.8593936412835
 20
-79.0000000000009
 30
0.0
 11
361.4999999999982
 21
-85.42705449412824
 31
0.0
  0
LINE
  5
2955
330
2DD9
100
AcDbEntity
  8
0
 62
     0
100
AcDbLine
 10
356.3593549351699
 20
-79.0000000000009
 30
0.0
 11
361.4999999999982
 21
-82.42708795871113
 31
0.0
  0
LINE
  5
2956
330
2DD9
100
AcDbEntity
  8
0
 62
     0
100
AcDbLine
 10
360.8593162290554
 20
-79.0000000000027
 30
0.0
 11
361.4999999999982
 21
-79.42712142329583
 31
0.0
  0
ENDBLK
  5
2957
330
2DD9
100
AcDbEntity
  8
0
100
AcDbBlockEnd
  0
BLOCK
  5
2DDC
330
2DDB
100
AcDbEntity
  8
0
100
AcDbBlockBegin
  2
*U68
 70
     1
 10
0.0
 20
0.0
 30
0.0
  3
*U68
  1

  0
INSERT
  5
295A
330
2DDB
100
AcDbEntity
  8
NOTE
100
AcDbBlockReference
  2
_OPEN30
 10
-400.0
 20
0.0
 30
0.0
 41
12.0
 42
12.0
 43
12.0
 50
312.6090116116894
  0
POLYLINE
  5
295B
330
2DDB
100
AcDbEntity
  8
NOTE
100
AcDb2dPolyline
 66
     1
 10
0.0
 20
0.0
 30
0.0
  0
VERTEX
  5
295C
330
295B
100
AcDbEntity
  8
NOTE
100
AcDbVertex
100
AcDb2dVertex
 10
-408.1239008361895
 20
8.831887408915472
 30
0.0
  0
VERTEX
  5
295D
330
295B
100
AcDbEntity
  8
NOTE
100
AcDbVertex
100
AcDb2dVertex
 10
-487.8693999922543
 20
95.52709505801338
 30
0.0
  0
VERTEX
  5
295E
330
295B
100
AcDbEntity
  8
NOTE
100
AcDbVertex
100
AcDb2dVertex
 10
-1077.595114277968
 20
95.52709505801338
 30
0.0
  0
SEQEND
  5
295F
330
295B
100
AcDbEntity
  8
NOTE
  0
ENDBLK
  5
2960
330
2DDB
100
AcDbEntity
  8
0
100
AcDbBlockEnd
  0
BLOCK
  5
2DDE
330
2DDD
100
AcDbEntity
  8
0
100
AcDbBlockBegin
  2
*U69
 70
     1
 10
0.0
 20
0.0
 30
0.0
  3
*U69
  1

  0
TEXT
  5
2963
330
2DDD
100
AcDbEntity
  8
NOTE
100
AcDbText
 10
-1077.595114277968
 20
113.5270950580134
 30
0.0
 40
64.0
  1
10×φ15取付穴
 41
0.9
100
AcDbText
  0
ENDBLK
  5
2964
330
2DDD
100
AcDbEntity
  8
0
100
AcDbBlockEnd
  0
ENDSEC
  0
SECTION
  2
ENTITIES
  0
TEXT
  5
953
330
2D09
100
AcDbEntity
  8
OUTLINE
  6
Continuous
 62
     3
100
AcDbText
 10
-418.231467
 20
13.715189
 30
0.0
 40
64.0
  1
 
 41
0.9
100
AcDbText
  0
TEXT
  5
954
330
2D09
100
AcDbEntity
  8
OUTLINE
  6
Continuous
 62
     3
100
AcDbText
 10
-418.231467
 20
13.715189
 30
0.0
 40
64.0
  1
 
 41
0.9
100
AcDbText
  0
TEXT
  5
955
330
2D09
100
AcDbEntity
  8
OUTLINE
  6
Continuous
 62
     3
100
AcDbText
 10
1341.41903
 20
-706.0588199999997
 30
0.0
 40
64.0
  1
 
 41
0.9
100
AcDbText
  0
TEXT
  5
956
330
2D09
100
AcDbEntity
  8
OUTLINE
  6
Continuous
 62
     3
100
AcDbText
 10
1341.41903
 20
-706.0588199999997
 30
0.0
 40
64.0
  1
 
 41
0.9
100
AcDbText
  0
TEXT
  5
957
330
2D09
100
AcDbEntity
  8
OUTLINE
  6
Continuous
 62
     3
100
AcDbText
 10
1341.41903
 20
-706.0588199999997
 30
0.0
 40
64.0
  1
 
 41
0.9
100
AcDbText
  0
TEXT
  5
958
330
2D09
100
AcDbEntity
  8
OUTLINE
  6
Continuous
 62
     3
100
AcDbText
 10
1341.41903
 20
-706.0588199999997
 30
0.0
 40
64.0
  1
 
 41
0.9
100
AcDbText
  0
INSERT
  5
29B3
330
2D09
100
AcDbEntity
  8
DETAIL
100
AcDbBlockReference
  2
*X66
 10
0.0
 20
0.0
 30
0.0
1001
ACADANNOTATIVE
1000
AnnotativeData
1002
{
1070
     1
1070
     0
1002
}
1001
ACAD
1000
HATCH
1002
{
1070
    19
1000
LINE
1040
19.969
1040
0.5880014249968896
1000
R14_HATCH_DATA
1000
8878
1011
1.0
1021
0.0
1031
0.0
1011
0.0
1021
1.0
1031
0.0
1011
0.0
1021
0.0
1031
1.0
1040
0.0
1010
0.0
1020
0.0
1030
1.0
1000
LINE
1070
     0
1070
     0
1071
        2
1071
        7
1070
     0
1070
     1
1071
        6
1040
145.6999999999989
1040
-79.0
1040
-361.5
1040
-79.0
1040
-361.5
1040
-679.0
1040
361.5
1040
-679.0000000000008
1040
361.4999999999982
1040
-272.7999999999993
1040
145.6999999999989
1040
-272.7999999999993
1071
        0
1071
       23
1070
     0
1070
     1
1071
        4
1040
361.4999999999982
1040
-79.0000000000009
1040
145.6999999999989
1040
-79.0
1040
145.7000000000007
1040
-272.7999999999984
1040
361.5
1040
-272.7999999999984
1071
        0
1070
     0
1070
     1
1040
0.5880014249968896
1040
19.969
1070
     0
1070
     1
1040
0.5880014249968896
1040
14750.75365893262
1040
5573.591534480915
1040
-1.384598579568018
1040
2.076903172775084
1070
     0
1040
3.819947294084323
1071
        2
1040
-66.42540703497434
1040
-269.4034472430312
1040
0.0
1040
292.0833088850486
1040
-197.7214214842224
1040
0.0
1002
}
  0
INSERT
  5
29B4
330
2D09
100
AcDbEntity
  8
DETAIL
100
AcDbBlockReference
  2
*X67
 10
0.0
 20
0.0
 30
0.0
1001
ACADANNOTATIVE
1000
AnnotativeData
1002
{
1070
     1
1070
     0
1002
}
1001
ACAD
1000
HATCH
1002
{
1070
    19
1000
LINE
1040
19.969
1040
5.695183882182695
1000
R14_HATCH_DATA
1000
887E
1011
1.0
1021
0.0
1031
0.0
1011
0.0
1021
1.0
1031
0.0
1011
0.0
1021
0.0
1031
1.0
1040
0.0
1010
0.0
1020
0.0
1030
1.0
1000
LINE
1070
     0
1070
     0
1071
        2
1071
        7
1070
     0
1070
     1
1071
        6
1040
145.7000000000007
1040
-79.0
1040
-361.5
1040
-78.99999999999909
1040
-361.5
1040
-679.0000000000008
1040
361.4999999999982
1040
-678.9999999999992
1040
361.4999999999982
1040
-272.7999999999993
1040
145.6999999999989
1040
-272.7999999999993
1071
        0
1071
        7
1070
     0
1070
     1
1071
        4
1040
145.7000000000007
1040
-79.0
1040
145.7000000000007
1040
-272.7999999999984
1040
361.5
1040
-272.7999999999984
1040
361.5
1040
-79.0
1071
        0
1070
     0
1070
     1
1040
5.695183882182695
1040
19.969
1070
     0
1070
     1
1040
5.695183882182695
1040
14750.75365893262
1040
5573.591534480915
1040
1.384598579568018
1040
2.076903172775084
1070
     0
1040
1.079308446112194
1071
        2
1040
50.49646123051569
1040
-244.2952481626771
1040
0.0
1040
257.0780182326853
1040
-124.3693230282424
1040
0.0
1002
}
  0
TEXT
  5
29B5
330
2D09
100
AcDbEntity
  8
ETC
100
AcDbText
 10
527.6816116987993
 20
567.8763752417769
 30
0.0
 40
64.0
  1
システム部材
 41
0.9
100
AcDbText
  0
TEXT
  5
29B6
330
2D09
100
AcDbEntity
  8
ETC
100
AcDbText
 10
533.8896096987972
 20
668.7597012417772
 30
0.0
 40
64.0
  1
W-70TAM-A_6
 41
0.9
100
AcDbText
  0
TEXT
  5
29B7
330
2D09
100
AcDbEntity
  8
ETC
100
AcDbText
 10
533.8896096987972
 20
468.7597012417771
 30
0.0
 40
64.0
  1
W-70TAM-A
 41
0.9
100
AcDbText
  0
CIRCLE
  5
29B8
330
2D09
100
AcDbEntity
  8
ARRANGE
100
AcDbCircle
 10
0.0
 20
-0.0000000986728992
 30
0.0
 40
40.0
  0
LINE
  5
29B9
330
2D09
100
AcDbEntity
  8
BASIS
100
AcDbLine
 10
0.0
 20
25.0
 30
0.0
 11
0.0
 21
-725.0
 31
0.0
  0
LINE
  5
29BA
330
2D09
100
AcDbEntity
  8
DETAIL
100
AcDbLine
 10
361.5
 20
-679.0
 30
0.0
 11
361.5
 21
-79.0
 31
0.0
  0
LINE
  5
29BB
330
2D09
100
AcDbEntity
  8
DETAIL
100
AcDbLine
 10
-361.5
 20
-679.0
 30
0.0
 11
-361.5
 21
-79.0
 31
0.0
  0
LINE
  5
29BC
330
2D09
100
AcDbEntity
  8
DETAIL
100
AcDbLine
 10
-387.0
 20
-700.0
 30
0.0
 11
-387.0
 21
-1.0
 31
0.0
  0
LINE
  5
29BD
330
2D09
100
AcDbEntity
  8
DETAIL
100
AcDbLine
 10
387.0
 20
-700.0
 30
0.0
 11
387.0
 21
-1.0
 31
0.0
  0
LINE
  5
29BE
330
2D09
100
AcDbEntity
  8
DETAIL
100
AcDbLine
 10
-361.5
 20
-79.0
 30
0.0
 11
361.5
 21
-79.0
 31
0.0
  0
LINE
  5
29BF
330
2D09
100
AcDbEntity
  8
DETAIL
100
AcDbLine
 10
-387.0
 20
-38.0
 30
0.0
 11
387.0
 21
-38.0
 31
0.0
  0
LINE
  5
29C0
330
2D09
100
AcDbEntity
  8
DETAIL
100
AcDbLine
 10
-425.0
 20
0.0
 30
0.0
 11
425.0
 21
0.0
 31
0.0
  0
LINE
  5
29C1
330
2D09
100
AcDbEntity
  8
DETAIL
100
AcDbLine
 10
-425.0
 20
-1.0
 30
0.0
 11
425.0
 21
-1.0
 31
0.0
  0
LINE
  5
29C2
330
2D09
100
AcDbEntity
  8
NOTE
100
AcDbLine
 10
-400.0
 20
-12.5
 30
0.0
 11
-400.0
 21
12.5
 31
0.0
  0
LINE
  5
29C3
330
2D09
100
AcDbEntity
  8
DETAIL
100
AcDbLine
 10
-425.0
 20
0.0
 30
0.0
 11
-425.0
 21
-1.0
 31
0.0
  0
LINE
  5
29C4
330
2D09
100
AcDbEntity
  8
NOTE
100
AcDbLine
 10
399.9999999999982
 20
-12.5
 30
0.0
 11
399.9999999999982
 21
12.5
 31
0.0
  0
LINE
  5
29C5
330
2D09
100
AcDbEntity
  8
DETAIL
100
AcDbLine
 10
425.0
 20
-1.0
 30
0.0
 11
425.0
 21
0.0
 31
0.0
  0
LINE
  5
29C6
330
2D09
100
AcDbEntity
  8
DETAIL
100
AcDbLine
 10
-361.5
 20
-679.0
 30
0.0
 11
361.5
 21
-679.0
 31
0.0
  0
LINE
  5
29C7
330
2D09
100
AcDbEntity
  8
DETAIL
100
AcDbLine
 10
-387.0
 20
-700.0
 30
0.0
 11
387.0
 21
-700.0
 31
0.0
  0
LINE
  5
29C8
330
2D09
100
AcDbEntity
  8
OUTLINE
100
AcDbLine
 10
172.9999999999981
 20
-700.0
 30
0.0
 11
342.0
 21
-700.0
 31
0.0
  0
POINT
  5
29C9
330
2D09
100
AcDbEntity
  8
ARRANGE
100
AcDbPoint
 10
0.0
 20
0.0
 30
0.0
 39
50.0
  0
LINE
  5
29CA
330
2D09
100
AcDbEntity
  8
DETAIL
100
AcDbLine
 10
-387.0
 20
-58.0
 30
0.0
 11
387.0
 21
-58.0
 31
0.0
  0
LINE
  5
29CB
330
2D09
100
AcDbEntity
  8
OUTLINE
100
AcDbLine
 10
172.9999999999981
 20
-700.0
 30
0.0
 11
342.0
 21
-700.0
 31
0.0
  0
INSERT
  5
29CC
330
2D09
100
AcDbEntity
  8
0
100
AcDbBlockReference
  2
*U68
 10
0.0
 20
0.0
 30
0.0
1001
ACAD
1000
DSTYLE
1002
{
1070
    41
1040
12.0
1070
    42
1040
20.0
1070
    43
1040
200.0
1070
    44
1040
20.0
1070
    73
1070
     0
1070
    74
1070
     0
1070
    77
1070
     1
1070
    78
1070
     8
1070
   140
1040
64.0
1070
   147
1040
50.0
1070
   172
1070
     1
1070
   174
1070
     1
1070
   275
1070
     0
1070
   284
1070
     0
1070
   285
1070
     0
1070
   286
1070
     0
1070
   341
1005
0
1070
   342
1005
0
1002
}
  0
INSERT
  5
29CD
330
2D09
100
AcDbEntity
  8
0
100
AcDbBlockReference
  2
*U69
 10
0.0
 20
0.0
 30
0.0
  0
LINE
  5
29CE
330
2D09
100
AcDbEntity
  8
NOTE
100
AcDbLine
 39
50.0
 10
-412.5
 20
0.0
 30
0.0
 11
-387.5
 21
0.0
 31
0.0
  0
LINE
  5
29CF
330
2D09
100
AcDbEntity
  8
NOTE
100
AcDbLine
 39
50.0
 10
387.4999999999982
 20
0.0
 30
0.0
 11
412.4999999999982
 21
0.0
 31
0.0
  0
LINE
  5
29D0
330
2D09
100
AcDbEntity
  8
OUTLINE
100
AcDbLine
 39
50.0
 10
-425.0
 20
0.0
 30
0.0
 11
425.0
 21
0.0
 31
0.0
  0
LINE
  5
29D1
330
2D09
100
AcDbEntity
  8
OUTLINE
100
AcDbLine
 10
-387.0
 20
-700.0
 30
0.0
 11
-387.0
 21
-1.0
 31
0.0
  0
LINE
  5
29D2
330
2D09
100
AcDbEntity
  8
OUTLINE
100
AcDbLine
 10
387.0
 20
-700.0
 30
0.0
 11
387.0
 21
-1.0
 31
0.0
  0
LINE
  5
29D3
330
2D09
100
AcDbEntity
  8
OUTLINE
100
AcDbLine
 10
-387.0
 20
-38.0
 30
0.0
 11
387.0
 21
-38.0
 31
0.0
  0
LINE
  5
29D4
330
2D09
100
AcDbEntity
  8
OUTLINE
100
AcDbLine
 10
-425.0
 20
-1.0
 30
0.0
 11
425.0
 21
-1.0
 31
0.0
  0
LINE
  5
29D5
330
2D09
100
AcDbEntity
  8
OUTLINE
100
AcDbLine
 10
-425.0
 20
0.0
 30
0.0
 11
-425.0
 21
-1.0
 31
0.0
  0
LINE
  5
29D6
330
2D09
100
AcDbEntity
  8
OUTLINE
100
AcDbLine
 10
425.0
 20
-1.0
 30
0.0
 11
425.0
 21
0.0
 31
0.0
  0
LINE
  5
29D7
330
2D09
100
AcDbEntity
  8
OUTLINE
100
AcDbLine
 10
-387.0
 20
-700.0
 30
0.0
 11
387.0
 21
-700.0
 31
0.0
  0
LINE
  5
29D8
330
2D09
100
AcDbEntity
  8
OUTLINE
100
AcDbLine
 10
-387.0
 20
-58.0
 30
0.0
 11
387.0
 21
-58.0
 31
0.0
  0
LINE
  5
29D9
330
2D09
100
AcDbEntity
  8
DETAIL
100
AcDbLine
 10
361.5
 20
-679.0
 30
0.0
 11
361.5
 21
-79.0
 31
0.0
  0
LINE
  5
29DA
330
2D09
100
AcDbEntity
  8
DETAIL
100
AcDbLine
 10
-361.5
 20
-679.0
 30
0.0
 11
-361.5
 21
-79.0
 31
0.0
  0
LINE
  5
29DB
330
2D09
100
AcDbEntity
  8
DETAIL
100
AcDbLine
 10
-361.5
 20
-79.0
 30
0.0
 11
361.5
 21
-79.0
 31
0.0
  0
LINE
  5
29DC
330
2D09
100
AcDbEntity
  8
DETAIL
100
AcDbLine
 10
-361.5
 20
-679.0
 30
0.0
 11
361.5
 21
-679.0
 31
0.0
  0
LINE
  5
29DD
330
2D09
100
AcDbEntity
  8
SIZE
100
AcDbLine
 10
425.0
 20
20.0
 30
0.0
 11
425.0
 21
298.8865929365165
 31
0.0
  0
LINE
  5
29DE
330
2D09
100
AcDbEntity
  8
SIZE
100
AcDbLine
 10
-425.0
 20
20.0
 30
0.0
 11
-425.0
 21
298.8865929365165
 31
0.0
  0
LINE
  5
29DF
330
2D09
100
AcDbEntity
  8
SIZE
100
AcDbLine
 10
413.0
 20
278.8865929365165
 30
0.0
 11
-413.0
 21
278.8865929365165
 31
0.0
  0
INSERT
  5
29E0
330
2D09
100
AcDbEntity
  8
SIZE
100
AcDbBlockReference
  2
_DOTBLANK
 10
425.0
 20
278.8865929365165
 30
0.0
 41
12.0
 42
12.0
 43
12.0
  0
INSERT
  5
29E1
330
2D09
100
AcDbEntity
  8
SIZE
100
AcDbBlockReference
  2
_DOTBLANK
 10
-425.0
 20
278.8865929365165
 30
0.0
 41
12.0
 42
12.0
 43
12.0
 50
180.0
  0
LINE
  5
29E2
330
2D09
100
AcDbEntity
  8
SIZE
100
AcDbLine
 10
399.9999999999982
 20
32.5
 30
0.0
 11
399.9999999999982
 21
180.3320910096172
 31
0.0
  0
LINE
  5
29E3
330
2D09
100
AcDbEntity
  8
SIZE
100
AcDbLine
 10
-400.0
 20
32.5
 30
0.0
 11
-400.0
 21
180.3320910096172
 31
0.0
  0
LINE
  5
29E4
330
2D09
100
AcDbEntity
  8
SIZE
100
AcDbLine
 10
387.9999999999982
 20
160.3320910096172
 30
0.0
 11
-388.0
 21
160.3320910096172
 31
0.0
  0
INSERT
  5
29E5
330
2D09
100
AcDbEntity
  8
SIZE
100
AcDbBlockReference
  2
_DOTBLANK
 10
399.9999999999982
 20
160.3320910096172
 30
0.0
 41
12.0
 42
12.0
 43
12.0
  0
INSERT
  5
29E6
330
2D09
100
AcDbEntity
  8
SIZE
100
AcDbBlockReference
  2
_DOTBLANK
 10
-400.0
 20
160.3320910096172
 30
0.0
 41
12.0
 42
12.0
 43
12.0
 50
180.0
  0
LINE
  5
29E7
330
2D09
100
AcDbEntity
  8
SIZE
100
AcDbLine
 10
-407.0
 20
-700.0
 30
0.0
 11
-750.4063174686051
 21
-700.0
 31
0.0
  0
LINE
  5
29E8
330
2D09
100
AcDbEntity
  8
SIZE
100
AcDbLine
 10
-445.0
 20
0.0
 30
0.0
 11
-750.4063174686051
 21
0.0000000000001137
 31
0.0
  0
LINE
  5
29E9
330
2D09
100
AcDbEntity
  8
SIZE
100
AcDbLine
 10
-730.4063174686051
 20
-688.0
 30
0.0
 11
-730.4063174686051
 21
-11.99999999999988
 31
0.0
  0
INSERT
  5
29EA
330
2D09
100
AcDbEntity
  8
SIZE
100
AcDbBlockReference
  2
_DOTBLANK
 10
-730.4063174686051
 20
-700.0
 30
0.0
 41
12.0
 42
12.0
 43
12.0
 50
270.0
  0
INSERT
  5
29EB
330
2D09
100
AcDbEntity
  8
SIZE
100
AcDbBlockReference
  2
_DOTBLANK
 10
-730.4063174686051
 20
0.0000000000001137
 30
0.0
 41
12.0
 42
12.0
 43
12.0
 50
90.0
  0
LINE
  5
29EC
330
2D09
100
AcDbEntity
  8
SIZE
100
AcDbLine
 10
387.0
 20
-720.0
 30
0.0
 11
387.0
 21
-949.1579934542924
 31
0.0
  0
LINE
  5
29ED
330
2D09
100
AcDbEntity
  8
SIZE
100
AcDbLine
 10
-387.0
 20
-720.0
 30
0.0
 11
-387.0
 21
-949.1579934542924
 31
0.0
  0
LINE
  5
29EE
330
2D09
100
AcDbEntity
  8
SIZE
100
AcDbLine
 10
375.0
 20
-929.1579934542923
 30
0.0
 11
-375.0
 21
-929.1579934542923
 31
0.0
  0
INSERT
  5
29EF
330
2D09
100
AcDbEntity
  8
SIZE
100
AcDbBlockReference
  2
_DOTBLANK
 10
387.0
 20
-929.1579934542923
 30
0.0
 41
12.0
 42
12.0
 43
12.0
  0
INSERT
  5
29F0
330
2D09
100
AcDbEntity
  8
SIZE
100
AcDbBlockReference
  2
_DOTBLANK
 10
-387.0
 20
-929.1579934542923
 30
0.0
 41
12.0
 42
12.0
 43
12.0
 50
180.0
  0
TEXT
  5
29F1
330
2D09
100
AcDbEntity
  8
SIZE
100
AcDbText
 10
-77.16558687727502
 20
-919.1579934542923
 30
0.0
 40
64.0
  1
774
 41
0.9
100
AcDbText
  0
TEXT
  5
29F2
330
2D09
100
AcDbEntity
  8
SIZE
100
AcDbText
 10
-740.4063174686051
 20
-424.0571428571429
 30
0.0
 40
64.0
  1
700
 50
90.0
 41
0.9
100
AcDbText
  0
TEXT
  5
29F3
330
2D09
100
AcDbEntity
  8
SIZE
100
AcDbText
 10
-74.6130204911378
 20
170.3320910096172
 30
0.0
 40
64.0
  1
800
 41
0.9
100
AcDbText
  0
TEXT
  5
29F4
330
2D09
100
AcDbEntity
  8
SIZE
100
AcDbText
 10
-74.05714285714293
 20
288.8865929365165
 30
0.0
 40
64.0
  1
850
 41
0.9
100
AcDbText
  0
ENDSEC
  0
SECTION
  2
OBJECTS
  0
DICTIONARY
  5
2CA1
330
0
100
AcDbDictionary
281
     1
  3
ACAD_2007HEADERVARS_RT
350
2EF1
  3
ACAD_COLOR
350
2CFF
  3
ACAD_GROUP
350
2CA2
  3
ACAD_LAYOUT
350
2CFE
  3
ACAD_MATERIAL
350
2CA5
  3
ACAD_MLEADERSTYLE
350
2D02
  3
ACAD_MLINESTYLE
350
2CFB
  3
ACAD_PLOTSETTINGS
350
2CFD
  3
ACAD_PLOTSTYLENAME
350
2CA3
  3
ACAD_SCALELIST
350
2CCF
  3
ACAD_TABLESTYLE
350
2D00
  3
ACAD_VISUALSTYLE
350
2CBE
  3
ACDB_RECOMPOSE_DATA
350
2EEF
  3
AcDbVariableDictionary
350
2EE6
  3
AcmDictionary
350
2E92
  3
AMG
350
2DDF
  3
AMGSNAPSETTINGS
350
2EBA
  3
DWGPROPS
350
2EF0
  3
MAPISURF_MODULE
350
2E5F
  0
DICTIONARY
  5
2EC1
330
2CF1
100
AcDbDictionary
280
     1
281
     1
  3
ADSK_XREC_LAYER_RECONCILED
360
2EC2
  0
DICTIONARY
  5
2EC3
330
2D20
100
AcDbDictionary
280
     1
281
     1
  3
ADSK_XREC_LAYER_RECONCILED
360
2EC4
  0
DICTIONARY
  5
2EC5
330
2D21
100
AcDbDictionary
280
     1
281
     1
  3
ADSK_XREC_LAYER_RECONCILED
360
2EC6
  0
DICTIONARY
  5
2EC7
330
2D22
100
AcDbDictionary
280
     1
281
     1
  3
ADSK_XREC_LAYER_RECONCILED
360
2EC8
  0
DICTIONARY
  5
2EC9
330
2D23
100
AcDbDictionary
280
     1
281
     1
  3
ADSK_XREC_LAYER_RECONCILED
360
2ECA
  0
DICTIONARY
  5
2ECB
330
2D24
100
AcDbDictionary
280
     1
281
     1
  3
ADSK_XREC_LAYER_RECONCILED
360
2ECC
  0
DICTIONARY
  5
2ECD
330
2D26
100
AcDbDictionary
280
     1
281
     1
  3
ADSK_XREC_LAYER_RECONCILED
360
2ECE
  0
DICTIONARY
  5
2ECF
330
2D27
100
AcDbDictionary
280
     1
281
     1
  3
ADSK_XREC_LAYER_RECONCILED
360
2ED0
  0
DICTIONARY
  5
2ED1
330
2D28
100
AcDbDictionary
280
     1
281
     1
  3
ADSK_XREC_LAYER_RECONCILED
360
2ED2
  0
DICTIONARY
  5
2ED3
330
2D29
100
AcDbDictionary
280
     1
281
     1
  3
ADSK_XREC_LAYER_RECONCILED
360
2ED4
  0
DICTIONARY
  5
2ED5
330
2D2A
100
AcDbDictionary
280
     1
281
     1
  3
ADSK_XREC_LAYER_RECONCILED
360
2ED6
  0
DICTIONARY
  5
2ED7
330
2D09
100
AcDbDictionary
280
     1
281
     1
  3
ACAD_INDEX
360
2ED8
  0
DICTIONARY
  5
2EF1
102
{ACAD_REACTORS
330
2CA1
102
}
330
2CA1
100
AcDbDictionary
281
     1
  3
DIMARCSYM
350
2EF2
  3
DIMLTEX1
350
2EF4
  3
DIMLTEX2
350
2EF5
  3
DIMLTYPE
350
2EF3
  0
DICTIONARY
  5
2CFF
102
{ACAD_REACTORS
330
2CA1
102
}
330
2CA1
100
AcDbDictionary
281
     1
  0
DICTIONARY
  5
2CA2
102
{ACAD_REACTORS
330
2CA1
102
}
330
2CA1
100
AcDbDictionary
281
     1
  0
DICTIONARY
  5
2CFE
102
{ACAD_REACTORS
330
2CA1
102
}
330
2CA1
100
AcDbDictionary
281
     1
  3
Model
350
2D0C
  3
レイアウト1
350
2D08
  0
DICTIONARY
  5
2CA5
102
{ACAD_REACTORS
330
2CA1
102
}
330
2CA1
100
AcDbDictionary
281
     1
  3
ByBlock
350
2CAE
  3
ByLayer
350
2CA6
  3
Global
350
2CB6
  0
DICTIONARY
  5
2D02
102
{ACAD_REACTORS
330
2CA1
102
}
330
2CA1
100
AcDbDictionary
281
     1
  3
Standard
350
2D03
  0
DICTIONARY
  5
2CFB
102
{ACAD_REACTORS
330
2CA1
102
}
330
2CA1
100
AcDbDictionary
281
     1
  3
Standard
350
2CFC
  0
DICTIONARY
  5
2CFD
102
{ACAD_REACTORS
330
2CA1
102
}
330
2CA1
100
AcDbDictionary
281
     1
  0
ACDBDICTIONARYWDFLT
  5
2CA3
102
{ACAD_REACTORS
330
2CA1
102
}
330
2CA1
100
AcDbDictionary
281
     1
  3
Normal
350
2CA4
100
AcDbDictionaryWithDefault
340
2CA4
  0
DICTIONARY
  5
2CCF
102
{ACAD_REACTORS
330
2CA1
102
}
330
2CA1
100
AcDbDictionary
281
     1
  3
A0
350
2CD0
  3
A1
350
2CD1
  3
A2
350
2CD2
  3
A3
350
2CD3
  3
A4
350
2CD4
  3
A5
350
2CD5
  3
A6
350
2CD6
  3
A7
350
2CD7
  3
A8
350
2CD8
  3
A9
350
2CD9
  3
B0
350
2CDA
  3
B1
350
2CDB
  3
B2
350
2CDC
  3
B3
350
2CDD
  3
B4
350
2CDE
  3
B5
350
2CDF
  3
B6
350
2CE0
  3
B7
350
2CE1
  3
B8
350
2CE2
  3
B9
350
2CE3
  3
C0
350
2CE4
  3
C1
350
2CE5
  3
C2
350
2CE6
  3
C3
350
2CE7
  3
C4
350
2CE8
  3
C5
350
2CE9
  3
C6
350
2CEA
  3
C7
350
2CEB
  3
C8
350
2CEC
  3
C9
350
2CED
  3
D0
350
2CEE
  3
D1
350
2CEF
  3
D2
350
2CF0
  0
DICTIONARY
  5
2D00
102
{ACAD_REACTORS
330
2CA1
102
}
330
2CA1
100
AcDbDictionary
281
     1
  3
Standard
350
2D01
  0
DICTIONARY
  5
2CBE
102
{ACAD_REACTORS
330
2CA1
102
}
330
2CA1
100
AcDbDictionary
281
     1
  3
2dWireframe
350
2CC4
  3
3D Hidden
350
2CC6
  3
3dWireframe
350
2CC5
  3
Basic
350
2CC3
  3
Brighten
350
2CCA
  3
ColorChange
350
2CCE
  3
Conceptual
350
2CC7
  3
Dim
350
2CC9
  3
Facepattern
350
2CCD
  3
Flat
350
2CBF
  3
FlatWithEdges
350
2CC0
  3
Gouraud
350
2CC1
  3
GouraudWithEdges
350
2CC2
  3
Linepattern
350
2CCC
  3
Realistic
350
2CC8
  3
Thicken
350
2CCB
  0
XRECORD
  5
2EEF
102
{ACAD_REACTORS
330
2CA1
102
}
330
2CA1
100
AcDbXrecord
280
     1
 90
        1
330
2D01
  0
DICTIONARY
  5
2EE6
102
{ACAD_REACTORS
330
2CA1
102
}
330
2CA1
100
AcDbDictionary
281
     1
  3
CANNOSCALE
350
2EE9
  3
CMLEADERSTYLE
350
2EE8
  3
CTABLESTYLE
350
2EE7
  3
DIMASSOC
350
2EEC
  3
INDEXCTL
350
2EEB
  3
SORTENTS
350
2EEA
  0
DICTIONARY
  5
2E92
102
{ACAD_REACTORS
330
2CA1
102
}
330
2CA1
100
AcDbDictionary
281
     1
  3
AcmStdDictionary
350
2EA0
  0
DICTIONARY
  5
2DDF
102
{ACAD_REACTORS
330
2CA1
102
}
330
2CA1
100
AcDbDictionary
281
     1
  3
AcMgSettings
350
2DE0
  0
DICTIONARY
  5
2EBA
102
{ACAD_REACTORS
330
2CA1
102
}
330
2CA1
100
AcDbDictionary
281
     1
  3
DIMENSION
350
2EBF
  3
FEA
350
2EBE
  3
HATCH (1)
350
2EBB
  3
HATCH (2)
350
2EBC
  3
SIMPLE WELD
350
2EC0
  3
SYMBOLS
350
2EBD
  0
XRECORD
  5
2EF0
102
{ACAD_REACTORS
330
2CA1
102
}
330
2CA1
100
AcDbXrecord
280
     1
  1
DWGPROPS COOKIE
  2

  3

  4

  6

  7

  8
A090053
  9

300
AmdtFileType=84
301
=
302
=
303
=
304
=
305
=
306
=
307
=
308
=
309
=
 40
1.041120462962962
 41
2452321.396199653
 42
2456210.798213553
  1

 90
        1
  0
XRECORD
  5
2EC2
102
{ACAD_REACTORS
330
2EC1
102
}
330
2EC1
100
AcDbXrecord
280
     1
290
     1
  0
XRECORD
  5
2EC4
102
{ACAD_REACTORS
330
2EC3
102
}
330
2EC3
100
AcDbXrecord
280
     1
290
     1
  0
XRECORD
  5
2EC6
102
{ACAD_REACTORS
330
2EC5
102
}
330
2EC5
100
AcDbXrecord
280
     1
290
     1
  0
XRECORD
  5
2EC8
102
{ACAD_REACTORS
330
2EC7
102
}
330
2EC7
100
AcDbXrecord
280
     1
290
     1
  0
XRECORD
  5
2ECA
102
{ACAD_REACTORS
330
2EC9
102
}
330
2EC9
100
AcDbXrecord
280
     1
290
     1
  0
XRECORD
  5
2ECC
102
{ACAD_REACTORS
330
2ECB
102
}
330
2ECB
100
AcDbXrecord
280
     1
290
     1
  0
XRECORD
  5
2ECE
102
{ACAD_REACTORS
330
2ECD
102
}
330
2ECD
100
AcDbXrecord
280
     1
290
     1
  0
XRECORD
  5
2ED0
102
{ACAD_REACTORS
330
2ECF
102
}
330
2ECF
100
AcDbXrecord
280
     1
290
     1
  0
XRECORD
  5
2ED2
102
{ACAD_REACTORS
330
2ED1
102
}
330
2ED1
100
AcDbXrecord
280
     1
290
     1
  0
XRECORD
  5
2ED4
102
{ACAD_REACTORS
330
2ED3
102
}
330
2ED3
100
AcDbXrecord
280
     1
290
     1
  0
XRECORD
  5
2ED6
102
{ACAD_REACTORS
330
2ED5
102
}
330
2ED5
100
AcDbXrecord
280
     1
290
     1
  0
DICTIONARY
  5
2ED8
102
{ACAD_REACTORS
330
2ED7
102
}
330
2ED7
100
AcDbDictionary
281
     1
  3
*A1
350
2ED9
  0
XRECORD
  5
2EF2
102
{ACAD_REACTORS
330
2EF1
102
}
330
2EF1
100
AcDbXrecord
280
     1
 70
     1
  0
XRECORD
  5
2EF4
102
{ACAD_REACTORS
330
2EF1
102
}
330
2EF1
100
AcDbXrecord
280
     1
340
2CF7
  0
XRECORD
  5
2EF5
102
{ACAD_REACTORS
330
2EF1
102
}
330
2EF1
100
AcDbXrecord
280
     1
340
2CF7
  0
XRECORD
  5
2EF3
102
{ACAD_REACTORS
330
2EF1
102
}
330
2EF1
100
AcDbXrecord
280
     1
340
2CF7
  0
LAYOUT
  5
2D0C
102
{ACAD_XDICTIONARY
360
2EFC
102
}
102
{ACAD_REACTORS
330
2CFE
102
}
330
2CFE
100
AcDbPlotSettings
  1

  2
自動 EPSON LP-9600S (W2450527 上)
  4

  6

 40
0.0
 41
0.0
 42
0.0
 43
0.0
 44
0.0
 45
0.0
 46
0.0
 47
0.0
 48
0.0
 49
0.0
140
0.0
141
0.0
142
1.0
143
1.0
 70
  1712
 72
     0
 73
     0
 74
     0
  7

 75
     0
147
1.0
148
0.0
149
0.0
100
AcDbLayout
  1
Model
 70
     1
 71
     0
 10
0.0
 20
0.0
 11
12.0
 21
9.0
 12
0.0
 22
0.0
 32
0.0
 14
0.0
 24
0.0
 34
0.0
 15
0.0
 25
0.0
 35
0.0
146
0.0
 13
0.0
 23
0.0
 33
0.0
 16
1.0
 26
0.0
 36
0.0
 17
0.0
 27
1.0
 37
0.0
 76
     0
330
2D09
331
2D0D
  0
LAYOUT
  5
2D08
102
{ACAD_XDICTIONARY
360
2EFA
102
}
102
{ACAD_REACTORS
330
2CFE
102
}
330
2CFE
100
AcDbPlotSettings
  1

  2
自動 EPSON LP-9600S (W2450527 上)
  4

  6

 40
0.0
 41
0.0
 42
0.0
 43
0.0
 44
0.0
 45
0.0
 46
0.0
 47
0.0
 48
0.0
 49
0.0
140
0.0
141
0.0
142
1.0
143
1.0
 70
   688
 72
     0
 73
     0
 74
     5
  7

 75
    16
147
1.0
148
0.0
149
0.0
100
AcDbLayout
  1
レイアウト1
 70
     1
 71
     1
 10
0.0
 20
0.0
 11
12.0
 21
9.0
 12
0.0
 22
0.0
 32
0.0
 14
1.000000000000000E+20
 24
1.000000000000000E+20
 34
1.000000000000000E+20
 15
-1.000000000000000E+20
 25
-1.000000000000000E+20
 35
-1.000000000000000E+20
146
0.0
 13
0.0
 23
0.0
 33
0.0
 16
1.0
 26
0.0
 36
0.0
 17
0.0
 27
1.0
 37
0.0
 76
     0
330
2D05
  0
MATERIAL
  5
2CAE
102
{ACAD_XDICTIONARY
360
2CAF
102
}
102
{ACAD_REACTORS
330
2CA5
102
}
330
2CA5
100
AcDbMaterial
  1
ByBlock
 72
     0
 43
0.0208333333333333
 43
0.0
 43
0.0
 43
0.0
 43
0.0
 43
0.0208333333333333
 43
0.0
 43
0.0
 43
0.0
 43
0.0
 43
1.0
 43
0.0
 43
0.0
 43
0.0
 43
0.0
 43
1.0
 77
     0
 47
0.0208333333333333
 47
0.0
 47
0.0
 47
0.0
 47
0.0
 47
0.0208333333333333
 47
0.0
 47
0.0
 47
0.0
 47
0.0
 47
1.0
 47
0.0
 47
0.0
 47
0.0
 47
0.0
 47
1.0
171
     0
 49
0.0208333333333333
 49
0.0
 49
0.0
 49
0.0
 49
0.0
 49
0.0208333333333333
 49
0.0
 49
0.0
 49
0.0
 49
0.0
 49
1.0
 49
0.0
 49
0.0
 49
0.0
 49
0.0
 49
1.0
175
     0
142
0.0208333333333333
142
0.0
142
0.0
142
0.0
142
0.0
142
0.0208333333333333
142
0.0
142
0.0
142
0.0
142
0.0
142
1.0
142
0.0
142
0.0
142
0.0
142
0.0
142
1.0
179
     0
144
0.0208333333333333
144
0.0
144
0.0
144
0.0
144
0.0
144
0.0208333333333333
144
0.0
144
0.0
144
0.0
144
0.0
144
1.0
144
0.0
144
0.0
144
0.0
144
0.0
144
1.0
147
0.0208333333333333
147
0.0
147
0.0
147
0.0
147
0.0
147
0.0208333333333333
147
0.0
147
0.0
147
0.0
147
0.0
147
1.0
147
0.0
147
0.0
147
0.0
147
0.0
147
1.0
  0
MATERIAL
  5
2CA6
102
{ACAD_XDICTIONARY
360
2CA7
102
}
102
{ACAD_REACTORS
330
2CA5
102
}
330
2CA5
100
AcDbMaterial
  1
ByLayer
 72
     0
 43
0.0208333333333333
 43
0.0
 43
0.0
 43
0.0
 43
0.0
 43
0.0208333333333333
 43
0.0
 43
0.0
 43
0.0
 43
0.0
 43
1.0
 43
0.0
 43
0.0
 43
0.0
 43
0.0
 43
1.0
 77
     0
 47
0.0208333333333333
 47
0.0
 47
0.0
 47
0.0
 47
0.0
 47
0.0208333333333333
 47
0.0
 47
0.0
 47
0.0
 47
0.0
 47
1.0
 47
0.0
 47
0.0
 47
0.0
 47
0.0
 47
1.0
171
     0
 49
0.0208333333333333
 49
0.0
 49
0.0
 49
0.0
 49
0.0
 49
0.0208333333333333
 49
0.0
 49
0.0
 49
0.0
 49
0.0
 49
1.0
 49
0.0
 49
0.0
 49
0.0
 49
0.0
 49
1.0
175
     0
142
0.0208333333333333
142
0.0
142
0.0
142
0.0
142
0.0
142
0.0208333333333333
142
0.0
142
0.0
142
0.0
142
0.0
142
1.0
142
0.0
142
0.0
142
0.0
142
0.0
142
1.0
179
     0
144
0.0208333333333333
144
0.0
144
0.0
144
0.0
144
0.0
144
0.0208333333333333
144
0.0
144
0.0
144
0.0
144
0.0
144
1.0
144
0.0
144
0.0
144
0.0
144
0.0
144
1.0
147
0.0208333333333333
147
0.0
147
0.0
147
0.0
147
0.0
147
0.0208333333333333
147
0.0
147
0.0
147
0.0
147
0.0
147
1.0
147
0.0
147
0.0
147
0.0
147
0.0
147
1.0
  0
MATERIAL
  5
2CB6
102
{ACAD_XDICTIONARY
360
2CB7
102
}
102
{ACAD_REACTORS
330
2CA5
102
}
330
2CA5
100
AcDbMaterial
  1
Global
 72
     0
 43
0.0208333333333333
 43
0.0
 43
0.0
 43
0.0
 43
0.0
 43
0.0208333333333333
 43
0.0
 43
0.0
 43
0.0
 43
0.0
 43
1.0
 43
0.0
 43
0.0
 43
0.0
 43
0.0
 43
1.0
 77
     0
 47
0.0208333333333333
 47
0.0
 47
0.0
 47
0.0
 47
0.0
 47
0.0208333333333333
 47
0.0
 47
0.0
 47
0.0
 47
0.0
 47
1.0
 47
0.0
 47
0.0
 47
0.0
 47
0.0
 47
1.0
171
     0
 49
0.0208333333333333
 49
0.0
 49
0.0
 49
0.0
 49
0.0
 49
0.0208333333333333
 49
0.0
 49
0.0
 49
0.0
 49
0.0
 49
1.0
 49
0.0
 49
0.0
 49
0.0
 49
0.0
 49
1.0
175
     0
142
0.0208333333333333
142
0.0
142
0.0
142
0.0
142
0.0
142
0.0208333333333333
142
0.0
142
0.0
142
0.0
142
0.0
142
1.0
142
0.0
142
0.0
142
0.0
142
0.0
142
1.0
179
     0
144
0.0208333333333333
144
0.0
144
0.0
144
0.0
144
0.0
144
0.0208333333333333
144
0.0
144
0.0
144
0.0
144
0.0
144
1.0
144
0.0
144
0.0
144
0.0
144
0.0
144
1.0
147
0.0208333333333333
147
0.0
147
0.0
147
0.0
147
0.0
147
0.0208333333333333
147
0.0
147
0.0
147
0.0
147
0.0
147
1.0
147
0.0
147
0.0
147
0.0
147
0.0
147
1.0
  0
MLEADERSTYLE
  5
2D03
102
{ACAD_REACTORS
330
2D02
102
}
330
2D02
100
AcDbMLeaderStyle
170
     2
171
     1
172
     0
 90
        2
 40
0.0
 41
0.0
173
     1
 91
-1056964608
340
2CF7
 92
       -2
290
     1
 42
0.09
291
     1
 43
0.36
  3
Standard
 44
0.18
300

342
2CF2
174
     1
178
     6
175
     1
176
     0
 93
-1056964608
 45
0.18
292
     0
297
     0
 46
0.18
 94
-1056964608
 47
1.0
 49
1.0
140
1.0
293
     1
141
0.0
294
     1
177
     0
142
1.0
295
     0
296
     0
143
0.125
1001
ACAD_MLEADERVER
1070
     2
  0
MLINESTYLE
  5
2CFC
102
{ACAD_REACTORS
330
2CFB
102
}
330
2CFB
100
AcDbMlineStyle
  2
STANDARD
 70
     0
  3

 62
   256
 51
90.0
 52
90.0
 71
     2
 49
0.5
 62
   256
  6
BYLAYER
 49
-0.5
 62
   256
  6
BYLAYER
  0
ACDBPLACEHOLDER
  5
2CA4
102
{ACAD_REACTORS
330
2CA3
102
}
330
2CA3
  0
SCALE
  5
2CD0
102
{ACAD_REACTORS
330
2CCF
102
}
330
2CCF
100
AcDbScale
 70
     0
300
1:1
140
1.0
141
1.0
290
     1
  0
SCALE
  5
2CD1
102
{ACAD_REACTORS
330
2CCF
102
}
330
2CCF
100
AcDbScale
 70
     0
300
1:2
140
1.0
141
2.0
290
     0
  0
SCALE
  5
2CD2
102
{ACAD_REACTORS
330
2CCF
102
}
330
2CCF
100
AcDbScale
 70
     0
300
1:4
140
1.0
141
4.0
290
     0
  0
SCALE
  5
2CD3
102
{ACAD_REACTORS
330
2CCF
102
}
330
2CCF
100
AcDbScale
 70
     0
300
1:5
140
1.0
141
5.0
290
     0
  0
SCALE
  5
2CD4
102
{ACAD_REACTORS
330
2CCF
102
}
330
2CCF
100
AcDbScale
 70
     0
300
1:8
140
1.0
141
8.0
290
     0
  0
SCALE
  5
2CD5
102
{ACAD_REACTORS
330
2CCF
102
}
330
2CCF
100
AcDbScale
 70
     0
300
1:10
140
1.0
141
10.0
290
     0
  0
SCALE
  5
2CD6
102
{ACAD_REACTORS
330
2CCF
102
}
330
2CCF
100
AcDbScale
 70
     0
300
1:16
140
1.0
141
16.0
290
     0
  0
SCALE
  5
2CD7
102
{ACAD_REACTORS
330
2CCF
102
}
330
2CCF
100
AcDbScale
 70
     0
300
1:20
140
1.0
141
20.0
290
     0
  0
SCALE
  5
2CD8
102
{ACAD_REACTORS
330
2CCF
102
}
330
2CCF
100
AcDbScale
 70
     0
300
1:30
140
1.0
141
30.0
290
     0
  0
SCALE
  5
2CD9
102
{ACAD_REACTORS
330
2CCF
102
}
330
2CCF
100
AcDbScale
 70
     0
300
1:40
140
1.0
141
40.0
290
     0
  0
SCALE
  5
2CDA
102
{ACAD_REACTORS
330
2CCF
102
}
330
2CCF
100
AcDbScale
 70
     0
300
1:50
140
1.0
141
50.0
290
     0
  0
SCALE
  5
2CDB
102
{ACAD_REACTORS
330
2CCF
102
}
330
2CCF
100
AcDbScale
 70
     0
300
1:100
140
1.0
141
100.0
290
     0
  0
SCALE
  5
2CDC
102
{ACAD_REACTORS
330
2CCF
102
}
330
2CCF
100
AcDbScale
 70
     0
300
2:1
140
2.0
141
1.0
290
     0
  0
SCALE
  5
2CDD
102
{ACAD_REACTORS
330
2CCF
102
}
330
2CCF
100
AcDbScale
 70
     0
300
4:1
140
4.0
141
1.0
290
     0
  0
SCALE
  5
2CDE
102
{ACAD_REACTORS
330
2CCF
102
}
330
2CCF
100
AcDbScale
 70
     0
300
8:1
140
8.0
141
1.0
290
     0
  0
SCALE
  5
2CDF
102
{ACAD_REACTORS
330
2CCF
102
}
330
2CCF
100
AcDbScale
 70
     0
300
10:1
140
10.0
141
1.0
290
     0
  0
SCALE
  5
2CE0
102
{ACAD_REACTORS
330
2CCF
102
}
330
2CCF
100
AcDbScale
 70
     0
300
100:1
140
100.0
141
1.0
290
     0
  0
SCALE
  5
2CE1
102
{ACAD_REACTORS
330
2CCF
102
}
330
2CCF
100
AcDbScale
 70
     0
300
1/128" = 1'-0"
140
0.0078125
141
12.0
290
     0
  0
SCALE
  5
2CE2
102
{ACAD_REACTORS
330
2CCF
102
}
330
2CCF
100
AcDbScale
 70
     0
300
1/64" = 1'-0"
140
0.015625
141
12.0
290
     0
  0
SCALE
  5
2CE3
102
{ACAD_REACTORS
330
2CCF
102
}
330
2CCF
100
AcDbScale
 70
     0
300
1/32" = 1'-0"
140
0.03125
141
12.0
290
     0
  0
SCALE
  5
2CE4
102
{ACAD_REACTORS
330
2CCF
102
}
330
2CCF
100
AcDbScale
 70
     0
300
1/16" = 1'-0"
140
0.0625
141
12.0
290
     0
  0
SCALE
  5
2CE5
102
{ACAD_REACTORS
330
2CCF
102
}
330
2CCF
100
AcDbScale
 70
     0
300
3/32" = 1'-0"
140
0.09375
141
12.0
290
     0
  0
SCALE
  5
2CE6
102
{ACAD_REACTORS
330
2CCF
102
}
330
2CCF
100
AcDbScale
 70
     0
300
1/8" = 1'-0"
140
0.125
141
12.0
290
     0
  0
SCALE
  5
2CE7
102
{ACAD_REACTORS
330
2CCF
102
}
330
2CCF
100
AcDbScale
 70
     0
300
3/16" = 1'-0"
140
0.1875
141
12.0
290
     0
  0
SCALE
  5
2CE8
102
{ACAD_REACTORS
330
2CCF
102
}
330
2CCF
100
AcDbScale
 70
     0
300
1/4" = 1'-0"
140
0.25
141
12.0
290
     0
  0
SCALE
  5
2CE9
102
{ACAD_REACTORS
330
2CCF
102
}
330
2CCF
100
AcDbScale
 70
     0
300
3/8" = 1'-0"
140
0.375
141
12.0
290
     0
  0
SCALE
  5
2CEA
102
{ACAD_REACTORS
330
2CCF
102
}
330
2CCF
100
AcDbScale
 70
     0
300
1/2" = 1'-0"
140
0.5
141
12.0
290
     0
  0
SCALE
  5
2CEB
102
{ACAD_REACTORS
330
2CCF
102
}
330
2CCF
100
AcDbScale
 70
     0
300
3/4" = 1'-0"
140
0.75
141
12.0
290
     0
  0
SCALE
  5
2CEC
102
{ACAD_REACTORS
330
2CCF
102
}
330
2CCF
100
AcDbScale
 70
     0
300
1" = 1'-0"
140
1.0
141
12.0
290
     0
  0
SCALE
  5
2CED
102
{ACAD_REACTORS
330
2CCF
102
}
330
2CCF
100
AcDbScale
 70
     0
300
1-1/2" = 1'-0"
140
1.5
141
12.0
290
     0
  0
SCALE
  5
2CEE
102
{ACAD_REACTORS
330
2CCF
102
}
330
2CCF
100
AcDbScale
 70
     0
300
3" = 1'-0"
140
3.0
141
12.0
290
     0
  0
SCALE
  5
2CEF
102
{ACAD_REACTORS
330
2CCF
102
}
330
2CCF
100
AcDbScale
 70
     0
300
6" = 1'-0"
140
6.0
141
12.0
290
     0
  0
SCALE
  5
2CF0
102
{ACAD_REACTORS
330
2CCF
102
}
330
2CCF
100
AcDbScale
 70
     0
300
1'-0" = 1'-0"
140
12.0
141
12.0
290
     0
  0
TABLESTYLE
  5
2D01
102
{ACAD_XDICTIONARY
360
2EED
102
}
102
{ACAD_REACTORS
330
2D00
102
}
330
2D00
100
AcDbTableStyle
  3
Standard
 70
     0
 71
     0
 40
0.06
 41
0.06
280
     0
281
     0
  7
STANDARD
140
0.18
170
     2
 62
     0
 63
     7
283
     0
274
    -2
284
     1
 64
     0
275
    -2
285
     1
 65
     0
276
    -2
286
     1
 66
     0
277
    -2
287
     1
 67
     0
278
    -2
288
     1
 68
     0
279
    -2
289
     1
 69
     0
  7
STANDARD
140
0.25
170
     5
 62
     0
 63
     7
283
     0
274
    -2
284
     1
 64
     0
275
    -2
285
     1
 65
     0
276
    -2
286
     1
 66
     0
277
    -2
287
     1
 67
     0
278
    -2
288
     1
 68
     0
279
    -2
289
     1
 69
     0
  7
STANDARD
140
0.18
170
     5
 62
     0
 63
     7
283
     0
274
    -2
284
     1
 64
     0
275
    -2
285
     1
 65
     0
276
    -2
286
     1
 66
     0
277
    -2
287
     1
 67
     0
278
    -2
288
     1
 68
     0
279
    -2
289
     1
 69
     0
  0
VISUALSTYLE
  5
2CC4
102
{ACAD_REACTORS
330
2CBE
102
}
330
2CBE
100
AcDbVisualStyle
  2
2dWireframe
 70
     4
 71
     0
 72
     2
 73
     0
 90
        0
 40
-0.6
 41
-30.0
 62
     5
 63
     7
 74
     1
 91
        4
 64
     7
 65
   257
 75
     1
175
     1
 42
1.0
 92
        0
 66
   257
 43
1.0
 76
     1
 77
     6
 78
     2
 67
     7
 79
     5
170
     0
171
     0
290
     0
174
     0
 93
        1
 44
0.0
173
     0
291
     0
 45
0.0
1001
ACAD
1000
AcDbSavedByObjectVersion
1070
     0
  0
VISUALSTYLE
  5
2CC6
102
{ACAD_REACTORS
330
2CBE
102
}
330
2CBE
100
AcDbVisualStyle
  2
3D Hidden
 70
     6
 71
     1
 72
     2
 73
     2
 90
        0
 40
-0.6
 41
-30.0
 62
     5
 63
     7
 74
     2
 91
        2
 64
     7
 65
   257
 75
     2
175
     1
 42
40.0
 92
        0
 66
   257
 43
1.0
 76
     1
 77
     6
 78
     2
 67
     7
 79
     3
170
     0
171
     0
290
     0
174
     0
 93
        1
 44
0.0
173
     0
291
     0
 45
0.0
1001
ACAD
1000
AcDbSavedByObjectVersion
1070
     0
  0
VISUALSTYLE
  5
2CC5
102
{ACAD_REACTORS
330
2CBE
102
}
330
2CBE
100
AcDbVisualStyle
  2
3dWireframe
 70
     5
 71
     0
 72
     2
 73
     0
 90
        0
 40
-0.6
 41
-30.0
 62
     5
 63
     7
 74
     1
 91
        4
 64
     7
 65
   257
 75
     1
175
     1
 42
1.0
 92
        0
 66
   257
 43
1.0
 76
     1
 77
     6
 78
     2
 67
     7
 79
     5
170
     0
171
     0
290
     0
174
     0
 93
        1
 44
0.0
173
     0
291
     0
 45
0.0
1001
ACAD
1000
AcDbSavedByObjectVersion
1070
     0
  0
VISUALSTYLE
  5
2CC3
102
{ACAD_REACTORS
330
2CBE
102
}
330
2CBE
100
AcDbVisualStyle
  2
Basic
 70
     7
 71
     1
 72
     0
 73
     1
 90
        0
 40
-0.6
 41
-30.0
 62
     5
 63
     7
 74
     0
 91
        4
 64
     7
 65
   257
 75
     1
175
     1
 42
1.0
 92
        8
 66
     7
 43
1.0
 76
     1
 77
     6
 78
     2
 67
     7
 79
     5
170
     0
171
     0
290
     0
174
     0
 93
        1
 44
0.0
173
     0
291
     1
 45
0.0
1001
ACAD
1000
AcDbSavedByObjectVersion
1070
     0
  0
VISUALSTYLE
  5
2CCA
102
{ACAD_REACTORS
330
2CBE
102
}
330
2CBE
100
AcDbVisualStyle
  2
Brighten
 70
    12
 71
     2
 72
     2
 73
     0
 90
        0
 40
-0.6
 41
-30.0
 62
     5
 63
     7
 74
     1
 91
        4
 64
     7
 65
   257
 75
     1
175
     1
 42
1.0
 92
        8
 66
     7
 43
1.0
 76
     1
 77
     6
 78
     2
 67
     7
 79
     5
170
     0
171
     0
290
     0
174
     0
 93
        1
 44
50.0
173
     0
291
     1
 45
0.0
1001
ACAD
1000
AcDbSavedByObjectVersion
1070
     0
  0
VISUALSTYLE
  5
2CCE
102
{ACAD_REACTORS
330
2CBE
102
}
330
2CBE
100
AcDbVisualStyle
  2
ColorChange
 70
    16
 71
     2
 72
     2
 73
     3
 90
        0
 40
-0.6
 41
-30.0
 62
     5
 63
     8
 74
     1
 91
        4
 64
     7
 65
   257
 75
     1
175
     1
 42
1.0
 92
        8
 66
     8
 43
1.0
 76
     1
 77
     6
 78
     2
 67
     7
 79
     5
170
     0
171
     0
290
     0
174
     0
 93
        1
 44
0.0
173
     0
291
     1
 45
0.0
1001
ACAD
1000
AcDbSavedByObjectVersion
1070
     0
  0
VISUALSTYLE
  5
2CC7
102
{ACAD_REACTORS
330
2CBE
102
}
330
2CBE
100
AcDbVisualStyle
  2
Conceptual
 70
     9
 71
     3
 72
     2
 73
     0
 90
        0
 40
-0.6
 41
-30.0
 62
     5
 63
     7
 74
     2
 91
        2
 64
     7
 65
   257
 75
     1
175
     1
 42
40.0
 92
        8
 66
     7
 43
1.0
 76
     1
 77
     6
 78
     2
 67
     7
 79
     3
170
     0
171
     0
290
     0
174
     0
 93
        1
 44
0.0
173
     0
291
     0
 45
0.0
1001
ACAD
1000
AcDbSavedByObjectVersion
1070
     0
  0
VISUALSTYLE
  5
2CC9
102
{ACAD_REACTORS
330
2CBE
102
}
330
2CBE
100
AcDbVisualStyle
  2
Dim
 70
    11
 71
     2
 72
     2
 73
     0
 90
        0
 40
-0.6
 41
-30.0
 62
     5
 63
     7
 74
     1
 91
        4
 64
     7
 65
   257
 75
     1
175
     1
 42
1.0
 92
        8
 66
     7
 43
1.0
 76
     1
 77
     6
 78
     2
 67
     7
 79
     5
170
     0
171
     0
290
     0
174
     0
 93
        1
 44
-50.0
173
     0
291
     1
 45
0.0
1001
ACAD
1000
AcDbSavedByObjectVersion
1070
     0
  0
VISUALSTYLE
  5
2CCD
102
{ACAD_REACTORS
330
2CBE
102
}
330
2CBE
100
AcDbVisualStyle
  2
Facepattern
 70
    15
 71
     2
 72
     2
 73
     0
 90
        0
 40
-0.6
 41
-30.0
 62
     5
 63
     7
 74
     1
 91
        4
 64
     7
 65
   257
 75
     1
175
     1
 42
1.0
 92
        8
 66
     7
 43
1.0
 76
     1
 77
     6
 78
     2
 67
     7
 79
     5
170
     0
171
     0
290
     0
174
     0
 93
        1
 44
0.0
173
     0
291
     1
 45
0.0
1001
ACAD
1000
AcDbSavedByObjectVersion
1070
     0
  0
VISUALSTYLE
  5
2CBF
102
{ACAD_REACTORS
330
2CBE
102
}
330
2CBE
100
AcDbVisualStyle
  2
Flat
 70
     0
 71
     2
 72
     1
 73
     1
 90
        2
 40
-0.6
 41
30.0
 62
     5
 63
     7
 74
     0
 91
        4
 64
     7
 65
   257
 75
     1
175
     1
 42
1.0
 92
        8
 66
     7
 43
1.0
 76
     1
 77
     6
 78
     2
 67
     7
 79
     5
170
     0
171
     0
290
     0
174
     0
 93
       13
 44
0.0
173
     0
291
     1
 45
0.0
1001
ACAD
1000
AcDbSavedByObjectVersion
1070
     0
  0
VISUALSTYLE
  5
2CC0
102
{ACAD_REACTORS
330
2CBE
102
}
330
2CBE
100
AcDbVisualStyle
  2
FlatWithEdges
 70
     1
 71
     2
 72
     1
 73
     1
 90
        2
 40
-0.6
 41
30.0
 62
     5
 63
     7
 74
     1
 91
        4
 64
     7
 65
   257
 75
     1
175
     1
 42
1.0
 92
        0
 66
   257
 43
1.0
 76
     1
 77
     6
 78
     2
 67
     7
 79
     5
170
     0
171
     0
290
     0
174
     0
 93
       13
 44
0.0
173
     0
291
     1
 45
0.0
1001
ACAD
1000
AcDbSavedByObjectVersion
1070
     0
  0
VISUALSTYLE
  5
2CC1
102
{ACAD_REACTORS
330
2CBE
102
}
330
2CBE
100
AcDbVisualStyle
  2
Gouraud
 70
     2
 71
     2
 72
     2
 73
     1
 90
        2
 40
-0.6
 41
30.0
 62
     5
 63
     7
 74
     0
 91
        4
 64
     7
 65
   257
 75
     1
175
     1
 42
1.0
 92
        0
 66
     7
 43
1.0
 76
     1
 77
     6
 78
     2
 67
     7
 79
     5
170
     0
171
     0
290
     0
174
     0
 93
       13
 44
0.0
173
     0
291
     1
 45
0.0
1001
ACAD
1000
AcDbSavedByObjectVersion
1070
     0
  0
VISUALSTYLE
  5
2CC2
102
{ACAD_REACTORS
330
2CBE
102
}
330
2CBE
100
AcDbVisualStyle
  2
GouraudWithEdges
 70
     3
 71
     2
 72
     2
 73
     1
 90
        2
 40
-0.6
 41
30.0
 62
     5
 63
     7
 74
     1
 91
        4
 64
     7
 65
   257
 75
     1
175
     1
 42
1.0
 92
        0
 66
   257
 43
1.0
 76
     1
 77
     6
 78
     2
 67
     7
 79
     5
170
     0
171
     0
290
     0
174
     0
 93
       13
 44
0.0
173
     0
291
     1
 45
0.0
1001
ACAD
1000
AcDbSavedByObjectVersion
1070
     0
  0
VISUALSTYLE
  5
2CCC
102
{ACAD_REACTORS
330
2CBE
102
}
330
2CBE
100
AcDbVisualStyle
  2
Linepattern
 70
    14
 71
     2
 72
     2
 73
     0
 90
        0
 40
-0.6
 41
-30.0
 62
     5
 63
     7
 74
     1
 91
        4
 64
     7
 65
   257
 75
     7
175
     7
 42
1.0
 92
        8
 66
     7
 43
1.0
 76
     1
 77
     6
 78
     2
 67
     7
 79
     5
170
     0
171
     0
290
     0
174
     0
 93
        1
 44
0.0
173
     0
291
     1
 45
0.0
1001
ACAD
1000
AcDbSavedByObjectVersion
1070
     0
  0
VISUALSTYLE
  5
2CC8
102
{ACAD_REACTORS
330
2CBE
102
}
330
2CBE
100
AcDbVisualStyle
  2
Realistic
 70
     8
 71
     2
 72
     2
 73
     0
 90
        0
 40
-0.6
 41
-30.0
 62
     5
 63
     7
 74
     1
 91
        0
 64
     7
 65
   257
 75
     1
175
     1
 42
1.0
 92
        8
 66
     8
 43
1.0
 76
     1
 77
     6
 78
     2
 67
     7
 79
     5
170
     0
171
     0
290
     0
174
     0
 93
       13
 44
0.0
173
     0
291
     0
 45
0.0
1001
ACAD
1000
AcDbSavedByObjectVersion
1070
     0
  0
VISUALSTYLE
  5
2CCB
102
{ACAD_REACTORS
330
2CBE
102
}
330
2CBE
100
AcDbVisualStyle
  2
Thicken
 70
    13
 71
     2
 72
     2
 73
     0
 90
        0
 40
-0.6
 41
-30.0
 62
     5
 63
     7
 74
     1
 91
        4
 64
     7
 65
   257
 75
     1
175
     1
 42
1.0
 92
       12
 66
     7
 43
1.0
 76
     1
 77
     6
 78
     2
 67
     7
 79
     5
170
     0
171
     0
290
     0
174
     0
 93
        1
 44
0.0
173
     0
291
     1
 45
0.0
1001
ACAD
1000
AcDbSavedByObjectVersion
1070
     0
  0
DICTIONARYVAR
  5
2EE9
102
{ACAD_REACTORS
330
2EE6
102
}
330
2EE6
100
DictionaryVariables
280
     0
  1
1:1
  0
DICTIONARYVAR
  5
2EE8
102
{ACAD_REACTORS
330
2EE6
102
}
330
2EE6
100
DictionaryVariables
280
     0
  1
STANDARD
  0
DICTIONARYVAR
  5
2EE7
102
{ACAD_REACTORS
330
2EE6
102
}
330
2EE6
100
DictionaryVariables
280
     0
  1
STANDARD
  0
DICTIONARYVAR
  5
2EEC
102
{ACAD_REACTORS
330
2EE6
102
}
330
2EE6
100
DictionaryVariables
280
     0
  1
1
  0
DICTIONARYVAR
  5
2EEB
102
{ACAD_REACTORS
330
2EE6
102
}
330
2EE6
100
DictionaryVariables
280
     0
  1
1
  0
DICTIONARYVAR
  5
2EEA
102
{ACAD_REACTORS
330
2EE6
102
}
330
2EE6
100
DictionaryVariables
280
     0
  1
127
  0
DICTIONARY
  5
2EA0
102
{ACAD_REACTORS
330
2E92
102
}
330
2E92
100
AcDbDictionary
281
     1
  0
DICTIONARY
  5
2DE0
102
{ACAD_REACTORS
330
2DDF
102
}
330
2DDF
100
AcDbDictionary
281
     1
  3
DWGSETTINGS
350
2DE1
  3
TRANSSETTINGS
350
2DE2
  0
ACAMGFILTERDAT
  5
2EBF
102
{ACAD_REACTORS
330
2EBA
102
}
330
2EBA
100
AcAmgFilterDat
 70
    15
  1
DIMENSION,AMDT_*_DIM
  2
*
  3
*
  4
*
  5
*
290
     1
  0
ACAMGFILTERDAT
  5
2EBE
102
{ACAD_REACTORS
330
2EBA
102
}
330
2EBA
100
AcAmgFilterDat
 70
    15
  1
*
  2
AM_FEA-AM_*
  3
*
  4
*
  5
*
290
     1
  0
ACAMGFILTERDAT
  5
2EBB
102
{ACAD_REACTORS
330
2EBA
102
}
330
2EBA
100
AcAmgFilterDat
 70
    15
  1
HATCH
  2
*
  3
*
  4
*
  5
*
290
     1
  0
ACAMGFILTERDAT
  5
2EBC
102
{ACAD_REACTORS
330
2EBA
102
}
330
2EBA
100
AcAmgFilterDat
 70
    15
  1
LINE
  2
8,8N,*-8,*-8N,AM_8,AM_8N,*-AM_8,*-AM_8N
  3
*
  4
*
  5
INSERT,STDPART2D
290
     1
  0
ACAMGFILTERDAT
  5
2EC0
102
{ACAD_REACTORS
330
2EBA
102
}
330
2EBA
100
AcAmgFilterDat
 70
    15
  1
ARC
  2
AM_5
  3
*
  4
2
  5
INSERT
290
     0
  0
ACAMGFILTERDAT
  5
2EBD
102
{ACAD_REACTORS
330
2EBA
102
}
330
2EBA
100
AcAmgFilterDat
 70
    15
  1
ACMFCFRAME,ACMDATUMTARGET,ACMDATUMID,ACMWELDSYM,ACMSURFSYM,ACMFEATID,ACMPARTREF,ACMBALLOON,AMDTEDGESYM,AMGSCREWCALCTABLE,ACMMARKSTAMP
  2
*
  3
*
  4
*
  5
*
290
     1
  0
LAYER_INDEX
  5
2ED9
102
{ACAD_REACTORS
330
2ED8
102
}
330
2ED8
100
AcDbIndex
 40
2456210.798213553
100
AcDbLayerIndex
  8
0
360
2EDA
 90
        2
  8
OUTLINE
360
2EDB
 90
       17
  8
SIZE
360
2EDC
 90
       24
  8
BASIS
360
2EDD
 90
        1
  8
DETAIL
360
2EDE
 90
       19
  8
ARRANGE
360
2EDF
 90
        2
  8
DEFPOINTS
360
2EE0
 90
        0
  8
ETC
360
2EE1
 90
        3
  8
FIX
360
2EE2
 90
        0
  8
NOTE
360
2EE3
 90
        4
  8
SERVICESPACE
360
2EE4
 90
        0
  8
SYMBOLLINE
360
2EE5
 90
        0
  0
DICTIONARY
  5
2EFC
330
2D0C
100
AcDbDictionary
280
     1
281
     1
  3
ACAD_XREC_ROUNDTRIP
360
2EFD
  0
DICTIONARY
  5
2EFA
330
2D08
100
AcDbDictionary
280
     1
281
     1
  3
ACAD_XREC_ROUNDTRIP
360
2EFB
  0
DICTIONARY
  5
2CAF
330
2CAE
100
AcDbDictionary
280
     1
281
     1
  3
ACAD_XREC_ROUNDTRIP
360
2EF7
  3
BUMPTILE
360
2CB1
  3
DIFFUSETILE
360
2CB0
  3
OPACITYTILE
360
2CB4
  3
REFLECTIONTILE
360
2CB3
  3
REFRACTIONTILE
360
2CB5
  3
SPECULARTILE
360
2CB2
  0
DICTIONARY
  5
2CA7
330
2CA6
100
AcDbDictionary
280
     1
281
     1
  3
ACAD_XREC_ROUNDTRIP
360
2EF6
  3
BUMPTILE
360
2CA9
  3
DIFFUSETILE
360
2CA8
  3
OPACITYTILE
360
2CAC
  3
REFLECTIONTILE
360
2CAB
  3
REFRACTIONTILE
360
2CAD
  3
SPECULARTILE
360
2CAA
  0
DICTIONARY
  5
2CB7
330
2CB6
100
AcDbDictionary
280
     1
281
     1
  3
ACAD_XREC_ROUNDTRIP
360
2EF8
  3
BUMPTILE
360
2CB9
  3
DIFFUSETILE
360
2CB8
  3
OPACITYTILE
360
2CBC
  3
REFLECTIONTILE
360
2CBB
  3
REFRACTIONTILE
360
2CBD
  3
SPECULARTILE
360
2CBA
  0
DICTIONARY
  5
2EED
330
2D01
100
AcDbDictionary
280
     1
281
     1
  3
ACAD_ROUNDTRIP_2008_TABLESTYLE_CELLSTYLEMAP
360
2EEE
  3
ACAD_XREC_ROUNDTRIP
360
2EF9
  0
IDBUFFER
  5
2EDA
330
0
100
AcDbIdBuffer
330
29CC
330
29CD
  0
IDBUFFER
  5
2EDB
330
0
100
AcDbIdBuffer
330
29D8
330
953
330
954
330
955
330
956
330
957
330
958
330
29C8
330
29CB
330
29D0
330
29D1
330
29D2
330
29D3
330
29D4
330
29D5
330
29D6
330
29D7
  0
IDBUFFER
  5
2EDC
330
0
100
AcDbIdBuffer
330
29ED
330
29EE
330
29EF
330
29F0
330
29F1
330
29F2
330
29F3
330
29F4
330
29DD
330
29DE
330
29DF
330
29E0
330
29E1
330
29E2
330
29E3
330
29E4
330
29E5
330
29E6
330
29E7
330
29E8
330
29E9
330
29EA
330
29EB
330
29EC
  0
IDBUFFER
  5
2EDD
330
0
100
AcDbIdBuffer
330
29B9
  0
IDBUFFER
  5
2EDE
330
0
100
AcDbIdBuffer
330
29DA
330
29DB
330
29DC
330
29B3
330
29B4
330
29BA
330
29BB
330
29BC
330
29BD
330
29BE
330
29BF
330
29C0
330
29C1
330
29C3
330
29C5
330
29C6
330
29C7
330
29CA
330
29D9
  0
IDBUFFER
  5
2EDF
330
0
100
AcDbIdBuffer
330
29B8
330
29C9
  0
IDBUFFER
  5
2EE0
330
0
100
AcDbIdBuffer
  0
IDBUFFER
  5
2EE1
330
0
100
AcDbIdBuffer
330
29B5
330
29B6
330
29B7
  0
IDBUFFER
  5
2EE2
330
0
100
AcDbIdBuffer
  0
IDBUFFER
  5
2EE3
330
0
100
AcDbIdBuffer
330
29C2
330
29C4
330
29CE
330
29CF
  0
IDBUFFER
  5
2EE4
330
0
100
AcDbIdBuffer
  0
IDBUFFER
  5
2EE5
330
0
100
AcDbIdBuffer
  0
XRECORD
  5
2EFD
102
{ACAD_REACTORS
330
2EFC
102
}
330
2EFC
100
AcDbXrecord
280
     1
102
SHADEPLOT
 70
     0
102
SHADEPLOTRESLEVEL
 70
     2
102
SHADEPLOTCUSTOMDPI
 70
   300
  0
XRECORD
  5
2EFB
102
{ACAD_REACTORS
330
2EFA
102
}
330
2EFA
100
AcDbXrecord
280
     1
102
SHADEPLOT
 70
     0
102
SHADEPLOTRESLEVEL
 70
     2
102
SHADEPLOTCUSTOMDPI
 70
   300
  0
XRECORD
  5
2EF7
102
{ACAD_REACTORS
330
2CAF
102
}
330
2CAF
100
AcDbXrecord
280
     1
102
MATERIAL
148
0.0
149
0.0
149
0.0
 93
        0
 94
      127
282
     0
 72
     0
 77
     0
171
     0
175
     0
179
     0
273
     0
  0
XRECORD
  5
2CB1
102
{ACAD_REACTORS
330
2CAF
102
}
330
2CAF
100
AcDbXrecord
280
     1
270
     1
271
     1
  0
XRECORD
  5
2CB0
102
{ACAD_REACTORS
330
2CAF
102
}
330
2CAF
100
AcDbXrecord
280
     1
270
     1
271
     1
  0
XRECORD
  5
2CB4
102
{ACAD_REACTORS
330
2CAF
102
}
330
2CAF
100
AcDbXrecord
280
     1
270
     1
271
     1
  0
XRECORD
  5
2CB3
102
{ACAD_REACTORS
330
2CAF
102
}
330
2CAF
100
AcDbXrecord
280
     1
270
     1
271
     1
  0
XRECORD
  5
2CB5
102
{ACAD_REACTORS
330
2CAF
102
}
330
2CAF
100
AcDbXrecord
280
     1
270
     1
271
     1
  0
XRECORD
  5
2CB2
102
{ACAD_REACTORS
330
2CAF
102
}
330
2CAF
100
AcDbXrecord
280
     1
270
     1
271
     1
  0
XRECORD
  5
2EF6
102
{ACAD_REACTORS
330
2CA7
102
}
330
2CA7
100
AcDbXrecord
280
     1
102
MATERIAL
148
0.0
149
0.0
149
0.0
 93
        0
 94
      127
282
     0
 72
     0
 77
     0
171
     0
175
     0
179
     0
273
     0
  0
XRECORD
  5
2CA9
102
{ACAD_REACTORS
330
2CA7
102
}
330
2CA7
100
AcDbXrecord
280
     1
270
     1
271
     1
  0
XRECORD
  5
2CA8
102
{ACAD_REACTORS
330
2CA7
102
}
330
2CA7
100
AcDbXrecord
280
     1
270
     1
271
     1
  0
XRECORD
  5
2CAC
102
{ACAD_REACTORS
330
2CA7
102
}
330
2CA7
100
AcDbXrecord
280
     1
270
     1
271
     1
  0
XRECORD
  5
2CAB
102
{ACAD_REACTORS
330
2CA7
102
}
330
2CA7
100
AcDbXrecord
280
     1
270
     1
271
     1
  0
XRECORD
  5
2CAD
102
{ACAD_REACTORS
330
2CA7
102
}
330
2CA7
100
AcDbXrecord
280
     1
270
     1
271
     1
  0
XRECORD
  5
2CAA
102
{ACAD_REACTORS
330
2CA7
102
}
330
2CA7
100
AcDbXrecord
280
     1
270
     1
271
     1
  0
XRECORD
  5
2EF8
102
{ACAD_REACTORS
330
2CB7
102
}
330
2CB7
100
AcDbXrecord
280
     1
102
MATERIAL
148
0.0
149
0.0
149
0.0
 93
        0
 94
      127
282
     0
 72
     0
 77
     0
171
     0
175
     0
179
     0
273
     0
  0
XRECORD
  5
2CB9
102
{ACAD_REACTORS
330
2CB7
102
}
330
2CB7
100
AcDbXrecord
280
     1
270
     1
271
     1
  0
XRECORD
  5
2CB8
102
{ACAD_REACTORS
330
2CB7
102
}
330
2CB7
100
AcDbXrecord
280
     1
270
     1
271
     1
  0
XRECORD
  5
2CBC
102
{ACAD_REACTORS
330
2CB7
102
}
330
2CB7
100
AcDbXrecord
280
     1
270
     1
271
     1
  0
XRECORD
  5
2CBB
102
{ACAD_REACTORS
330
2CB7
102
}
330
2CB7
100
AcDbXrecord
280
     1
270
     1
271
     1
  0
XRECORD
  5
2CBD
102
{ACAD_REACTORS
330
2CB7
102
}
330
2CB7
100
AcDbXrecord
280
     1
270
     1
271
     1
  0
XRECORD
  5
2CBA
102
{ACAD_REACTORS
330
2CB7
102
}
330
2CB7
100
AcDbXrecord
280
     1
270
     1
271
     1
  0
CELLSTYLEMAP
  5
2EEE
102
{ACAD_REACTORS
330
2EED
102
}
330
2EED
100
AcDbCellStyleMap
 90
        3
300
CELLSTYLE
  1
TABLEFORMAT_BEGIN
 90
        5
170
     1
 91
        0
 92
    32768
 62
   257
 93
        1
300
CONTENTFORMAT
  1
CONTENTFORMAT_BEGIN
 90
        0
 91
        0
 92
      512
 93
        0
300

 40
0.0
140
1.0
 94
        5
 62
     0
340
2CF2
144
0.25
309
CONTENTFORMAT_END
171
     0
 94
        0
309
TABLEFORMAT_END
  1
CELLSTYLE_BEGIN
 90
        1
 91
        1
300
_TITLE
309
CELLSTYLE_END
300
CELLSTYLE
  1
TABLEFORMAT_BEGIN
 90
        5
170
     1
 91
        0
 92
        0
 62
   257
 93
        1
300
CONTENTFORMAT
  1
CONTENTFORMAT_BEGIN
 90
        0
 91
        0
 92
      512
 93
        0
300

 40
0.0
140
1.0
 94
        5
 62
     0
340
2CF2
144
0.18
309
CONTENTFORMAT_END
171
     0
 94
        0
309
TABLEFORMAT_END
  1
CELLSTYLE_BEGIN
 90
        2
 91
        1
300
_HEADER
309
CELLSTYLE_END
300
CELLSTYLE
  1
TABLEFORMAT_BEGIN
 90
        5
170
     1
 91
        0
 92
        0
 62
   257
 93
        1
300
CONTENTFORMAT
  1
CONTENTFORMAT_BEGIN
 90
        0
 91
        0
 92
      512
 93
        0
300

 40
0.0
140
1.0
 94
        2
 62
     0
340
2CF2
144
0.18
309
CONTENTFORMAT_END
171
     0
 94
        0
309
TABLEFORMAT_END
  1
CELLSTYLE_BEGIN
 90
        3
 91
        2
300
_DATA
309
CELLSTYLE_END
  0
XRECORD
  5
2EF9
102
{ACAD_REACTORS
330
2EED
102
}
330
2EED
100
AcDbXrecord
280
     1
102
ACAD_ROUNDTRIP_PRE2007_TABLESTYLE
 90
      512
 91
        0
  1

 92
      512
 93
        0
  2

 94
      512
 95
        0
  3

  0
ENDSEC
  0
EOF
