  0
SECTION
  2
HEADER
  9
$ACADVER
  1
AC1015
  9
$ACADMAINTVER
 70
    20
  9
$DWGCODEPAGE
  3
ANSI_932
  9
$INSBASE
 10
0.0
 20
0.0
 30
0.0
  9
$EXTMIN
 10
-1127.595114277967
 20
-1075.822995541721
 30
0.0
  9
$EXTMAX
 10
1364.92163261674
 20
805.7616409610508
 30
50.0
  9
$LIMMIN
 10
-2970.0
 20
-2100.0
  9
$LIMMAX
 10
2970.0
 20
2100.0
  9
$ORTHOMODE
 70
     1
  9
$REGENMODE
 70
     0
  9
$FILLMODE
 70
     1
  9
$QTEXTMODE
 70
     0
  9
$MIRRTEXT
 70
     0
  9
$LTSCALE
 40
20.0
  9
$ATTMODE
 70
     1
  9
$TEXTSIZE
 40
64.0
  9
$TRACEWID
 40
0.05
  9
$TEXTSTYLE
  7
STANDARD
  9
$CLAYER
  8
0
  9
$CELTYPE
  6
ByLayer
  9
$CECOLOR
 62
   256
  9
$CELTSCALE
 40
1.0
  9
$DISPSILH
 70
     0
  9
$DIMSCALE
 40
1.0
  9
$DIMASZ
 40
0.12
  9
$DIMEXO
 40
0.05
  9
$DIMDLI
 40
0.5
  9
$DIMRND
 40
0.0
  9
$DIMDLE
 40
0.0
  9
$DIMEXE
 40
0.1
  9
$DIMTP
 40
0.1
  9
$DIMTM
 40
0.1
  9
$DIMTXT
 40
0.12
  9
$DIMCEN
 40
0.0
  9
$DIMTSZ
 40
0.0
  9
$DIMTOL
 70
     0
  9
$DIMLIM
 70
     0
  9
$DIMTIH
 70
     1
  9
$DIMTOH
 70
     1
  9
$DIMSE1
 70
     0
  9
$DIMSE2
 70
     0
  9
$DIMTAD
 70
     0
  9
$DIMZIN
 70
     7
  9
$DIMBLK
  1

  9
$DIMASO
 70
     1
  9
$DIMSHO
 70
     0
  9
$DIMPOST
  1

  9
$DIMAPOST
  1
mm
  9
$DIMALT
 70
     0
  9
$DIMALTD
 70
     2
  9
$DIMALTF
 40
25.4
  9
$DIMLFAC
 40
1.0
  9
$DIMTOFL
 70
     0
  9
$DIMTVP
 40
0.0
  9
$DIMTIX
 70
     0
  9
$DIMSOXD
 70
     0
  9
$DIMSAH
 70
     0
  9
$DIMBLK1
  1

  9
$DIMBLK2
  1

  9
$DIMSTYLE
  2
AM_ANSI
  9
$DIMCLRD
 70
   256
  9
$DIMCLRE
 70
   256
  9
$DIMCLRT
 70
     2
  9
$DIMTFAC
 40
0.71
  9
$DIMGAP
 40
0.06
  9
$DIMJUST
 70
     0
  9
$DIMSD1
 70
     0
  9
$DIMSD2
 70
     0
  9
$DIMTOLJ
 70
     1
  9
$DIMTZIN
 70
     7
  9
$DIMALTZ
 70
     0
  9
$DIMALTTZ
 70
     0
  9
$DIMUPT
 70
     0
  9
$DIMDEC
 70
     4
  9
$DIMTDEC
 70
     4
  9
$DIMALTU
 70
     2
  9
$DIMALTTD
 70
     4
  9
$DIMTXSTY
  7
STANDARD
  9
$DIMAUNIT
 70
     0
  9
$DIMADEC
 70
     0
  9
$DIMALTRND
 40
0.0
  9
$DIMAZIN
 70
     2
  9
$DIMDSEP
 70
    46
  9
$DIMATFIT
 70
     3
  9
$DIMFRAC
 70
     0
  9
$DIMLDRBLK
  1

  9
$DIMLUNIT
 70
     2
  9
$DIMLWD
 70
    -1
  9
$DIMLWE
 70
    -1
  9
$DIMTMOVE
 70
     0
  9
$LUNITS
 70
     2
  9
$LUPREC
 70
     4
  9
$SKETCHINC
 40
0.1
  9
$FILLETRAD
 40
4.0
  9
$AUNITS
 70
     1
  9
$AUPREC
 70
     3
  9
$MENU
  1
ACAD
  9
$ELEVATION
 40
0.0
  9
$PELEVATION
 40
0.0
  9
$THICKNESS
 40
50.0
  9
$LIMCHECK
 70
     0
  9
$CHAMFERA
 40
0.0
  9
$CHAMFERB
 40
0.0
  9
$CHAMFERC
 40
0.0
  9
$CHAMFERD
 40
0.0
  9
$SKPOLY
 70
     0
  9
$TDCREATE
 40
2452321.396199653
  9
$TDUCREATE
 40
2452321.021199653
  9
$TDUPDATE
 40
2456210.799996759
  9
$TDUUPDATE
 40
2456210.424996760
  9
$TDINDWG
 40
1.0410850694
  9
$TDUSRTIMER
 40
1.0410793171
  9
$USRTIMER
 70
     1
  9
$ANGBASE
 50
0.0
  9
$ANGDIR
 70
     0
  9
$PDMODE
 70
     3
  9
$PDSIZE
 40
-2.0
  9
$PLINEWID
 40
0.0
  9
$SPLFRAME
 70
     0
  9
$SPLINETYPE
 70
     6
  9
$SPLINESEGS
 70
     8
  9
$HANDSEED
  5
2F66
  9
$SURFTAB1
 70
     6
  9
$SURFTAB2
 70
     6
  9
$SURFTYPE
 70
     6
  9
$SURFU
 70
     6
  9
$SURFV
 70
     6
  9
$UCSBASE
  2

  9
$UCSNAME
  2

  9
$UCSORG
 10
0.0
 20
0.0
 30
0.0
  9
$UCSXDIR
 10
1.0
 20
0.0
 30
0.0
  9
$UCSYDIR
 10
0.0
 20
1.0
 30
0.0
  9
$UCSORTHOREF
  2

  9
$UCSORTHOVIEW
 70
     0
  9
$UCSORGTOP
 10
0.0
 20
0.0
 30
0.0
  9
$UCSORGBOTTOM
 10
0.0
 20
0.0
 30
0.0
  9
$UCSORGLEFT
 10
0.0
 20
0.0
 30
0.0
  9
$UCSORGRIGHT
 10
0.0
 20
0.0
 30
0.0
  9
$UCSORGFRONT
 10
0.0
 20
0.0
 30
0.0
  9
$UCSORGBACK
 10
0.0
 20
0.0
 30
0.0
  9
$PUCSBASE
  2

  9
$PUCSNAME
  2

  9
$PUCSORG
 10
0.0
 20
0.0
 30
0.0
  9
$PUCSXDIR
 10
1.0
 20
0.0
 30
0.0
  9
$PUCSYDIR
 10
0.0
 20
1.0
 30
0.0
  9
$PUCSORTHOREF
  2

  9
$PUCSORTHOVIEW
 70
     0
  9
$PUCSORGTOP
 10
0.0
 20
0.0
 30
0.0
  9
$PUCSORGBOTTOM
 10
0.0
 20
0.0
 30
0.0
  9
$PUCSORGLEFT
 10
0.0
 20
0.0
 30
0.0
  9
$PUCSORGRIGHT
 10
0.0
 20
0.0
 30
0.0
  9
$PUCSORGFRONT
 10
0.0
 20
0.0
 30
0.0
  9
$PUCSORGBACK
 10
0.0
 20
0.0
 30
0.0
  9
$USERI1
 70
     0
  9
$USERI2
 70
     0
  9
$USERI3
 70
     0
  9
$USERI4
 70
     0
  9
$USERI5
 70
     0
  9
$USERR1
 40
20.0
  9
$USERR2
 40
0.0
  9
$USERR3
 40
0.0
  9
$USERR4
 40
0.0
  9
$USERR5
 40
0.0
  9
$WORLDVIEW
 70
     1
  9
$SHADEDGE
 70
     3
  9
$SHADEDIF
 70
    70
  9
$TILEMODE
 70
     1
  9
$MAXACTVP
 70
    64
  9
$PINSBASE
 10
0.0
 20
0.0
 30
0.0
  9
$PLIMCHECK
 70
     0
  9
$PEXTMIN
 10
1.000000000000000E+20
 20
1.000000000000000E+20
 30
1.000000000000000E+20
  9
$PEXTMAX
 10
-1.000000000000000E+20
 20
-1.000000000000000E+20
 30
-1.000000000000000E+20
  9
$PLIMMIN
 10
0.0
 20
0.0
  9
$PLIMMAX
 10
12.0
 20
9.0
  9
$UNITMODE
 70
     0
  9
$VISRETAIN
 70
     1
  9
$PLINEGEN
 70
     0
  9
$PSLTSCALE
 70
     1
  9
$TREEDEPTH
 70
  3020
  9
$CMLSTYLE
  2
Standard
  9
$CMLJUST
 70
     0
  9
$CMLSCALE
 40
1.0
  9
$PROXYGRAPHICS
 70
     1
  9
$MEASUREMENT
 70
     0
  9
$CELWEIGHT
370
    -1
  9
$ENDCAPS
280
     0
  9
$JOINSTYLE
280
     0
  9
$LWDISPLAY
290
     0
  9
$INSUNITS
 70
     0
  9
$HYPERLINKBASE
  1

  9
$STYLESHEET
  1

  9
$XEDIT
290
     1
  9
$CEPSNTYPE
380
     0
  9
$PSTYLEMODE
290
     1
  9
$FINGERPRINTGUID
  2
{7E5CE1BC-B4C9-4D0F-8F2F-FC51441A08BB}
  9
$VERSIONGUID
  2
{2A1CD051-AEB6-4C8C-B267-5BFC87E5145F}
  9
$EXTNAMES
290
     1
  9
$PSVPSCALE
 40
0.0
  9
$OLESTARTUP
290
     0
  0
ENDSEC
  0
SECTION
  2
CLASSES
  0
CLASS
  1
ACDBDICTIONARYWDFLT
  2
AcDbDictionaryWithDefault
  3
ObjectDBX Classes
 90
        0
280
     0
281
     0
  0
CLASS
  1
MATERIAL
  2
AcDbMaterial
  3
ObjectDBX Classes
 90
     1153
280
     0
281
     0
  0
CLASS
  1
VISUALSTYLE
  2
AcDbVisualStyle
  3
ObjectDBX Classes
 90
     4095
280
     0
281
     0
  0
CLASS
  1
SCALE
  2
AcDbScale
  3
ObjectDBX Classes
 90
     1153
280
     0
281
     0
  0
CLASS
  1
TABLESTYLE
  2
AcDbTableStyle
  3
ObjectDBX Classes
 90
     4095
280
     0
281
     0
  0
CLASS
  1
MLEADERSTYLE
  2
AcDbMLeaderStyle
  3
ACDB_MLEADERSTYLE_CLASS
 90
     4095
280
     0
281
     0
  0
CLASS
  1
AMGSETTINGSOBJ
  2
AmgSettingsObj
  3
"AcadM|Product Description: AutoCAD Mechanical|Company: Autodesk, Inc."
 90
     1024
280
     0
281
     0
  0
CLASS
  1
ACME_DOCUMENT
  2
AcMeDbDoc
  3
AcMeServices
 90
     1024
280
     0
281
     0
  0
CLASS
  1
ACMESCOPE
  2
AcMeScope
  3
AcMeServices
 90
     1024
280
     0
281
     0
  0
CLASS
  1
ACMECOMMANDHISTORY
  2
AcMeCommandHistory
  3
AcMeServices
 90
     1024
280
     0
281
     0
  0
CLASS
  1
ACIMSYSVARMAN
  2
AcImSysVarManager
  3
AcMeServices
 90
     1024
280
     0
281
     0
  0
CLASS
  1
ACIMREALSYSVAR
  2
AcImRealSysVar
  3
AcMeServices
 90
     1024
280
     0
281
     0
  0
CLASS
  1
ACIMINTSYSVAR
  2
AcImIntSysVar
  3
AcMeServices
 90
     1024
280
     0
281
     0
  0
CLASS
  1
ACMEDRAWINGMAN
  2
AcMeDrawingMan
  3
AcMeServices
 90
     1024
280
     0
281
     0
  0
CLASS
  1
ACMEVIEW
  2
AcMeView
  3
AcMeServices
 90
     1024
280
     0
281
     0
  0
CLASS
  1
ACDBENTITYCACHE
  2
AcMeEntityCache
  3
AcMeServices
 90
     1024
280
     0
281
     0
  0
CLASS
  1
GSMANAGER
  2
AcMeGSManager
  3
AcMeServices
 90
     1024
280
     0
281
     0
  0
CLASS
  1
AMDTINTERNALREACTOR
  2
AmdtInternalReactor
  3
AcMeServices
 90
     1024
280
     0
281
     0
  0
CLASS
  1
ACMESTATEMGR
  2
AcMeStateMgr
  3
AcMeServices
 90
     1024
280
     0
281
     0
  0
CLASS
  1
ACGREFMASTER
  2
AcGrefMaster
  3
AcAttribServices
 90
     1024
280
     0
281
     0
  0
CLASS
  1
AM_DRAWING_MGR
  2
AcDmDwgMgr
  3
AcMechDwgViewMgmt
 90
     1024
280
     0
281
     0
  0
CLASS
  1
AM_DWG_DOCUMENT
  2
AcDmDwgDocument
  3
AcMechDwgViewMgmt
 90
     1024
280
     0
281
     0
  0
CLASS
  1
AM_DWG_SHEET
  2
AcDmSheet
  3
AcMechDwgViewMgmt
 90
     1024
280
     0
281
     0
  0
CLASS
  1
AM_VIEWDIMPARMAP
  2
AcDmViewDimParMap
  3
AcMechDwgViewMgmt
 90
     1024
280
     0
281
     0
  0
CLASS
  1
AM_DWGMGR_NAME
  2
AcDmDwgMgrName
  3
AcMechDwgViewMgmt
 90
     1024
280
     0
281
     0
  0
CLASS
  1
ACME_DATABASE
  2
AcMeDbDatabase
  3
AcMeServices
 90
     1024
280
     0
281
     0
  0
CLASS
  1
ACRFINSADJUSTERMGR
  2
AcRfInsAdjusterMgr
  3
AcMeServices
 90
     1024
280
     0
281
     0
  0
CLASS
  1
ACGREFACADMASTER
  2
AcGrefacadMaster
  3
AcGrefServices
 90
     1024
280
     0
281
     0
  0
CLASS
  1
AMDTMENUSTATEMGR
  2
AmdtMenuStateMgr
  3
McadcomServices
 90
     1024
280
     0
281
     0
  0
CLASS
  1
AMDTMCOMMENUSTATE
  2
AmdtMcomMenuState
  3
McadcomServices
 90
     1024
280
     0
281
     0
  0
CLASS
  1
AMIMASTER
  2
AmiMaster
  3
AmiServices
 90
     1024
280
     0
281
     0
  0
CLASS
  1
ASAPP
  2
AcAsAppObject
  3
AutoSurfServices
 90
     1024
280
     0
281
     0
  0
CLASS
  1
IM_STATIC_MAN
  2
AcImStaticVarManager
  3
AcMeServices
 90
     1024
280
     0
281
     0
  0
CLASS
  1
ACIMSTRSYSVAR
  2
AcImStrSysVar
  3
AcMeServices
 90
     1024
280
     0
281
     0
  0
CLASS
  1
ACIMDBLSTATICVAR
  2
AcImDblStaticVar
  3
AcMeServices
 90
     1024
280
     0
281
     0
  0
CLASS
  1
ACIMSTRSTATICVAR
  2
AcImStrStaticVar
  3
AcMeServices
 90
     1024
280
     0
281
     0
  0
CLASS
  1
ACIMINTSTATICVAR
  2
AcImIntStaticVar
  3
AcMeServices
 90
     1024
280
     0
281
     0
  0
CLASS
  1
ACASGREFMASTER
  2
AcAsGrefMaster
  3
AutoSurfResolverServices
 90
     1024
280
     0
281
     0
  0
CLASS
  1
ACADGREFMODULE
  2
AcAdGrefModule
  3
AdGrefServices
 90
     1024
280
     0
281
     0
  0
CLASS
  1
AMDTMAPISURFMOUDULE
  2
AmdtMApiSurfModule
  3
MApiSurfServices
 90
     1024
280
     0
281
     0
  0
CLASS
  1
MAPIAMMOUDLE
  2
MApiAmModule
  3
MApiAmServices
 90
     1024
280
     0
281
     0
  0
CLASS
  1
AMDTADMENUSTATE
  2
AmdtAdMenuState
  3
DesignerServices
 90
     1024
280
     0
281
     0
  0
CLASS
  1
ADAPPL
  2
AcAdAppl
  3
DesignerServices
 90
     1024
280
     0
281
     0
  0
CLASS
  1
DEPMGR
  2
AcAdDepMgr
  3
DesignerServices
 90
     1024
280
     0
281
     0
  0
CLASS
  1
PARAMMGR
  2
AcAdParamMgr
  3
DesignerServices
 90
     1024
280
     0
281
     0
  0
CLASS
  1
PARAMSCOPE
  2
AcAdParamScope
  3
DesignerServices
 90
     1024
280
     0
281
     0
  0
CLASS
  1
NAMEDAPPL
  2
AcAdNamedAppl
  3
DesignerServices
 90
     1024
280
     0
281
     0
  0
CLASS
  1
AMDTDMMENUSTATE
  2
AmdtDmMenuState
  3
AcMechDwgViewMgmt
 90
     1024
280
     0
281
     0
  0
CLASS
  1
MAPIADMODULE
  2
MApiAdModule
  3
MApiAdServices
 90
     1024
280
     0
281
     0
  0
CLASS
  1
AMDTAMMENUSTATE
  2
AmdtAmMenuState
  3
DesignerAssemblies
 90
     1024
280
     0
281
     0
  0
CLASS
  1
ACAMPROJECT
  2
AcAmProject
  3
DesignerAssemblies
 90
     1024
280
     0
281
     0
  0
CLASS
  1
ACAMGRCOMPDEF
  2
AcAmGrCompDef
  3
DesignerAssemblies
 90
     1024
280
     0
281
     0
  0
CLASS
  1
ACCMCONTEXT
  2
AcCmContext
  3
DesignerAssemblies
 90
     1024
280
     0
281
     0
  0
CLASS
  1
ACAMCOMPDEF
  2
AcAmCompDef
  3
DesignerAssemblies
 90
     1024
280
     0
281
     0
  0
CLASS
  1
ACAMCOMPDEFMGR
  2
AcAmCompDefMgr
  3
DesignerAssemblies
 90
     1024
280
     0
281
     0
  0
CLASS
  1
AMCONTEXTMGR
  2
AcAmContextMgr
  3
DesignerAssemblies
 90
     1024
280
     0
281
     0
  0
CLASS
  1
ACAMCONTEXTMODELER
  2
AcAmContextModeler
  3
DesignerAssemblies
 90
     1024
280
     0
281
     0
  0
CLASS
  1
ACMDATADICTIONARY
  2
AcmDataDictionary
  3
"AcmSymBB|Product Description: AutoCAD Mechanical|Company: Autodesk, Inc."
 90
     1024
280
     0
281
     0
  0
CLASS
  1
ACMDATAENTRYBLOCK
  2
AcmDataEntryBlock
  3
AcmSymBB|Product Description: AutoCAD Mechanical|Company: Autodesk, Inc.
 90
     1024
280
     0
281
     0
  0
CLASS
  1
ACRFATTGENMGR
  2
AcRfAttGeneralMgr
  3
AcAttribServices
 90
     1024
280
     0
281
     0
  0
CLASS
  1
ACRFOBJATTMGR
  2
AcRfObjAttGroupMgr
  3
AcAttribServices
 90
     1024
280
     0
281
     0
  0
CLASS
  1
ACRFMCADAPIATTHOLDER
  2
AcRfMCADAPIAttHolder
  3
AcAttribServices
 90
     1024
280
     0
281
     0
  0
CLASS
  1
AMDTSYSATTR
  2
AmdtSystemAttribute
  3
AcAttribServices
 90
     1024
280
     0
281
     0
  0
CLASS
  1
CATALOGSTATE
  2
AcAmCatalogState
  3
DesignerAssemblies
 90
     1024
280
     0
281
     0
  0
CLASS
  1
ACAMGRCOMPDEFSET
  2
AcAmGrCompDefSet
  3
DesignerAssemblies
 90
     1024
280
     0
281
     0
  0
CLASS
  1
AMDTBROWSERDBTAB
  2
AmdtBrowserDbTab
  3
McadcomServices
 90
     1024
280
     0
281
     0
  0
CLASS
  1
CBROWSERAPPOBJECT
  2
CBrowserAppObject
  3
McadcomServices
 90
     1024
280
     0
281
     0
  0
CLASS
  1
DM_PLACEHOLDER
  2
AcDmSelsetPlaceholder
  3
AcMechDwgViewMgmt
 90
     1024
280
     0
281
     0
  0
CLASS
  1
ACMSTANDARDANSI
  2
AcmStandardANSI
  3
"Amdt_StdImp|Product Description: AutoCAD Mechanical|Company: Autodesk, Inc."
 90
     1024
280
     0
281
     0
  0
CLASS
  1
ACMSURFSTANDARDANSI
  2
AcmSurfTextStdANSI
  3
"Amdt_StdImp|Product Description: AutoCAD Mechanical|Company: Autodesk, Inc."
 90
     1024
280
     0
281
     0
  0
CLASS
  1
ACMFCFSTANDARDANSI
  2
AcmFCFStdANSI
  3
"Amdt_StdImp|Product Description: AutoCAD Mechanical|Company: Autodesk, Inc."
 90
     1024
280
     0
281
     0
  0
CLASS
  1
ACMWELDSTANDARDANSI
  2
AcmWeldingStdANSI
  3
"Amdt_StdImp|Product Description: AutoCAD Mechanical|Company: Autodesk, Inc."
 90
     1024
280
     0
281
     0
  0
CLASS
  1
ACMIDSTANDARDANSI
  2
AcmIdStdANSI
  3
"Amdt_StdImp|Product Description: AutoCAD Mechanical|Company: Autodesk, Inc."
 90
     1024
280
     0
281
     0
  0
CLASS
  1
ACMDATUMSTANDARDANSI
  2
AcmDatumStdANSI
  3
"Amdt_StdImp|Product Description: AutoCAD Mechanical|Company: Autodesk, Inc."
 90
     1024
280
     0
281
     0
  0
CLASS
  1
ACMBOMSTANDARDANSI
  2
AcmBOMStdANSI
  3
"Amdt_StdImp|Product Description: AutoCAD Mechanical|Company: Autodesk, Inc."
 90
     1024
280
     0
281
     0
  0
CLASS
  1
ACMDETAILSTANDARDANSI
  2
AmdtDetailSymStdANSI
  3
"Amdt_StdImp|Product Description: AutoCAD Mechanical|Company: Autodesk, Inc."
 90
     1024
280
     0
281
     0
  0
CLASS
  1
ACMSECTIONSTANDARDANSI
  2
AmdtSectionSymStdANSI
  3
"Amdt_StdImp|Product Description: AutoCAD Mechanical|Company: Autodesk, Inc."
 90
     1024
280
     0
281
     0
  0
CLASS
  1
ACMCENTERLINESTANDARDANSI
  2
AmdtCenterLineStdANSI
  3
"Amdt_StdImp|Product Description: AutoCAD Mechanical|Company: Autodesk, Inc."
 90
     1024
280
     0
281
     0
  0
CLASS
  1
ACMTHREADLINESTANDARDANSI
  2
AmdtThreadLineStdANSI
  3
"Amdt_StdImp|Product Description: AutoCAD Mechanical|Company: Autodesk, Inc."
 90
     1024
280
     0
281
     0
  0
CLASS
  1
ACMNOTESTANDARDANSI
  2
AmdtNoteStdANSI
  3
"Amdt_StdImp|Product Description: AutoCAD Mechanical|Company: Autodesk, Inc."
 90
     1024
280
     0
281
     0
  0
CLASS
  1
ACMTAPERSTANDARDANSI
  2
AcmTaperStdANSI
  3
"Amdt_StdImp|Product Description: AutoCAD Mechanical|Company: Autodesk, Inc."
 90
     1024
280
     0
281
     0
  0
CLASS
  1
ACMANOOTATIONVIEWSTANDARDANSI
  2
AmdtAnViewStdANSI
  3
"Amdt_StdImp|Product Description: AutoCAD Mechanical|Company: Autodesk, Inc."
 90
     1024
280
     0
281
     0
  0
CLASS
  1
ACAMGLAYSTD
  2
AcAmgLayStd
  3
"AmgLay|Product Description: AutoCAD Mechanical|Company: Autodesk, Inc."
 90
     1024
280
     0
281
     0
  0
CLASS
  1
ACAMGDIMSTD
  2
AcAmgDimStd
  3
"AmgDim|Product Description: AutoCAD Mechanical|Company: Autodesk, Inc."
 90
     1024
280
     0
281
     0
  0
CLASS
  1
ACAMGHOLECHARTSTDANSI
  2
AcAmgHoleChartStdANSI
  3
AmgDim|Product Description: AutoCAD Mechanical|Company: Autodesk, Inc.
 90
     1024
280
     0
281
     0
  0
CLASS
  1
AMGOBJPROPCFG
  2
AmgObjPropCfg
  3
"AmgLay|Product Description: AutoCAD Mechanical|Company: Autodesk, Inc."
 90
     1025
280
     0
281
     0
  0
CLASS
  1
ACAMGTITLESTD
  2
AcAmgTitleStd
  3
"AmgTitle|Product Description: AutoCAD Mechanical|Company: Autodesk, Inc."
 90
     4095
280
     0
281
     0
  0
CLASS
  1
AMDTNOTETEMPLATEDB
  2
AmdtNoteTemplateDB
  3
AcmSymBB|Product Description: AutoCAD Mechanical|Company: Autodesk, Inc.
 90
     1024
280
     0
281
     0
  0
CLASS
  1
LAYER_INDEX
  2
AcDbLayerIndex
  3
ObjectDBX Classes
 90
        0
280
     0
281
     0
  0
CLASS
  1
IDBUFFER
  2
AcDbIdBuffer
  3
ObjectDBX Classes
 90
        0
280
     0
281
     0
  0
CLASS
  1
DICTIONARYVAR
  2
AcDbDictionaryVar
  3
ObjectDBX Classes
 90
        0
280
     0
281
     0
  0
CLASS
  1
CELLSTYLEMAP
  2
AcDbCellStyleMap
  3
ObjectDBX Classes
 90
     1152
280
     0
281
     0
  0
CLASS
  1
ACDBPLACEHOLDER
  2
AcDbPlaceHolder
  3
ObjectDBX Classes
 90
        0
280
     0
281
     0
  0
CLASS
  1
LAYOUT
  2
AcDbLayout
  3
ObjectDBX Classes
 90
        0
280
     0
281
     0
  0
ENDSEC
  0
SECTION
  2
TABLES
  0
TABLE
  2
VPORT
  5
2D08
330
0
100
AcDbSymbolTable
 70
     1
  0
VPORT
  5
2D78
330
2D08
100
AcDbSymbolTableRecord
100
AcDbViewportTableRecord
  2
*ACTIVE
 70
     0
 10
0.0
 20
0.0
 11
1.0
 21
1.0
 12
0.0
 22
0.0
 13
0.0
 23
0.0
 14
1.0
 24
1.0
 15
0.0
 25
0.0
 16
0.0
 26
0.0
 36
1.0
 17
118.5081621614604
 27
-135.063161765067
 37
0.0
 40
1894.334091642721
 41
1.712555066079295
 42
50.0
 43
0.0
 44
0.0
 50
0.0
 51
0.0
 71
     0
 72
   100
 73
     1
 74
     0
 75
     0
 76
     0
 77
     0
 78
     0
281
     0
 65
     0
110
0.0
120
0.0
130
0.0
111
1.0
121
0.0
131
0.0
112
0.0
122
1.0
132
0.0
 79
     0
146
0.0
  0
ENDTAB
  0
TABLE
  2
LTYPE
  5
2D05
330
0
100
AcDbSymbolTable
 70
    19
  0
LTYPE
  5
2D62
330
2D05
100
AcDbSymbolTableRecord
100
AcDbLinetypeTableRecord
  2
ByBlock
 70
     0
  3

 72
    65
 73
     0
 40
0.0
  0
LTYPE
  5
2D63
330
2D05
100
AcDbSymbolTableRecord
100
AcDbLinetypeTableRecord
  2
ByLayer
 70
     0
  3

 72
    65
 73
     0
 40
0.0
  0
LTYPE
  5
2D64
330
2D05
100
AcDbSymbolTableRecord
100
AcDbLinetypeTableRecord
  2
CONTINUOUS
 70
     0
  3
実線
 72
    65
 73
     0
 40
0.0
  0
LTYPE
  5
2D79
330
2D05
100
AcDbSymbolTableRecord
100
AcDbLinetypeTableRecord
  2
DASHDOT
 70
     0
  3
____ _ ____ _ ____ _ ____ _ ____ _ ____ _ ____
 72
    65
 73
     4
 40
5.5
 49
4.0
 74
     0
 49
-0.6
 74
     0
 49
0.3
 74
     0
 49
-0.6
 74
     0
  0
LTYPE
  5
2D7A
330
2D05
100
AcDbSymbolTableRecord
100
AcDbLinetypeTableRecord
  2
HIDDEN
 70
     0
  3
Hidden __ __ __ __ __ __ __ __ __ __ __ __ __ _
 72
    65
 73
     2
 40
0.375
 49
0.25
 74
     0
 49
-0.125
 74
     0
  0
LTYPE
  5
2D7B
330
2D05
100
AcDbSymbolTableRecord
100
AcDbLinetypeTableRecord
  2
PHANTOM2
 70
     0
  3
Phantom (.5x) ___ _ _ ___ _ _ ___ _ _ ___ _ _
 72
    65
 73
     6
 40
1.25
 49
0.625
 74
     0
 49
-0.125
 74
     0
 49
0.125
 74
     0
 49
-0.125
 74
     0
 49
0.125
 74
     0
 49
-0.125
 74
     0
  0
LTYPE
  5
2D7C
330
2D05
100
AcDbSymbolTableRecord
100
AcDbLinetypeTableRecord
  2
CENTER
 70
     0
  3
Center ____ _ ____ _ ____ _ ____ _ ____ _ ____
 72
    65
 73
     4
 40
2.0
 49
1.25
 74
     0
 49
-0.25
 74
     0
 49
0.25
 74
     0
 49
-0.25
 74
     0
  0
LTYPE
  5
2D7D
330
2D05
100
AcDbSymbolTableRecord
100
AcDbLinetypeTableRecord
  2
ASULTYPE
 70
     0
  3
実線
 72
    65
 73
     2
 40
3.0
 49
2.5
 74
     0
 49
0.5
 74
     0
  0
LTYPE
  5
2D7E
330
2D05
100
AcDbSymbolTableRecord
100
AcDbLinetypeTableRecord
  2
ASVLTYPE
 70
     0
  3
__ __ __ __ __ __ __ __ __ __ __ __ __ __ __ __ __ __ __ __ __
 72
    65
 73
     2
 40
0.75
 49
0.5
 74
     0
 49
-0.25
 74
     0
  0
LTYPE
  5
2D7F
330
2D05
100
AcDbSymbolTableRecord
100
AcDbLinetypeTableRecord
  2
AM_ISO02W050
 70
     0
  3
__ __ __ __ __ __ __ __ __ __ __ __ __ __ __
 72
    65
 73
     2
 40
7.5
 49
6.0
 74
     0
 49
-1.5
 74
     0
  0
LTYPE
  5
2D80
330
2D05
100
AcDbSymbolTableRecord
100
AcDbLinetypeTableRecord
  2
AM_ISO08W050
 70
     0
  3
____ . ____ . ____ . ____ . ____ . ____ . ____
 72
    65
 73
     4
 40
18.0
 49
12.0
 74
     0
 49
-1.5
 74
     0
 49
3.0
 74
     0
 49
-1.5
 74
     0
  0
LTYPE
  5
2D81
330
2D05
100
AcDbSymbolTableRecord
100
AcDbLinetypeTableRecord
  2
AM_ISO09W050
 70
     0
  3
_____ . . _____ . . _____ . . ____ .. ____
 72
    65
 73
     6
 40
22.5
 49
12.0
 74
     0
 49
-1.5
 74
     0
 49
3.0
 74
     0
 49
-1.5
 74
     0
 49
3.0
 74
     0
 49
-1.5
 74
     0
  0
LTYPE
  5
2D82
330
2D05
100
AcDbSymbolTableRecord
100
AcDbLinetypeTableRecord
  2
AMCONSTR
 70
     0
  3
_______________________
 72
    65
 73
     2
 40
9999.0
 49
9999.0
 74
     0
 49
0.0
 74
     0
  0
LTYPE
  5
2D83
330
2D05
100
AcDbSymbolTableRecord
100
AcDbLinetypeTableRecord
  2
AM_ISO08W050X2
 70
     0
  3
__ . __ . __ . __ . __ . __
 72
    65
 73
     4
 40
9.0
 49
6.0
 74
     0
 49
-0.75
 74
     0
 49
1.5
 74
     0
 49
-0.75
 74
     0
  0
LTYPE
  5
2D84
330
2D05
100
AcDbSymbolTableRecord
100
AcDbLinetypeTableRecord
  2
AM_ISO02W050X2
 70
     0
  3
 _ _ _ _ _ _ _ _ _ _ _ _
 72
    65
 73
     2
 40
3.75
 49
3.0
 74
     0
 49
-0.75
 74
     0
  0
LTYPE
  5
2D85
330
2D05
100
AcDbSymbolTableRecord
100
AcDbLinetypeTableRecord
  2
AMZIGZAG
 70
     0
  3
/\/-/\/-/\/-/\/-/\/-/\/
 72
    65
 73
     2
 40
11.0001
 49
0.0001
 74
     0
 49
-11.0
 74
     0
  0
LTYPE
  5
2D86
330
2D05
100
AcDbSymbolTableRecord
100
AcDbLinetypeTableRecord
  2
CENTER2
 70
     0
  3
Center (.5x) ___ _ ___ _ ___ _ ___ _ ___ _ ___
 72
    65
 73
     4
 40
1.125
 49
0.75
 74
     0
 49
-0.125
 74
     0
 49
0.125
 74
     0
 49
-0.125
 74
     0
  0
LTYPE
  5
2D87
330
2D05
100
AcDbSymbolTableRecord
100
AcDbLinetypeTableRecord
  2
HIDDEN2
 70
     0
  3
Hidden (.5x) _ _ _ _ _ _ _ _ _ _ _ _ _ _ _ _ _
 72
    65
 73
     2
 40
0.1875
 49
0.125
 74
     0
 49
-0.0625
 74
     0
  0
LTYPE
  5
2D88
330
2D05
100
AcDbSymbolTableRecord
100
AcDbLinetypeTableRecord
  2
AMZIGZAG2
 70
     0
  3
/\/-/\/-/\/-/\/-/\/-/\/
 72
    65
 73
     2
 40
0.4401
 49
0.0001
 74
     0
 49
-0.4400000000000003
 74
     0
  0
LTYPE
  5
2D89
330
2D05
100
AcDbSymbolTableRecord
100
AcDbLinetypeTableRecord
  2
ACANSTGB
 70
     0
  3
__ . . __ . .
 72
    65
 73
     6
 40
0.35433070866
 49
0.15748031496
 74
     0
 49
-0.03937007874
 74
     0
 49
0.03937007874
 74
     0
 49
-0.03937007874
 74
     0
 49
0.03937007874
 74
     0
 49
-0.03937007874
 74
     0
  0
LTYPE
  5
2D8A
330
2D05
100
AcDbSymbolTableRecord
100
AcDbLinetypeTableRecord
  2
ACANSTGL
 70
     0
  3
_ _ _ _ _
 72
    65
 73
     2
 40
0.11811023622
 49
0.07874015748
 74
     0
 49
-0.03937007874
 74
     0
  0
ENDTAB
  0
TABLE
  2
LAYER
  5
2D02
330
0
100
AcDbSymbolTable
 70
    12
  0
LAYER
  5
2D5C
102
{ACAD_XDICTIONARY
360
2F25
102
}
330
2D02
100
AcDbSymbolTableRecord
100
AcDbLayerTableRecord
  2
0
 70
     0
 62
     7
  6
CONTINUOUS
370
    -3
390
2D0F
  0
LAYER
  5
2D8B
102
{ACAD_XDICTIONARY
360
2F27
102
}
330
2D02
100
AcDbSymbolTableRecord
100
AcDbLayerTableRecord
  2
OUTLINE
 70
     0
 62
     3
  6
CONTINUOUS
370
    -3
390
2D0F
  0
LAYER
  5
2D8C
102
{ACAD_XDICTIONARY
360
2F29
102
}
330
2D02
100
AcDbSymbolTableRecord
100
AcDbLayerTableRecord
  2
SIZE
 70
     0
 62
    30
  6
CONTINUOUS
370
    -3
390
2D0F
  0
LAYER
  5
2D8D
102
{ACAD_XDICTIONARY
360
2F2B
102
}
330
2D02
100
AcDbSymbolTableRecord
100
AcDbLayerTableRecord
  2
BASIS
 70
     0
 62
     6
  6
DASHDOT
370
    -3
390
2D0F
  0
LAYER
  5
2D8E
102
{ACAD_XDICTIONARY
360
2F2D
102
}
330
2D02
100
AcDbSymbolTableRecord
100
AcDbLayerTableRecord
  2
DETAIL
 70
     0
 62
     5
  6
CONTINUOUS
370
    -3
390
2D0F
  0
LAYER
  5
2D8F
102
{ACAD_XDICTIONARY
360
2F2F
102
}
330
2D02
100
AcDbSymbolTableRecord
100
AcDbLayerTableRecord
  2
ARRANGE
 70
     0
 62
     1
  6
CONTINUOUS
370
    -3
390
2D0F
  0
LAYER
  5
2D90
330
2D02
100
AcDbSymbolTableRecord
100
AcDbLayerTableRecord
  2
DEFPOINTS
 70
     0
 62
     7
  6
CONTINUOUS
290
     0
370
    -3
390
2D0F
  0
LAYER
  5
2D91
102
{ACAD_XDICTIONARY
360
2F31
102
}
330
2D02
100
AcDbSymbolTableRecord
100
AcDbLayerTableRecord
  2
ETC
 70
     0
 62
    61
  6
CONTINUOUS
370
    -3
390
2D0F
  0
LAYER
  5
2D92
102
{ACAD_XDICTIONARY
360
2F33
102
}
330
2D02
100
AcDbSymbolTableRecord
100
AcDbLayerTableRecord
  2
FIX
 70
     0
 62
    11
  6
CONTINUOUS
370
    -3
390
2D0F
  0
LAYER
  5
2D93
102
{ACAD_XDICTIONARY
360
2F35
102
}
330
2D02
100
AcDbSymbolTableRecord
100
AcDbLayerTableRecord
  2
NOTE
 70
     0
 62
     4
  6
CONTINUOUS
370
    -3
390
2D0F
  0
LAYER
  5
2D94
102
{ACAD_XDICTIONARY
360
2F37
102
}
330
2D02
100
AcDbSymbolTableRecord
100
AcDbLayerTableRecord
  2
SERVICESPACE
 70
     0
 62
     2
  6
DASHDOT
370
    -3
390
2D0F
  0
LAYER
  5
2D95
102
{ACAD_XDICTIONARY
360
2F39
102
}
330
2D02
100
AcDbSymbolTableRecord
100
AcDbLayerTableRecord
  2
SYMBOLLINE
 70
     0
 62
    15
  6
CONTINUOUS
370
    -3
390
2D0F
  0
ENDTAB
  0
TABLE
  2
STYLE
  5
2D03
330
0
100
AcDbSymbolTable
 70
     5
  0
STYLE
  5
2D5D
330
2D03
100
AcDbSymbolTableRecord
100
AcDbTextStyleTableRecord
  2
STANDARD
 70
     0
 40
64.0
 41
0.9
 50
0.0
 71
     0
 42
64.0
  3
SIMPLEX.shx
  4
BIGFONT.shx
  0
STYLE
  5
2D61
330
2D03
100
AcDbSymbolTableRecord
100
AcDbTextStyleTableRecord
  2
ANNOTATIVE
 70
     0
 40
0.0
 41
1.0
 50
0.0
 71
     0
 42
0.2
  3
txt
  4

1001
ACADANNOTATIVE
1000
AnnotativeData
1002
{
1070
     1
1070
     1
1002
}
  0
STYLE
  5
2D96
330
2D03
100
AcDbSymbolTableRecord
100
AcDbTextStyleTableRecord
  2

 70
     1
 40
0.0
 41
1.0
 50
0.0
 71
     0
 42
64.0
  3
genltshp.shx
  4

  0
STYLE
  5
2D97
330
2D03
100
AcDbSymbolTableRecord
100
AcDbTextStyleTableRecord
  2
ACANSTS
 70
     0
 40
1.0
 41
1.0
 50
0.0
 71
     0
 42
64.0
  3
romans.shx
  4
extfont.shx
  0
STYLE
  5
2D98
330
2D03
100
AcDbSymbolTableRecord
100
AcDbTextStyleTableRecord
  2
ACANSGDT
 70
     0
 40
0.0
 41
1.0
 50
0.0
 71
     0
 42
64.0
  3
amgdt.shx
  4

  0
ENDTAB
  0
TABLE
  2
VIEW
  5
2D06
330
0
100
AcDbSymbolTable
 70
     1
  0
VIEW
  5
2D99
330
2D06
100
AcDbSymbolTableRecord
100
AcDbViewTableRecord
  2
ALL
 70
     0
 40
4282.619807999997
 10
0.0
 20
41.30990399999999
 41
5940.0
 11
0.0
 21
0.0
 31
1.0
 12
0.0
 22
0.0
 32
0.0
 42
50.0
 43
0.0
 44
0.0
 50
0.0
 71
     0
281
     0
 72
     1
110
0.0
120
0.0
130
0.0
111
1.0
121
0.0
131
0.0
112
0.0
122
1.0
132
0.0
 79
     0
146
0.0
  0
ENDTAB
  0
TABLE
  2
UCS
  5
2D07
330
0
100
AcDbSymbolTable
 70
     0
  0
ENDTAB
  0
TABLE
  2
APPID
  5
2D09
330
0
100
AcDbSymbolTable
 70
    29
  0
APPID
  5
2D5E
330
2D09
100
AcDbSymbolTableRecord
100
AcDbRegAppTableRecord
  2
ACAD
 70
     0
  0
APPID
  5
2D65
330
2D09
100
AcDbSymbolTableRecord
100
AcDbRegAppTableRecord
  2
ACADANNOTATIVE
 70
     0
  0
APPID
  5
2D6F
330
2D09
100
AcDbSymbolTableRecord
100
AcDbRegAppTableRecord
  2
ACAD_MLEADERVER
 70
     0
  0
APPID
  5
2D9A
330
2D09
100
AcDbSymbolTableRecord
100
AcDbRegAppTableRecord
  2
GENIUS_GENDIM_13
 70
     0
  0
APPID
  5
2D9B
330
2D09
100
AcDbSymbolTableRecord
100
AcDbRegAppTableRecord
  2
GENIUS_GENDTOL_13
 70
     0
  0
APPID
  5
2D9C
330
2D09
100
AcDbSymbolTableRecord
100
AcDbRegAppTableRecord
  2
GENIUS_GE3DTOL_13
 70
     0
  0
APPID
  5
2D9D
330
2D09
100
AcDbSymbolTableRecord
100
AcDbRegAppTableRecord
  2
MCAD_NO_VIS
 70
     0
  0
APPID
  5
2D9E
330
2D09
100
AcDbSymbolTableRecord
100
AcDbRegAppTableRecord
  2
ACAD_TEMP_GRAPHIC
 70
     0
  0
APPID
  5
2D9F
330
2D09
100
AcDbSymbolTableRecord
100
AcDbRegAppTableRecord
  2
AD_DRAW
 70
     0
  0
APPID
  5
2DA0
330
2D09
100
AcDbSymbolTableRecord
100
AcDbRegAppTableRecord
  2
ACATTRIBSERVICES
 70
     0
  0
APPID
  5
2DA1
330
2D09
100
AcDbSymbolTableRecord
100
AcDbRegAppTableRecord
  2
ASURF_PCURVE_APPNAME
 70
     0
  0
APPID
  5
2DA2
330
2D09
100
AcDbSymbolTableRecord
100
AcDbRegAppTableRecord
  2
AMG_3D2D_5_0
 70
     0
  0
APPID
  5
2DA3
330
2D09
100
AcDbSymbolTableRecord
100
AcDbRegAppTableRecord
  2
DESIGNERASSEMBLIES
 70
     0
  0
APPID
  5
2DA4
330
2D09
100
AcDbSymbolTableRecord
100
AcDbRegAppTableRecord
  2
ACADM_DIM_EDIT
 70
     0
  0
APPID
  5
2DA5
330
2D09
100
AcDbSymbolTableRecord
100
AcDbRegAppTableRecord
  2
AMDT_DM_ADJ
 70
     0
  0
APPID
  5
2DA6
330
2D09
100
AcDbSymbolTableRecord
100
AcDbRegAppTableRecord
  2
ACAD_DSTYLE_DIMARC_LENGTH_
 70
     0
  0
APPID
  5
2DA7
330
2D09
100
AcDbSymbolTableRecord
100
AcDbRegAppTableRecord
  2
ACAD_DSTYLE_DIMJOGGED_JOGA
 70
     0
  0
APPID
  5
2DA8
330
2D09
100
AcDbSymbolTableRecord
100
AcDbRegAppTableRecord
  2
ACAD_PSEXT
 70
     0
  0
APPID
  5
2DA9
330
2D09
100
AcDbSymbolTableRecord
100
AcDbRegAppTableRecord
  2
ACAD_EXEMPT_FROM_CAD_STANDARDS
 70
     0
  0
APPID
  5
2DAA
330
2D09
100
AcDbSymbolTableRecord
100
AcDbRegAppTableRecord
  2
ACAD_DSTYLE_DIMJAG
 70
     0
  0
APPID
  5
2DAB
330
2D09
100
AcDbSymbolTableRecord
100
AcDbRegAppTableRecord
  2
ACAD_DSTYLE_DIMTALN
 70
     0
  0
APPID
  5
2DAC
330
2D09
100
AcDbSymbolTableRecord
100
AcDbRegAppTableRecord
  2
AMG_3D2D_5_00
 70
     0
  0
APPID
  5
2DAD
330
2D09
100
AcDbSymbolTableRecord
100
AcDbRegAppTableRecord
  2
AMG_3D2D_5_01
 70
     0
  0
APPID
  5
2DAE
330
2D09
100
AcDbSymbolTableRecord
100
AcDbRegAppTableRecord
  2
AMG_3D2D_5_02
 70
     0
  0
APPID
  5
2ECC
330
2D09
100
AcDbSymbolTableRecord
100
AcDbRegAppTableRecord
  2
AMG_3D2D_5.0
 70
     0
  0
APPID
  5
2F62
330
2D09
100
AcDbSymbolTableRecord
100
AcDbRegAppTableRecord
  2
ACAD_DSTYLE_DIMARC_LENGTH_SYMBOL
 70
     0
  0
APPID
  5
2F63
330
2D09
100
AcDbSymbolTableRecord
100
AcDbRegAppTableRecord
  2
ACAD_DSTYLE_DIM_LINETYPE
 70
     0
  0
APPID
  5
2F64
330
2D09
100
AcDbSymbolTableRecord
100
AcDbRegAppTableRecord
  2
ACAD_DSTYLE_DIM_EXT1_LINETYPE
 70
     0
  0
APPID
  5
2F65
330
2D09
100
AcDbSymbolTableRecord
100
AcDbRegAppTableRecord
  2
ACAD_DSTYLE_DIM_EXT2_LINETYPE
 70
     0
  0
ENDTAB
  0
TABLE
  2
DIMSTYLE
  5
2D0A
330
0
100
AcDbSymbolTable
 70
    10
100
AcDbDimStyleTable
 71
     1
340
2DAF
  0
DIMSTYLE
105
2D5F
330
2D0A
100
AcDbSymbolTableRecord
100
AcDbDimStyleTableRecord
  2
STANDARD
 70
     0
 41
12.0
 42
20.0
 44
20.0
 77
     1
 78
     8
140
64.0
141
0.0
147
10.0
275
     1
279
     2
284
     7
285
     7
286
     7
340
2D5D
  0
DIMSTYLE
105
2D60
330
2D0A
100
AcDbSymbolTableRecord
100
AcDbDimStyleTableRecord
  2
ANNOTATIVE
 70
     0
275
     1
279
     2
284
     7
285
     7
286
     7
340
2D5D
1001
ACADANNOTATIVE
1000
AnnotativeData
1002
{
1070
     1
1070
     1
1002
}
  0
DIMSTYLE
105
2DAF
330
2D0A
100
AcDbSymbolTableRecord
100
AcDbDimStyleTableRecord
  2
AM_ANSI
 70
     0
  4
mm
 41
0.12
 42
0.05
 43
0.5
 44
0.1
 47
0.1
 48
0.1
 78
     7
 79
     2
140
0.12
141
0.0
146
0.71
147
0.06
176
   256
177
   256
178
     2
274
     4
284
     7
340
2D5D
371
    -1
372
    -1
1001
ACAD_DSTYLE_DIMARC_LENGTH_SYMBOL
1070
   379
1070
     1
1001
ACAD_DSTYLE_DIM_LINETYPE
1070
   380
1005
2D62
1001
ACAD_DSTYLE_DIM_EXT1_LINETYPE
1070
   381
1005
2D62
1001
ACAD_DSTYLE_DIM_EXT2_LINETYPE
1070
   382
1005
2D62
  0
DIMSTYLE
105
2DB0
330
2D0A
100
AcDbSymbolTableRecord
100
AcDbDimStyleTableRecord
  2
AM_ANSI$3
 70
     0
  4
mm
 41
0.12
 42
0.05
 43
0.5
 44
0.1
 47
0.1
 48
0.1
 78
     7
 79
     2
140
0.12
141
0.0
146
0.71
147
0.06
176
   256
177
   256
178
     2
274
     4
284
     7
288
     1
289
     0
340
2D5D
371
    -1
372
    -1
1001
ACAD_DSTYLE_DIMARC_LENGTH_SYMBOL
1070
   379
1070
     1
1001
ACAD_DSTYLE_DIM_LINETYPE
1070
   380
1005
2D62
1001
ACAD_DSTYLE_DIM_EXT1_LINETYPE
1070
   381
1005
2D62
1001
ACAD_DSTYLE_DIM_EXT2_LINETYPE
1070
   382
1005
2D62
  0
DIMSTYLE
105
2DB1
330
2D0A
100
AcDbSymbolTableRecord
100
AcDbDimStyleTableRecord
  2
AM_ANSI$4
 70
     0
  4
mm
 41
0.12
 42
0.05
 43
0.5
 44
0.1
 47
0.1
 48
0.1
 78
     7
 79
     2
140
0.12
141
0.0
146
0.71
147
0.06
176
   256
177
   256
178
     2
274
     4
284
     7
340
2D5D
371
    -1
372
    -1
1001
ACAD_DSTYLE_DIMARC_LENGTH_SYMBOL
1070
   379
1070
     1
1001
ACAD_DSTYLE_DIM_LINETYPE
1070
   380
1005
2D62
1001
ACAD_DSTYLE_DIM_EXT1_LINETYPE
1070
   381
1005
2D62
1001
ACAD_DSTYLE_DIM_EXT2_LINETYPE
1070
   382
1005
2D62
  0
DIMSTYLE
105
2DB2
330
2D0A
100
AcDbSymbolTableRecord
100
AcDbDimStyleTableRecord
  2
AM_ANSI$7
 70
     0
  4
mm
 41
0.12
 42
0.05
 43
0.5
 44
0.1
 47
0.1
 48
0.1
 78
     7
 79
     2
140
0.12
141
0.0
146
0.71
147
0.06
176
   256
177
   256
178
     2
274
     4
284
     7
340
2D5D
371
    -1
372
    -1
1001
ACAD_DSTYLE_DIMARC_LENGTH_SYMBOL
1070
   379
1070
     1
1001
ACAD_DSTYLE_DIM_LINETYPE
1070
   380
1005
2D62
1001
ACAD_DSTYLE_DIM_EXT1_LINETYPE
1070
   381
1005
2D62
1001
ACAD_DSTYLE_DIM_EXT2_LINETYPE
1070
   382
1005
2D62
  0
DIMSTYLE
105
2DB3
330
2D0A
100
AcDbSymbolTableRecord
100
AcDbDimStyleTableRecord
  2
AM_ANSI$SF
 70
     0
  4
mm
 41
0.12
 42
0.05
 43
0.5
 44
0.1
 47
0.1
 48
0.1
 75
     1
 76
     1
 78
     7
 79
     2
140
0.12
141
0.0
146
0.71
147
0.06
176
   256
177
   256
178
     2
274
     4
284
     7
340
2D5D
371
    -1
372
    -1
1001
ACAD_DSTYLE_DIMARC_LENGTH_SYMBOL
1070
   379
1070
     1
1001
ACAD_DSTYLE_DIM_LINETYPE
1070
   380
1005
2D62
1001
ACAD_DSTYLE_DIM_EXT1_LINETYPE
1070
   381
1005
2D62
1001
ACAD_DSTYLE_DIM_EXT2_LINETYPE
1070
   382
1005
2D62
  0
DIMSTYLE
105
2DB4
330
2D0A
100
AcDbSymbolTableRecord
100
AcDbDimStyleTableRecord
  2
AM_ANSI$SH
 70
     0
  4
mm
 41
0.12
 42
0.05
 43
0.5
 44
0.1
 47
0.1
 48
0.1
 75
     1
 76
     1
 78
     7
 79
     2
140
0.12
141
0.0
146
0.71
147
0.06
173
     1
176
   256
177
   256
178
     2
274
     4
284
     7
340
2D5D
343
2DD4
371
    -1
372
    -1
1001
ACAD_DSTYLE_DIMARC_LENGTH_SYMBOL
1070
   379
1070
     1
1001
ACAD_DSTYLE_DIM_LINETYPE
1070
   380
1005
2D62
1001
ACAD_DSTYLE_DIM_EXT1_LINETYPE
1070
   381
1005
2D62
1001
ACAD_DSTYLE_DIM_EXT2_LINETYPE
1070
   382
1005
2D62
  0
DIMSTYLE
105
2DB5
330
2D0A
100
AcDbSymbolTableRecord
100
AcDbDimStyleTableRecord
  2
STANDARD1
 70
     0
 40
6.0
 41
2.5
 42
0.625
 43
6.0
 44
1.25
 47
1.0
 48
0.5
 77
     1
 78
     8
140
2.5
141
0.0
146
0.6
147
1.0
173
     1
275
     1
279
     2
284
     7
285
     7
286
     7
340
2D5D
  0
DIMSTYLE
105
2DB6
330
2D0A
100
AcDbSymbolTableRecord
100
AcDbDimStyleTableRecord
  2
STANDARD$0
 70
     0
 41
12.0
 42
20.0
 44
20.0
 73
     0
 74
     0
 77
     1
 78
     8
140
64.0
141
0.0
147
10.0
275
     1
279
     2
284
     7
285
     7
286
     7
340
2D5D
  0
ENDTAB
  0
TABLE
  2
BLOCK_RECORD
  5
2D01
330
0
100
AcDbSymbolTable
 70
    71
  0
BLOCK_RECORD
  5
2D74
102
{ACAD_XDICTIONARY
360
2F3B
102
}
330
2D01
100
AcDbSymbolTableRecord
100
AcDbBlockTableRecord
  2
*Model_Space
340
2D77
  0
BLOCK_RECORD
  5
2D70
330
2D01
100
AcDbSymbolTableRecord
100
AcDbBlockTableRecord
  2
*Paper_Space
340
2D73
  0
BLOCK_RECORD
  5
2DBE
330
2D01
100
AcDbSymbolTableRecord
100
AcDbBlockTableRecord
  2
$MODEL_SPACE
340
0
  0
BLOCK_RECORD
  5
2DC0
330
2D01
100
AcDbSymbolTableRecord
100
AcDbBlockTableRecord
  2
$PAPER_SPACE
340
0
  0
BLOCK_RECORD
  5
2DC2
330
2D01
100
AcDbSymbolTableRecord
100
AcDbBlockTableRecord
  2
_ORIGIN
340
0
  0
BLOCK_RECORD
  5
2DC4
330
2D01
100
AcDbSymbolTableRecord
100
AcDbBlockTableRecord
  2
_DOTBLANK
340
0
102
{BLKREFS
331
1299
331
129A
331
11AA
331
11AB
331
E80
331
E81
331
1123
331
1124
331
11C2
331
11C3
331
11EC
331
11ED
331
11F9
331
11FA
331
1287
331
1288
331
1417
331
1418
331
1423
331
1424
331
142F
331
1430
331
143B
331
143C
331
166E
331
166F
331
1677
331
1678
331
1680
331
1681
331
1689
331
168A
331
1696
331
1697
331
16A3
331
16A4
331
16AF
331
16B0
331
16BB
331
16BC
331
16C7
331
16C8
331
16D3
331
16D4
331
1D86
331
1D87
331
1D8F
331
1D90
331
1D98
331
1D99
331
1DA1
331
1DA2
331
1DAB
331
1DAC
331
1DB5
331
1DB6
331
2A4B
331
2A4C
331
2A50
331
2A51
331
2A55
331
2A56
331
2A5A
331
2A5B
102
}
  0
BLOCK_RECORD
  5
2DC6
330
2D01
100
AcDbSymbolTableRecord
100
AcDbBlockTableRecord
  2
_OPEN30
340
0
102
{BLKREFS
331
2088
331
25A0
102
}
  0
BLOCK_RECORD
  5
2DC8
330
2D01
100
AcDbSymbolTableRecord
100
AcDbBlockTableRecord
  2
*D5
340
0
  0
BLOCK_RECORD
  5
2DCA
330
2D01
100
AcDbSymbolTableRecord
100
AcDbBlockTableRecord
  2
*U6
340
0
102
{BLKREFS
331
129B
102
}
  0
BLOCK_RECORD
  5
2DCC
330
2D01
100
AcDbSymbolTableRecord
100
AcDbBlockTableRecord
  2
*D7
340
0
  0
BLOCK_RECORD
  5
2DCE
330
2D01
100
AcDbSymbolTableRecord
100
AcDbBlockTableRecord
  2
*U8
340
0
102
{BLKREFS
331
11AC
102
}
  0
BLOCK_RECORD
  5
2DD0
330
2D01
100
AcDbSymbolTableRecord
100
AcDbBlockTableRecord
  2
*D9
340
0
  0
BLOCK_RECORD
  5
2DD2
330
2D01
100
AcDbSymbolTableRecord
100
AcDbBlockTableRecord
  2
*U10
340
0
102
{BLKREFS
331
E82
102
}
  0
BLOCK_RECORD
  5
2DD4
330
2D01
100
AcDbSymbolTableRecord
100
AcDbBlockTableRecord
  2
GENAXEH
340
0
  0
BLOCK_RECORD
  5
2DD6
330
2D01
100
AcDbSymbolTableRecord
100
AcDbBlockTableRecord
  2
*D12
340
0
  0
BLOCK_RECORD
  5
2DD8
330
2D01
100
AcDbSymbolTableRecord
100
AcDbBlockTableRecord
  2
*U13
340
0
102
{BLKREFS
331
1125
102
}
  0
BLOCK_RECORD
  5
2DDA
330
2D01
100
AcDbSymbolTableRecord
100
AcDbBlockTableRecord
  2
*D14
340
0
  0
BLOCK_RECORD
  5
2DDC
330
2D01
100
AcDbSymbolTableRecord
100
AcDbBlockTableRecord
  2
*U15
340
0
102
{BLKREFS
331
11C4
102
}
  0
BLOCK_RECORD
  5
2DDE
330
2D01
100
AcDbSymbolTableRecord
100
AcDbBlockTableRecord
  2
*D16
340
0
  0
BLOCK_RECORD
  5
2DE0
330
2D01
100
AcDbSymbolTableRecord
100
AcDbBlockTableRecord
  2
*U17
340
0
102
{BLKREFS
331
11EE
102
}
  0
BLOCK_RECORD
  5
2DE2
330
2D01
100
AcDbSymbolTableRecord
100
AcDbBlockTableRecord
  2
*D18
340
0
  0
BLOCK_RECORD
  5
2DE4
330
2D01
100
AcDbSymbolTableRecord
100
AcDbBlockTableRecord
  2
*U19
340
0
102
{BLKREFS
331
11FB
102
}
  0
BLOCK_RECORD
  5
2DE6
330
2D01
100
AcDbSymbolTableRecord
100
AcDbBlockTableRecord
  2
*D20
340
0
  0
BLOCK_RECORD
  5
2DE8
330
2D01
100
AcDbSymbolTableRecord
100
AcDbBlockTableRecord
  2
*U21
340
0
102
{BLKREFS
331
1289
102
}
  0
BLOCK_RECORD
  5
2DEA
330
2D01
100
AcDbSymbolTableRecord
100
AcDbBlockTableRecord
  2
*D22
340
0
  0
BLOCK_RECORD
  5
2DEC
330
2D01
100
AcDbSymbolTableRecord
100
AcDbBlockTableRecord
  2
*U23
340
0
102
{BLKREFS
331
1419
102
}
  0
BLOCK_RECORD
  5
2DEE
330
2D01
100
AcDbSymbolTableRecord
100
AcDbBlockTableRecord
  2
*D24
340
0
  0
BLOCK_RECORD
  5
2DF0
330
2D01
100
AcDbSymbolTableRecord
100
AcDbBlockTableRecord
  2
*U25
340
0
102
{BLKREFS
331
1425
102
}
  0
BLOCK_RECORD
  5
2DF2
330
2D01
100
AcDbSymbolTableRecord
100
AcDbBlockTableRecord
  2
*D26
340
0
  0
BLOCK_RECORD
  5
2DF4
330
2D01
100
AcDbSymbolTableRecord
100
AcDbBlockTableRecord
  2
*U27
340
0
102
{BLKREFS
331
1431
102
}
  0
BLOCK_RECORD
  5
2DF6
330
2D01
100
AcDbSymbolTableRecord
100
AcDbBlockTableRecord
  2
*D28
340
0
  0
BLOCK_RECORD
  5
2DF8
330
2D01
100
AcDbSymbolTableRecord
100
AcDbBlockTableRecord
  2
*U29
340
0
102
{BLKREFS
331
143D
102
}
  0
BLOCK_RECORD
  5
2DFA
330
2D01
100
AcDbSymbolTableRecord
100
AcDbBlockTableRecord
  2
*D30
340
0
  0
BLOCK_RECORD
  5
2DFC
330
2D01
100
AcDbSymbolTableRecord
100
AcDbBlockTableRecord
  2
*U31
340
0
102
{BLKREFS
331
1670
102
}
  0
BLOCK_RECORD
  5
2DFE
330
2D01
100
AcDbSymbolTableRecord
100
AcDbBlockTableRecord
  2
*D32
340
0
  0
BLOCK_RECORD
  5
2E00
330
2D01
100
AcDbSymbolTableRecord
100
AcDbBlockTableRecord
  2
*U33
340
0
102
{BLKREFS
331
1679
102
}
  0
BLOCK_RECORD
  5
2E02
330
2D01
100
AcDbSymbolTableRecord
100
AcDbBlockTableRecord
  2
*D34
340
0
  0
BLOCK_RECORD
  5
2E04
330
2D01
100
AcDbSymbolTableRecord
100
AcDbBlockTableRecord
  2
*U35
340
0
102
{BLKREFS
331
1682
102
}
  0
BLOCK_RECORD
  5
2E06
330
2D01
100
AcDbSymbolTableRecord
100
AcDbBlockTableRecord
  2
*D36
340
0
  0
BLOCK_RECORD
  5
2E08
330
2D01
100
AcDbSymbolTableRecord
100
AcDbBlockTableRecord
  2
*U37
340
0
102
{BLKREFS
331
168B
102
}
  0
BLOCK_RECORD
  5
2E0A
330
2D01
100
AcDbSymbolTableRecord
100
AcDbBlockTableRecord
  2
*U38
340
0
  0
BLOCK_RECORD
  5
2E0C
330
2D01
100
AcDbSymbolTableRecord
100
AcDbBlockTableRecord
  2
*D39
340
0
  0
BLOCK_RECORD
  5
2E0E
330
2D01
100
AcDbSymbolTableRecord
100
AcDbBlockTableRecord
  2
*U40
340
0
102
{BLKREFS
331
1698
102
}
  0
BLOCK_RECORD
  5
2E10
330
2D01
100
AcDbSymbolTableRecord
100
AcDbBlockTableRecord
  2
*D41
340
0
  0
BLOCK_RECORD
  5
2E12
330
2D01
100
AcDbSymbolTableRecord
100
AcDbBlockTableRecord
  2
*U42
340
0
102
{BLKREFS
331
16A5
102
}
  0
BLOCK_RECORD
  5
2E14
330
2D01
100
AcDbSymbolTableRecord
100
AcDbBlockTableRecord
  2
*D43
340
0
  0
BLOCK_RECORD
  5
2E16
330
2D01
100
AcDbSymbolTableRecord
100
AcDbBlockTableRecord
  2
*U44
340
0
102
{BLKREFS
331
16B1
102
}
  0
BLOCK_RECORD
  5
2E18
330
2D01
100
AcDbSymbolTableRecord
100
AcDbBlockTableRecord
  2
*D45
340
0
  0
BLOCK_RECORD
  5
2E1A
330
2D01
100
AcDbSymbolTableRecord
100
AcDbBlockTableRecord
  2
*U46
340
0
102
{BLKREFS
331
16BD
102
}
  0
BLOCK_RECORD
  5
2E1C
330
2D01
100
AcDbSymbolTableRecord
100
AcDbBlockTableRecord
  2
*D47
340
0
  0
BLOCK_RECORD
  5
2E1E
330
2D01
100
AcDbSymbolTableRecord
100
AcDbBlockTableRecord
  2
*U48
340
0
102
{BLKREFS
331
16C9
102
}
  0
BLOCK_RECORD
  5
2E20
330
2D01
100
AcDbSymbolTableRecord
100
AcDbBlockTableRecord
  2
*D49
340
0
  0
BLOCK_RECORD
  5
2E22
330
2D01
100
AcDbSymbolTableRecord
100
AcDbBlockTableRecord
  2
*U50
340
0
102
{BLKREFS
331
16D5
102
}
  0
BLOCK_RECORD
  5
2E24
330
2D01
100
AcDbSymbolTableRecord
100
AcDbBlockTableRecord
  2
*D51
340
0
  0
BLOCK_RECORD
  5
2E26
330
2D01
100
AcDbSymbolTableRecord
100
AcDbBlockTableRecord
  2
*U52
340
0
102
{BLKREFS
331
1D88
102
}
  0
BLOCK_RECORD
  5
2E28
330
2D01
100
AcDbSymbolTableRecord
100
AcDbBlockTableRecord
  2
*D53
340
0
  0
BLOCK_RECORD
  5
2E2A
330
2D01
100
AcDbSymbolTableRecord
100
AcDbBlockTableRecord
  2
*U54
340
0
102
{BLKREFS
331
1D91
102
}
  0
BLOCK_RECORD
  5
2E2C
330
2D01
100
AcDbSymbolTableRecord
100
AcDbBlockTableRecord
  2
*D55
340
0
  0
BLOCK_RECORD
  5
2E2E
330
2D01
100
AcDbSymbolTableRecord
100
AcDbBlockTableRecord
  2
*U56
340
0
102
{BLKREFS
331
1D9A
102
}
  0
BLOCK_RECORD
  5
2E30
330
2D01
100
AcDbSymbolTableRecord
100
AcDbBlockTableRecord
  2
*D57
340
0
  0
BLOCK_RECORD
  5
2E32
330
2D01
100
AcDbSymbolTableRecord
100
AcDbBlockTableRecord
  2
*U58
340
0
102
{BLKREFS
331
1DA3
102
}
  0
BLOCK_RECORD
  5
2E34
330
2D01
100
AcDbSymbolTableRecord
100
AcDbBlockTableRecord
  2
*D59
340
0
  0
BLOCK_RECORD
  5
2E36
330
2D01
100
AcDbSymbolTableRecord
100
AcDbBlockTableRecord
  2
*U60
340
0
102
{BLKREFS
331
1DAD
102
}
  0
BLOCK_RECORD
  5
2E38
330
2D01
100
AcDbSymbolTableRecord
100
AcDbBlockTableRecord
  2
*D61
340
0
  0
BLOCK_RECORD
  5
2E3A
330
2D01
100
AcDbSymbolTableRecord
100
AcDbBlockTableRecord
  2
*U62
340
0
102
{BLKREFS
331
1DB7
102
}
  0
BLOCK_RECORD
  5
2E3C
330
2D01
100
AcDbSymbolTableRecord
100
AcDbBlockTableRecord
  2
*U63
340
0
  0
BLOCK_RECORD
  5
2E3E
330
2D01
100
AcDbSymbolTableRecord
100
AcDbBlockTableRecord
  2
*U64
340
0
  0
BLOCK_RECORD
  5
2E40
330
2D01
100
AcDbSymbolTableRecord
100
AcDbBlockTableRecord
  2
*U65
340
0
  0
BLOCK_RECORD
  5
2E42
330
2D01
100
AcDbSymbolTableRecord
100
AcDbBlockTableRecord
  2
*U66
340
0
102
{BLKREFS
331
2A33
102
}
  0
BLOCK_RECORD
  5
2E44
330
2D01
100
AcDbSymbolTableRecord
100
AcDbBlockTableRecord
  2
*U67
340
0
102
{BLKREFS
331
2A34
102
}
  0
BLOCK_RECORD
  5
2E46
330
2D01
100
AcDbSymbolTableRecord
100
AcDbBlockTableRecord
  2
*X68
340
0
102
{BLKREFS
331
2A42
102
}
  0
BLOCK_RECORD
  5
2E48
330
2D01
100
AcDbSymbolTableRecord
100
AcDbBlockTableRecord
  2
*X69
340
0
102
{BLKREFS
331
2A43
102
}
  0
ENDTAB
  0
ENDSEC
  0
SECTION
  2
BLOCKS
  0
BLOCK
  5
2D75
330
2D74
100
AcDbEntity
  8
0
100
AcDbBlockBegin
  2
*Model_Space
 70
     0
 10
0.0
 20
0.0
 30
0.0
  3
*Model_Space
  1

  0
ENDBLK
  5
2D76
330
2D74
100
AcDbEntity
  8
0
100
AcDbBlockEnd
  0
BLOCK
  5
2D71
330
2D70
100
AcDbEntity
 67
     1
  8
0
100
AcDbBlockBegin
  2
*Paper_Space
 70
     0
 10
0.0
 20
0.0
 30
0.0
  3
*Paper_Space
  1

  0
ENDBLK
  5
2D72
330
2D70
100
AcDbEntity
 67
     1
  8
0
100
AcDbBlockEnd
  0
BLOCK
  5
2DBF
330
2DBE
100
AcDbEntity
  8
0
100
AcDbBlockBegin
  2
$MODEL_SPACE
 70
     0
 10
0.0
 20
0.0
 30
0.0
  3
$MODEL_SPACE
  1

  0
ENDBLK
  5
2B10
330
2DBE
100
AcDbEntity
  8
0
100
AcDbBlockEnd
  0
BLOCK
  5
2DC1
330
2DC0
100
AcDbEntity
  8
0
100
AcDbBlockBegin
  2
$PAPER_SPACE
 70
     0
 10
0.0
 20
0.0
 30
0.0
  3
$PAPER_SPACE
  1

  0
ENDBLK
  5
2B0C
330
2DC0
100
AcDbEntity
  8
0
100
AcDbBlockEnd
  0
BLOCK
  5
2DC3
330
2DC2
100
AcDbEntity
  8
0
100
AcDbBlockBegin
  2
_ORIGIN
 70
     0
 10
0.0
 20
0.0
 30
0.0
  3
_ORIGIN
  1

  0
CIRCLE
  5
880
330
2DC2
100
AcDbEntity
  8
0
  6
Continuous
 62
     7
100
AcDbCircle
 10
0.0
 20
0.0
 30
0.0
 40
0.5
  0
LINE
  5
881
330
2DC2
100
AcDbEntity
  8
0
  6
Continuous
 62
     7
100
AcDbLine
 10
0.0
 20
0.0
 30
0.0
 11
-1.0
 21
0.0
 31
0.0
  0
ENDBLK
  5
882
330
2DC2
100
AcDbEntity
  8
0
100
AcDbBlockEnd
  0
BLOCK
  5
2DC5
330
2DC4
100
AcDbEntity
  8
0
 62
     1
100
AcDbBlockBegin
  2
_DOTBLANK
 70
     0
 10
0.0
 20
0.0
 30
0.0
  3
_DOTBLANK
  1

  0
CIRCLE
  5
AB3
330
2DC4
100
AcDbEntity
  8
0
  6
ByBlock
 62
     0
100
AcDbCircle
 10
0.0
 20
0.0
 30
0.0
 40
0.5
  0
LINE
  5
AB4
330
2DC4
100
AcDbEntity
  8
0
  6
ByBlock
 62
     0
100
AcDbLine
 10
-0.5
 20
0.0
 30
0.0
 11
-1.0
 21
0.0
 31
0.0
  0
ENDBLK
  5
AB6
330
2DC4
100
AcDbEntity
  8
0
 62
     1
100
AcDbBlockEnd
  0
BLOCK
  5
2DC7
330
2DC6
100
AcDbEntity
  8
0
 62
     1
100
AcDbBlockBegin
  2
_OPEN30
 70
     0
 10
0.0
 20
0.0
 30
0.0
  3
_OPEN30
  1

  0
LINE
  5
AB8
330
2DC6
100
AcDbEntity
  8
0
  6
ByBlock
 62
     0
100
AcDbLine
 10
-1.0
 20
0.26794919
 30
0.0
 11
0.0
 21
0.0
 31
0.0
  0
LINE
  5
AB9
330
2DC6
100
AcDbEntity
  8
0
  6
ByBlock
 62
     0
100
AcDbLine
 10
0.0
 20
0.0
 30
0.0
 11
-1.0
 21
-0.26794919
 31
0.0
  0
LINE
  5
ABA
330
2DC6
100
AcDbEntity
  8
0
  6
ByBlock
 62
     0
100
AcDbLine
 10
0.0
 20
0.0
 30
0.0
 11
-1.0
 21
0.0
 31
0.0
  0
ENDBLK
  5
ABC
330
2DC6
100
AcDbEntity
  8
0
 62
     1
100
AcDbBlockEnd
  0
BLOCK
  5
2DC9
330
2DC8
100
AcDbEntity
  8
0
100
AcDbBlockBegin
  2
*D5
 70
     1
 10
0.0
 20
0.0
 30
0.0
  3
*D5
  1

  0
LINE
  5
1296
330
2DC8
100
AcDbEntity
  8
SIZE
 62
     0
100
AcDbLine
 10
-134.5
 20
-320.0
 30
0.0
 11
-134.5
 21
-468.0173952306001
 31
0.0
  0
LINE
  5
1297
330
2DC8
100
AcDbEntity
  8
SIZE
 62
     0
100
AcDbLine
 10
134.5
 20
-320.0
 30
0.0
 11
134.5
 21
-468.0173952306001
 31
0.0
  0
LINE
  5
1298
330
2DC8
100
AcDbEntity
  8
SIZE
 62
     0
100
AcDbLine
 10
-122.5
 20
-448.0173952306
 30
0.0
 11
122.5
 21
-448.0173952306
 31
0.0
  0
INSERT
  5
1299
330
2DC8
100
AcDbEntity
  8
SIZE
 62
     0
100
AcDbBlockReference
  2
_DOTBLANK
 10
-134.5
 20
-448.0173952306
 30
0.0
 41
12.0
 42
12.0
 43
12.0
 50
180.0
  0
INSERT
  5
129A
330
2DC8
100
AcDbEntity
  8
SIZE
 62
     0
100
AcDbBlockReference
  2
_DOTBLANK
 10
134.5
 20
-448.0173952306
 30
0.0
 41
12.0
 42
12.0
 43
12.0
  0
INSERT
  5
129B
330
2DC8
100
AcDbEntity
  8
0
100
AcDbBlockReference
  2
*U6
 10
0.0
 20
0.0
 30
0.0
  0
POINT
  5
129C
330
2DC8
100
AcDbEntity
  8
DEFPOINTS
 62
     0
100
AcDbPoint
 10
-134.5
 20
-300.0
 30
0.0
  0
POINT
  5
129D
330
2DC8
100
AcDbEntity
  8
DEFPOINTS
 62
     0
100
AcDbPoint
 10
134.5
 20
-300.0
 30
0.0
  0
POINT
  5
129E
330
2DC8
100
AcDbEntity
  8
DEFPOINTS
 62
     0
100
AcDbPoint
 10
134.5
 20
-448.0173952306
 30
0.0
  0
ENDBLK
  5
D72
330
2DC8
100
AcDbEntity
  8
0
100
AcDbBlockEnd
  0
BLOCK
  5
2DCB
330
2DCA
100
AcDbEntity
  8
0
100
AcDbBlockBegin
  2
*U6
 70
     1
 10
0.0
 20
0.0
 30
0.0
  3
*U6
  1

  0
TEXT
  5
1EF5
330
2DCA
100
AcDbEntity
  8
SIZE
 62
     0
100
AcDbText
 10
-72.68571428571426
 20
-438.0173952305999
 30
0.0
 40
64.0
  1
269
 41
0.9
100
AcDbText
  0
ENDBLK
  5
1EF7
330
2DCA
100
AcDbEntity
  8
0
100
AcDbBlockEnd
  0
BLOCK
  5
2DCD
330
2DCC
100
AcDbEntity
  8
0
100
AcDbBlockBegin
  2
*D7
 70
     1
 10
0.0
 20
0.0
 30
0.0
  3
*D7
  1

  0
LINE
  5
11A7
330
2DCC
100
AcDbEntity
  8
SIZE
  6
Continuous
 62
     0
100
AcDbLine
 10
143.5
 20
-300.0
 30
0.0
 11
304.6432844803791
 21
-300.0
 31
0.0
  0
LINE
  5
11A8
330
2DCC
100
AcDbEntity
  8
SIZE
  6
Continuous
 62
     0
100
AcDbLine
 10
177.5
 20
-0.0000000000000057
 30
0.0
 11
304.6432844803792
 21
-0.0000000000000417
 31
0.0
  0
LINE
  5
11A9
330
2DCC
100
AcDbEntity
  8
SIZE
  6
Continuous
 62
     0
100
AcDbLine
 10
284.6432844803791
 20
-288.0000000000001
 30
0.0
 11
284.6432844803792
 21
-12.00000000000003
 31
0.0
  0
INSERT
  5
11AA
330
2DCC
100
AcDbEntity
  8
SIZE
  6
Continuous
 62
     0
100
AcDbBlockReference
  2
_DOTBLANK
 10
284.6432844803791
 20
-300.0
 30
0.0
 41
12.0
 42
12.0
 43
12.0
 50
270.0
  0
INSERT
  5
11AB
330
2DCC
100
AcDbEntity
  8
SIZE
  6
Continuous
 62
     0
100
AcDbBlockReference
  2
_DOTBLANK
 10
284.6432844803792
 20
-0.000000000000036
 30
0.0
 41
12.0
 42
12.0
 43
12.0
 50
90.0
  0
INSERT
  5
11AC
330
2DCC
100
AcDbEntity
  8
0
100
AcDbBlockReference
  2
*U8
 10
0.0
 20
0.0
 30
0.0
  0
POINT
  5
11AD
330
2DCC
100
AcDbEntity
  8
DEFPOINTS
  6
Continuous
 62
     0
100
AcDbPoint
 10
123.5
 20
-300.0
 30
0.0
  0
POINT
  5
11AE
330
2DCC
100
AcDbEntity
  8
DEFPOINTS
  6
Continuous
 62
     0
100
AcDbPoint
 10
157.5
 20
0.0
 30
0.0
  0
POINT
  5
11AF
330
2DCC
100
AcDbEntity
  8
DEFPOINTS
  6
Continuous
 62
     0
100
AcDbPoint
 10
284.6432844803792
 20
-0.000000000000036
 30
0.0
  0
ENDBLK
  5
E11
330
2DCC
100
AcDbEntity
  8
0
100
AcDbBlockEnd
  0
BLOCK
  5
2DCF
330
2DCE
100
AcDbEntity
  8
0
100
AcDbBlockBegin
  2
*U8
 70
     1
 10
0.0
 20
0.0
 30
0.0
  3
*U8
  1

  0
TEXT
  5
1EE1
330
2DCE
100
AcDbEntity
  8
SIZE
 62
     0
100
AcDbText
 10
274.6432844803792
 20
-224.0571428571429
 30
0.0
 40
64.0
  1
300
 50
90.0
 41
0.9
100
AcDbText
  0
ENDBLK
  5
1EE3
330
2DCE
100
AcDbEntity
  8
0
100
AcDbBlockEnd
  0
BLOCK
  5
2DD1
330
2DD0
100
AcDbEntity
  8
0
100
AcDbBlockBegin
  2
*D9
 70
     1
 10
0.0
 20
0.0
 30
0.0
  3
*D9
  1

  0
LINE
  5
E7D
330
2DD0
100
AcDbEntity
  8
SIZE
 62
     0
100
AcDbLine
 10
-139.9999999999998
 20
32.46448280219375
 30
0.0
 11
-139.9999999999998
 21
136.4516878685508
 31
0.0
  0
LINE
  5
E7E
330
2DD0
100
AcDbEntity
  8
SIZE
 62
     0
100
AcDbLine
 10
140.0
 20
32.46448280219375
 30
0.0
 11
140.0
 21
136.4516878685508
 31
0.0
  0
LINE
  5
E7F
330
2DD0
100
AcDbEntity
  8
SIZE
 62
     0
100
AcDbLine
 10
-128.0
 20
116.4516878685508
 30
0.0
 11
128.0
 21
116.4516878685508
 31
0.0
  0
INSERT
  5
E80
330
2DD0
100
AcDbEntity
  8
SIZE
 62
     0
100
AcDbBlockReference
  2
_DOTBLANK
 10
-139.9999999999998
 20
116.4516878685508
 30
0.0
 41
12.0
 42
12.0
 43
12.0
 50
180.0
  0
INSERT
  5
E81
330
2DD0
100
AcDbEntity
  8
SIZE
 62
     0
100
AcDbBlockReference
  2
_DOTBLANK
 10
140.0
 20
116.4516878685508
 30
0.0
 41
12.0
 42
12.0
 43
12.0
  0
INSERT
  5
E82
330
2DD0
100
AcDbEntity
  8
0
100
AcDbBlockReference
  2
*U10
 10
0.0
 20
0.0
 30
0.0
  0
POINT
  5
E83
330
2DD0
100
AcDbEntity
  8
DEFPOINTS
 62
     0
100
AcDbPoint
 10
-139.9999999999998
 20
12.46448280219374
 30
0.0
  0
POINT
  5
E84
330
2DD0
100
AcDbEntity
  8
DEFPOINTS
 62
     0
100
AcDbPoint
 10
140.0
 20
12.46448280219374
 30
0.0
  0
POINT
  5
E85
330
2DD0
100
AcDbEntity
  8
DEFPOINTS
 62
     0
100
AcDbPoint
 10
140.0
 20
116.4516878685508
 30
0.0
  0
ENDBLK
  5
E7C
330
2DD0
100
AcDbEntity
  8
0
100
AcDbBlockEnd
  0
BLOCK
  5
2DD3
330
2DD2
100
AcDbEntity
  8
0
100
AcDbBlockBegin
  2
*U10
 70
     1
 10
0.0
 20
0.0
 30
0.0
  3
*U10
  1

  0
TEXT
  5
1ED8
330
2DD2
100
AcDbEntity
  8
SIZE
 62
     0
100
AcDbText
 10
-74.05714285714281
 20
126.4516878685508
 30
0.0
 40
64.0
  1
280
 41
0.9
100
AcDbText
  0
ENDBLK
  5
1EDA
330
2DD2
100
AcDbEntity
  8
0
100
AcDbBlockEnd
  0
BLOCK
  5
2DD5
330
2DD4
100
AcDbEntity
  8
0
100
AcDbBlockBegin
  2
GENAXEH
 70
     0
 10
0.0
 20
0.0
 30
0.0
  3
GENAXEH
  1

  0
LINE
  5
FDB
330
2DD4
100
AcDbEntity
  8
0
100
AcDbLine
 10
-1.0
 20
0.0
 30
0.0
 11
1.0
 21
0.0
 31
0.0
  0
ENDBLK
  5
FDD
330
2DD4
100
AcDbEntity
  8
0
100
AcDbBlockEnd
  0
BLOCK
  5
2DD7
330
2DD6
100
AcDbEntity
  8
0
100
AcDbBlockBegin
  2
*D12
 70
     1
 10
0.0
 20
0.0
 30
0.0
  3
*D12
  1

  0
LINE
  5
1120
330
2DD6
100
AcDbEntity
  8
SIZE
 62
     0
100
AcDbLine
 10
-157.5
 20
20.0
 30
0.0
 11
-157.5
 21
245.5794621189598
 31
0.0
  0
LINE
  5
1121
330
2DD6
100
AcDbEntity
  8
SIZE
 62
     0
100
AcDbLine
 10
157.5
 20
20.0
 30
0.0
 11
157.5
 21
245.5794621189598
 31
0.0
  0
LINE
  5
1122
330
2DD6
100
AcDbEntity
  8
SIZE
 62
     0
100
AcDbLine
 10
-145.5
 20
225.5794621189598
 30
0.0
 11
145.5
 21
225.5794621189598
 31
0.0
  0
INSERT
  5
1123
330
2DD6
100
AcDbEntity
  8
SIZE
 62
     0
100
AcDbBlockReference
  2
_DOTBLANK
 10
-157.5
 20
225.5794621189598
 30
0.0
 41
12.0
 42
12.0
 43
12.0
 50
180.0
  0
INSERT
  5
1124
330
2DD6
100
AcDbEntity
  8
SIZE
 62
     0
100
AcDbBlockReference
  2
_DOTBLANK
 10
157.5
 20
225.5794621189598
 30
0.0
 41
12.0
 42
12.0
 43
12.0
  0
INSERT
  5
1125
330
2DD6
100
AcDbEntity
  8
0
100
AcDbBlockReference
  2
*U13
 10
0.0
 20
0.0
 30
0.0
  0
POINT
  5
1126
330
2DD6
100
AcDbEntity
  8
DEFPOINTS
 62
     0
100
AcDbPoint
 10
-157.5
 20
0.0
 30
0.0
  0
POINT
  5
1127
330
2DD6
100
AcDbEntity
  8
DEFPOINTS
 62
     0
100
AcDbPoint
 10
157.5
 20
0.0
 30
0.0
  0
POINT
  5
1128
330
2DD6
100
AcDbEntity
  8
DEFPOINTS
 62
     0
100
AcDbPoint
 10
157.5
 20
225.5794621189598
 30
0.0
  0
ENDBLK
  5
111F
330
2DD6
100
AcDbEntity
  8
0
100
AcDbBlockEnd
  0
BLOCK
  5
2DD9
330
2DD8
100
AcDbEntity
  8
0
100
AcDbBlockBegin
  2
*U13
 70
     1
 10
0.0
 20
0.0
 30
0.0
  3
*U13
  1

  0
TEXT
  5
1EDD
330
2DD8
100
AcDbEntity
  8
SIZE
 62
     0
100
AcDbText
 10
-68.57142857142857
 20
235.5794621189599
 30
0.0
 40
64.0
  1
315
 41
0.9
100
AcDbText
  0
ENDBLK
  5
1EDF
330
2DD8
100
AcDbEntity
  8
0
100
AcDbBlockEnd
  0
BLOCK
  5
2DDB
330
2DDA
100
AcDbEntity
  8
0
100
AcDbBlockBegin
  2
*D14
 70
     1
 10
0.0
 20
0.0
 30
0.0
  3
*D14
  1

  0
LINE
  5
11BD
330
2DDA
100
AcDbEntity
  8
NOTE
 62
     0
100
AcDbLine
 10
-123.4999999999999
 20
-320.0
 30
0.0
 11
-123.4999999999999
 21
-354.9529861856111
 31
0.0
  0
LINE
  5
11BE
330
2DDA
100
AcDbEntity
  8
NOTE
 62
     0
100
AcDbLine
 10
-133.4999999999998
 20
-331.2126909923287
 30
0.0
 11
-133.4999999999998
 21
-354.9529861856111
 31
0.0
  0
LINE
  5
11BF
330
2DDA
100
AcDbEntity
  8
NOTE
 62
     0
100
AcDbLine
 10
-111.4999999999999
 20
-334.9529861856112
 30
0.0
 11
-99.4999999999999
 21
-334.9529861856112
 31
0.0
  0
LINE
  5
11C0
330
2DDA
100
AcDbEntity
  8
NOTE
 62
     0
100
AcDbLine
 10
-145.4999999999998
 20
-334.9529861856112
 30
0.0
 11
-157.4999999999998
 21
-334.9529861856112
 31
0.0
  0
LINE
  5
11C1
330
2DDA
100
AcDbEntity
  8
NOTE
 62
     0
100
AcDbLine
 10
-123.4999999999999
 20
-334.9529861856112
 30
0.0
 11
-133.4999999999998
 21
-334.9529861856112
 31
0.0
  0
INSERT
  5
11C2
330
2DDA
100
AcDbEntity
  8
NOTE
 62
     0
100
AcDbBlockReference
  2
_DOTBLANK
 10
-123.4999999999999
 20
-334.9529861856112
 30
0.0
 41
12.0
 42
12.0
 43
12.0
 50
180.0
  0
INSERT
  5
11C3
330
2DDA
100
AcDbEntity
  8
NOTE
 62
     0
100
AcDbBlockReference
  2
_DOTBLANK
 10
-133.4999999999998
 20
-334.9529861856112
 30
0.0
 41
12.0
 42
12.0
 43
12.0
  0
INSERT
  5
11C4
330
2DDA
100
AcDbEntity
  8
0
100
AcDbBlockReference
  2
*U15
 10
0.0
 20
0.0
 30
0.0
  0
POINT
  5
11C5
330
2DDA
100
AcDbEntity
  8
DEFPOINTS
 62
     0
100
AcDbPoint
 10
-123.4999999999999
 20
-300.0
 30
0.0
  0
POINT
  5
11C6
330
2DDA
100
AcDbEntity
  8
DEFPOINTS
 62
     0
100
AcDbPoint
 10
-133.4999999999998
 20
-311.2126909923287
 30
0.0
  0
POINT
  5
11C7
330
2DDA
100
AcDbEntity
  8
DEFPOINTS
 62
     0
100
AcDbPoint
 10
-133.4999999999998
 20
-334.9529861856112
 30
0.0
  0
ENDBLK
  5
11BC
330
2DDA
100
AcDbEntity
  8
0
100
AcDbBlockEnd
  0
BLOCK
  5
2DDD
330
2DDC
100
AcDbEntity
  8
0
100
AcDbBlockBegin
  2
*U15
 70
     1
 10
0.0
 20
0.0
 30
0.0
  3
*U15
  1

  0
TEXT
  5
1EE5
330
2DDC
100
AcDbEntity
  8
NOTE
 62
     0
100
AcDbText
 10
-169.642857142857
 20
-324.9529861856112
 30
0.0
 40
64.0
  1
10
 41
0.9
100
AcDbText
  0
ENDBLK
  5
1EE7
330
2DDC
100
AcDbEntity
  8
0
100
AcDbBlockEnd
  0
BLOCK
  5
2DDF
330
2DDE
100
AcDbEntity
  8
0
100
AcDbBlockBegin
  2
*D16
 70
     1
 10
0.0
 20
0.0
 30
0.0
  3
*D16
  1

  0
LINE
  5
11E7
330
2DDE
100
AcDbEntity
  8
NOTE
 62
     0
100
AcDbLine
 10
-135.5
 20
-333.2126909923287
 30
0.0
 11
-135.5
 21
-386.2569421441843
 31
0.0
  0
LINE
  5
11E8
330
2DDE
100
AcDbEntity
  8
NOTE
 62
     0
100
AcDbLine
 10
-123.4999999999999
 20
-320.0
 30
0.0
 11
-123.4999999999999
 21
-386.2569421441843
 31
0.0
  0
LINE
  5
11E9
330
2DDE
100
AcDbEntity
  8
NOTE
 62
     0
100
AcDbLine
 10
-147.5
 20
-366.2569421441844
 30
0.0
 11
-159.5
 21
-366.2569421441844
 31
0.0
  0
LINE
  5
11EA
330
2DDE
100
AcDbEntity
  8
NOTE
 62
     0
100
AcDbLine
 10
-111.4999999999999
 20
-366.2569421441844
 30
0.0
 11
-99.4999999999999
 21
-366.2569421441844
 31
0.0
  0
LINE
  5
11EB
330
2DDE
100
AcDbEntity
  8
NOTE
 62
     0
100
AcDbLine
 10
-135.5
 20
-366.2569421441844
 30
0.0
 11
-123.4999999999999
 21
-366.2569421441844
 31
0.0
  0
INSERT
  5
11EC
330
2DDE
100
AcDbEntity
  8
NOTE
 62
     0
100
AcDbBlockReference
  2
_DOTBLANK
 10
-135.5
 20
-366.2569421441844
 30
0.0
 41
12.0
 42
12.0
 43
12.0
  0
INSERT
  5
11ED
330
2DDE
100
AcDbEntity
  8
NOTE
 62
     0
100
AcDbBlockReference
  2
_DOTBLANK
 10
-123.4999999999999
 20
-366.2569421441844
 30
0.0
 41
12.0
 42
12.0
 43
12.0
 50
180.0
  0
INSERT
  5
11EE
330
2DDE
100
AcDbEntity
  8
0
100
AcDbBlockReference
  2
*U17
 10
0.0
 20
0.0
 30
0.0
  0
POINT
  5
11EF
330
2DDE
100
AcDbEntity
  8
DEFPOINTS
 62
     0
100
AcDbPoint
 10
-135.5
 20
-313.2126909923287
 30
0.0
  0
POINT
  5
11F0
330
2DDE
100
AcDbEntity
  8
DEFPOINTS
 62
     0
100
AcDbPoint
 10
-123.4999999999999
 20
-300.0
 30
0.0
  0
POINT
  5
11F1
330
2DDE
100
AcDbEntity
  8
DEFPOINTS
 62
     0
100
AcDbPoint
 10
-123.4999999999999
 20
-366.2569421441844
 30
0.0
  0
ENDBLK
  5
11E6
330
2DDE
100
AcDbEntity
  8
0
100
AcDbBlockEnd
  0
BLOCK
  5
2DE1
330
2DE0
100
AcDbEntity
  8
0
100
AcDbBlockBegin
  2
*U17
 70
     1
 10
0.0
 20
0.0
 30
0.0
  3
*U17
  1

  0
TEXT
  5
1EE9
330
2DE0
100
AcDbEntity
  8
NOTE
 62
     0
100
AcDbText
 10
-170.642857142857
 20
-356.2569421441843
 30
0.0
 40
64.0
  1
12
 41
0.9
100
AcDbText
  0
ENDBLK
  5
1EEB
330
2DE0
100
AcDbEntity
  8
0
100
AcDbBlockEnd
  0
BLOCK
  5
2DE3
330
2DE2
100
AcDbEntity
  8
0
100
AcDbBlockBegin
  2
*D18
 70
     1
 10
0.0
 20
0.0
 30
0.0
  3
*D18
  1

  0
LINE
  5
11F6
330
2DE2
100
AcDbEntity
  8
NOTE
 62
     0
100
AcDbLine
 10
-123.4999999999999
 20
-320.0
 30
0.0
 11
-123.4999999999999
 21
-583.8286022818904
 31
0.0
  0
LINE
  5
11F7
330
2DE2
100
AcDbEntity
  8
NOTE
 62
     0
100
AcDbLine
 10
123.5
 20
-320.0
 30
0.0
 11
123.5
 21
-583.8286022818904
 31
0.0
  0
LINE
  5
11F8
330
2DE2
100
AcDbEntity
  8
NOTE
 62
     0
100
AcDbLine
 10
-111.4999999999999
 20
-563.8286022818904
 30
0.0
 11
111.5
 21
-563.8286022818904
 31
0.0
  0
INSERT
  5
11F9
330
2DE2
100
AcDbEntity
  8
NOTE
 62
     0
100
AcDbBlockReference
  2
_DOTBLANK
 10
-123.4999999999999
 20
-563.8286022818904
 30
0.0
 41
12.0
 42
12.0
 43
12.0
 50
180.0
  0
INSERT
  5
11FA
330
2DE2
100
AcDbEntity
  8
NOTE
 62
     0
100
AcDbBlockReference
  2
_DOTBLANK
 10
123.5
 20
-563.8286022818904
 30
0.0
 41
12.0
 42
12.0
 43
12.0
  0
INSERT
  5
11FB
330
2DE2
100
AcDbEntity
  8
0
100
AcDbBlockReference
  2
*U19
 10
0.0
 20
0.0
 30
0.0
  0
POINT
  5
11FC
330
2DE2
100
AcDbEntity
  8
DEFPOINTS
 62
     0
100
AcDbPoint
 10
-123.4999999999999
 20
-300.0
 30
0.0
  0
POINT
  5
11FD
330
2DE2
100
AcDbEntity
  8
DEFPOINTS
 62
     0
100
AcDbPoint
 10
123.5
 20
-300.0
 30
0.0
  0
POINT
  5
11FE
330
2DE2
100
AcDbEntity
  8
DEFPOINTS
 62
     0
100
AcDbPoint
 10
123.5
 20
-563.8286022818904
 30
0.0
  0
ENDBLK
  5
11F5
330
2DE2
100
AcDbEntity
  8
0
100
AcDbBlockEnd
  0
BLOCK
  5
2DE5
330
2DE4
100
AcDbEntity
  8
0
100
AcDbBlockBegin
  2
*U19
 70
     1
 10
0.0
 20
0.0
 30
0.0
  3
*U19
  1

  0
TEXT
  5
1EED
330
2DE4
100
AcDbEntity
  8
NOTE
 62
     0
100
AcDbText
 10
-74.05714285714281
 20
-553.8286022818904
 30
0.0
 40
64.0
  1
247
 41
0.9
100
AcDbText
  0
ENDBLK
  5
1EEF
330
2DE4
100
AcDbEntity
  8
0
100
AcDbBlockEnd
  0
BLOCK
  5
2DE7
330
2DE6
100
AcDbEntity
  8
0
100
AcDbBlockBegin
  2
*D20
 70
     1
 10
0.0
 20
0.0
 30
0.0
  3
*D20
  1

  0
LINE
  5
1284
330
2DE6
100
AcDbEntity
  8
NOTE
 62
     0
100
AcDbLine
 10
-123.5
 20
12.0
 30
0.0
 11
-123.5
 21
71.83630134534229
 31
0.0
  0
LINE
  5
1285
330
2DE6
100
AcDbEntity
  8
NOTE
 62
     0
100
AcDbLine
 10
123.5
 20
12.0
 30
0.0
 11
123.5
 21
71.83630134534229
 31
0.0
  0
LINE
  5
1286
330
2DE6
100
AcDbEntity
  8
NOTE
 62
     0
100
AcDbLine
 10
-111.5
 20
51.83630134534229
 30
0.0
 11
111.5
 21
51.83630134534229
 31
0.0
  0
INSERT
  5
1287
330
2DE6
100
AcDbEntity
  8
NOTE
 62
     0
100
AcDbBlockReference
  2
_DOTBLANK
 10
-123.5
 20
51.83630134534229
 30
0.0
 41
12.0
 42
12.0
 43
12.0
 50
180.0
  0
INSERT
  5
1288
330
2DE6
100
AcDbEntity
  8
NOTE
 62
     0
100
AcDbBlockReference
  2
_DOTBLANK
 10
123.5
 20
51.83630134534229
 30
0.0
 41
12.0
 42
12.0
 43
12.0
  0
INSERT
  5
1289
330
2DE6
100
AcDbEntity
  8
0
100
AcDbBlockReference
  2
*U21
 10
0.0
 20
0.0
 30
0.0
  0
POINT
  5
128A
330
2DE6
100
AcDbEntity
  8
DEFPOINTS
 62
     0
100
AcDbPoint
 10
-123.5
 20
-8.0
 30
0.0
  0
POINT
  5
128B
330
2DE6
100
AcDbEntity
  8
DEFPOINTS
 62
     0
100
AcDbPoint
 10
123.5
 20
-8.0
 30
0.0
  0
POINT
  5
128C
330
2DE6
100
AcDbEntity
  8
DEFPOINTS
 62
     0
100
AcDbPoint
 10
123.5
 20
51.83630134534229
 30
0.0
  0
ENDBLK
  5
1283
330
2DE6
100
AcDbEntity
  8
0
100
AcDbBlockEnd
  0
BLOCK
  5
2DE9
330
2DE8
100
AcDbEntity
  8
0
100
AcDbBlockBegin
  2
*U21
 70
     1
 10
0.0
 20
0.0
 30
0.0
  3
*U21
  1

  0
TEXT
  5
1EF1
330
2DE8
100
AcDbEntity
  8
NOTE
 62
     0
100
AcDbText
 10
-74.05714285714283
 20
61.83630134534229
 30
0.0
 40
64.0
  1
247
 41
0.9
100
AcDbText
  0
ENDBLK
  5
1EF3
330
2DE8
100
AcDbEntity
  8
0
100
AcDbBlockEnd
  0
BLOCK
  5
2DEB
330
2DEA
100
AcDbEntity
  8
0
100
AcDbBlockBegin
  2
*D22
 70
     1
 10
0.0
 20
0.0
 30
0.0
  3
*D22
  1

  0
LINE
  5
1414
330
2DEA
100
AcDbEntity
  8
SIZE
 62
     0
100
AcDbLine
 10
-22313.11521613997
 20
7365.702971374808
 30
0.0
 11
-22313.11521613997
 21
7217.685576144207
 31
0.0
  0
LINE
  5
1415
330
2DEA
100
AcDbEntity
  8
SIZE
 62
     0
100
AcDbLine
 10
-22044.11521613997
 20
7365.702971374808
 30
0.0
 11
-22044.11521613997
 21
7217.685576144207
 31
0.0
  0
LINE
  5
1416
330
2DEA
100
AcDbEntity
  8
SIZE
 62
     0
100
AcDbLine
 10
-22301.11521613997
 20
7237.685576144207
 30
0.0
 11
-22056.11521613997
 21
7237.685576144207
 31
0.0
  0
INSERT
  5
1417
330
2DEA
100
AcDbEntity
  8
SIZE
 62
     0
100
AcDbBlockReference
  2
_DOTBLANK
 10
-22313.11521613997
 20
7237.685576144207
 30
0.0
 41
12.0
 42
12.0
 43
12.0
 50
180.0
  0
INSERT
  5
1418
330
2DEA
100
AcDbEntity
  8
SIZE
 62
     0
100
AcDbBlockReference
  2
_DOTBLANK
 10
-22044.11521613997
 20
7237.685576144207
 30
0.0
 41
12.0
 42
12.0
 43
12.0
  0
INSERT
  5
1419
330
2DEA
100
AcDbEntity
  8
0
100
AcDbBlockReference
  2
*U23
 10
0.0
 20
0.0
 30
0.0
  0
POINT
  5
141A
330
2DEA
100
AcDbEntity
  8
DEFPOINTS
 62
     0
100
AcDbPoint
 10
-22313.11521613997
 20
7385.702971374808
 30
0.0
  0
POINT
  5
141B
330
2DEA
100
AcDbEntity
  8
DEFPOINTS
 62
     0
100
AcDbPoint
 10
-22044.11521613997
 20
7385.702971374808
 30
0.0
  0
POINT
  5
141C
330
2DEA
100
AcDbEntity
  8
DEFPOINTS
 62
     0
100
AcDbPoint
 10
-22044.11521613997
 20
7237.685576144207
 30
0.0
  0
ENDBLK
  5
141D
330
2DEA
100
AcDbEntity
  8
0
100
AcDbBlockEnd
  0
BLOCK
  5
2DED
330
2DEC
100
AcDbEntity
  8
0
100
AcDbBlockBegin
  2
*U23
 70
     1
 10
0.0
 20
0.0
 30
0.0
  3
*U23
  1

  0
TEXT
  5
1EF9
330
2DEC
100
AcDbEntity
  8
SIZE
 62
     0
100
AcDbText
 10
-22251.30093042568
 20
7247.685576144205
 30
0.0
 40
64.0
  1
269
 41
0.9
100
AcDbText
  0
ENDBLK
  5
1EFB
330
2DEC
100
AcDbEntity
  8
0
100
AcDbBlockEnd
  0
BLOCK
  5
2DEF
330
2DEE
100
AcDbEntity
  8
0
100
AcDbBlockBegin
  2
*D24
 70
     1
 10
0.0
 20
0.0
 30
0.0
  3
*D24
  1

  0
LINE
  5
1420
330
2DEE
100
AcDbEntity
  8
SIZE
  6
Continuous
 62
     0
100
AcDbLine
 10
-22035.11521613997
 20
7385.702971374808
 30
0.0
 11
-21873.97193165959
 21
7385.702971374808
 31
0.0
  0
LINE
  5
1421
330
2DEE
100
AcDbEntity
  8
SIZE
  6
Continuous
 62
     0
100
AcDbLine
 10
-22001.11521613997
 20
7685.702971374808
 30
0.0
 11
-21873.97193165959
 21
7685.702971374808
 31
0.0
  0
LINE
  5
1422
330
2DEE
100
AcDbEntity
  8
SIZE
  6
Continuous
 62
     0
100
AcDbLine
 10
-21893.97193165959
 20
7397.702971374808
 30
0.0
 11
-21893.97193165959
 21
7673.702971374808
 31
0.0
  0
INSERT
  5
1423
330
2DEE
100
AcDbEntity
  8
SIZE
  6
Continuous
 62
     0
100
AcDbBlockReference
  2
_DOTBLANK
 10
-21893.97193165959
 20
7385.702971374808
 30
0.0
 41
12.0
 42
12.0
 43
12.0
 50
270.0
  0
INSERT
  5
1424
330
2DEE
100
AcDbEntity
  8
SIZE
  6
Continuous
 62
     0
100
AcDbBlockReference
  2
_DOTBLANK
 10
-21893.97193165959
 20
7685.702971374808
 30
0.0
 41
12.0
 42
12.0
 43
12.0
 50
90.0
  0
INSERT
  5
1425
330
2DEE
100
AcDbEntity
  8
0
100
AcDbBlockReference
  2
*U25
 10
0.0
 20
0.0
 30
0.0
  0
POINT
  5
1426
330
2DEE
100
AcDbEntity
  8
DEFPOINTS
  6
Continuous
 62
     0
100
AcDbPoint
 10
-22055.11521613997
 20
7385.702971374808
 30
0.0
  0
POINT
  5
1427
330
2DEE
100
AcDbEntity
  8
DEFPOINTS
  6
Continuous
 62
     0
100
AcDbPoint
 10
-22021.11521613997
 20
7685.702971374808
 30
0.0
  0
POINT
  5
1428
330
2DEE
100
AcDbEntity
  8
DEFPOINTS
  6
Continuous
 62
     0
100
AcDbPoint
 10
-21893.97193165959
 20
7685.702971374808
 30
0.0
  0
ENDBLK
  5
1429
330
2DEE
100
AcDbEntity
  8
0
100
AcDbBlockEnd
  0
BLOCK
  5
2DF1
330
2DF0
100
AcDbEntity
  8
0
100
AcDbBlockBegin
  2
*U25
 70
     1
 10
0.0
 20
0.0
 30
0.0
  3
*U25
  1

  0
TEXT
  5
1EFD
330
2DF0
100
AcDbEntity
  8
SIZE
 62
     0
100
AcDbText
 10
-21903.97193165959
 20
7461.645828517662
 30
0.0
 40
64.0
  1
300
 50
90.0
 41
0.9
100
AcDbText
  0
ENDBLK
  5
1EFF
330
2DF0
100
AcDbEntity
  8
0
100
AcDbBlockEnd
  0
BLOCK
  5
2DF3
330
2DF2
100
AcDbEntity
  8
0
100
AcDbBlockBegin
  2
*D26
 70
     1
 10
0.0
 20
0.0
 30
0.0
  3
*D26
  1

  0
LINE
  5
142C
330
2DF2
100
AcDbEntity
  8
SIZE
 62
     0
100
AcDbLine
 10
-22318.61521613997
 20
7718.167454177002
 30
0.0
 11
-22318.61521613997
 21
7822.154659243358
 31
0.0
  0
LINE
  5
142D
330
2DF2
100
AcDbEntity
  8
SIZE
 62
     0
100
AcDbLine
 10
-22038.61521613997
 20
7718.167454177002
 30
0.0
 11
-22038.61521613997
 21
7822.154659243358
 31
0.0
  0
LINE
  5
142E
330
2DF2
100
AcDbEntity
  8
SIZE
 62
     0
100
AcDbLine
 10
-22306.61521613997
 20
7802.154659243358
 30
0.0
 11
-22050.61521613997
 21
7802.154659243358
 31
0.0
  0
INSERT
  5
142F
330
2DF2
100
AcDbEntity
  8
SIZE
 62
     0
100
AcDbBlockReference
  2
_DOTBLANK
 10
-22318.61521613997
 20
7802.154659243358
 30
0.0
 41
12.0
 42
12.0
 43
12.0
 50
180.0
  0
INSERT
  5
1430
330
2DF2
100
AcDbEntity
  8
SIZE
 62
     0
100
AcDbBlockReference
  2
_DOTBLANK
 10
-22038.61521613997
 20
7802.154659243358
 30
0.0
 41
12.0
 42
12.0
 43
12.0
  0
INSERT
  5
1431
330
2DF2
100
AcDbEntity
  8
0
100
AcDbBlockReference
  2
*U27
 10
0.0
 20
0.0
 30
0.0
  0
POINT
  5
1432
330
2DF2
100
AcDbEntity
  8
DEFPOINTS
 62
     0
100
AcDbPoint
 10
-22318.61521613997
 20
7698.167454177002
 30
0.0
  0
POINT
  5
1433
330
2DF2
100
AcDbEntity
  8
DEFPOINTS
 62
     0
100
AcDbPoint
 10
-22038.61521613997
 20
7698.167454177002
 30
0.0
  0
POINT
  5
1434
330
2DF2
100
AcDbEntity
  8
DEFPOINTS
 62
     0
100
AcDbPoint
 10
-22038.61521613997
 20
7802.154659243358
 30
0.0
  0
ENDBLK
  5
1435
330
2DF2
100
AcDbEntity
  8
0
100
AcDbBlockEnd
  0
BLOCK
  5
2DF5
330
2DF4
100
AcDbEntity
  8
0
100
AcDbBlockBegin
  2
*U27
 70
     1
 10
0.0
 20
0.0
 30
0.0
  3
*U27
  1

  0
TEXT
  5
1F01
330
2DF4
100
AcDbEntity
  8
SIZE
 62
     0
100
AcDbText
 10
-22252.6723589971
 20
7812.154659243358
 30
0.0
 40
64.0
  1
280
 41
0.9
100
AcDbText
  0
ENDBLK
  5
1F03
330
2DF4
100
AcDbEntity
  8
0
100
AcDbBlockEnd
  0
BLOCK
  5
2DF7
330
2DF6
100
AcDbEntity
  8
0
100
AcDbBlockBegin
  2
*D28
 70
     1
 10
0.0
 20
0.0
 30
0.0
  3
*D28
  1

  0
LINE
  5
1438
330
2DF6
100
AcDbEntity
  8
SIZE
 62
     0
100
AcDbLine
 10
-22336.11521613997
 20
7705.702971374808
 30
0.0
 11
-22336.11521613997
 21
7931.282433493766
 31
0.0
  0
LINE
  5
1439
330
2DF6
100
AcDbEntity
  8
SIZE
 62
     0
100
AcDbLine
 10
-22021.11521613997
 20
7705.702971374808
 30
0.0
 11
-22021.11521613997
 21
7931.282433493766
 31
0.0
  0
LINE
  5
143A
330
2DF6
100
AcDbEntity
  8
SIZE
 62
     0
100
AcDbLine
 10
-22324.11521613997
 20
7911.282433493766
 30
0.0
 11
-22033.11521613997
 21
7911.282433493766
 31
0.0
  0
INSERT
  5
143B
330
2DF6
100
AcDbEntity
  8
SIZE
 62
     0
100
AcDbBlockReference
  2
_DOTBLANK
 10
-22336.11521613997
 20
7911.282433493766
 30
0.0
 41
12.0
 42
12.0
 43
12.0
 50
180.0
  0
INSERT
  5
143C
330
2DF6
100
AcDbEntity
  8
SIZE
 62
     0
100
AcDbBlockReference
  2
_DOTBLANK
 10
-22021.11521613997
 20
7911.282433493766
 30
0.0
 41
12.0
 42
12.0
 43
12.0
  0
INSERT
  5
143D
330
2DF6
100
AcDbEntity
  8
0
100
AcDbBlockReference
  2
*U29
 10
0.0
 20
0.0
 30
0.0
  0
POINT
  5
143E
330
2DF6
100
AcDbEntity
  8
DEFPOINTS
 62
     0
100
AcDbPoint
 10
-22336.11521613997
 20
7685.702971374808
 30
0.0
  0
POINT
  5
143F
330
2DF6
100
AcDbEntity
  8
DEFPOINTS
 62
     0
100
AcDbPoint
 10
-22021.11521613997
 20
7685.702971374808
 30
0.0
  0
POINT
  5
1440
330
2DF6
100
AcDbEntity
  8
DEFPOINTS
 62
     0
100
AcDbPoint
 10
-22021.11521613997
 20
7911.282433493766
 30
0.0
  0
ENDBLK
  5
1441
330
2DF6
100
AcDbEntity
  8
0
100
AcDbBlockEnd
  0
BLOCK
  5
2DF9
330
2DF8
100
AcDbEntity
  8
0
100
AcDbBlockBegin
  2
*U29
 70
     1
 10
0.0
 20
0.0
 30
0.0
  3
*U29
  1

  0
TEXT
  5
1F05
330
2DF8
100
AcDbEntity
  8
SIZE
 62
     0
100
AcDbText
 10
-22247.18664471139
 20
7921.282433493766
 30
0.0
 40
64.0
  1
315
 41
0.9
100
AcDbText
  0
ENDBLK
  5
1F07
330
2DF8
100
AcDbEntity
  8
0
100
AcDbBlockEnd
  0
BLOCK
  5
2DFB
330
2DFA
100
AcDbEntity
  8
0
100
AcDbBlockBegin
  2
*D30
 70
     1
 10
0.0
 20
0.0
 30
0.0
  3
*D30
  1

  0
LINE
  5
166B
330
2DFA
100
AcDbEntity
  8
SIZE
 62
     0
100
AcDbLine
 10
-134.5
 20
-320.0
 30
0.0
 11
-134.5
 21
-468.0173952306001
 31
0.0
  0
LINE
  5
166C
330
2DFA
100
AcDbEntity
  8
SIZE
 62
     0
100
AcDbLine
 10
134.5
 20
-320.0
 30
0.0
 11
134.5
 21
-468.0173952306001
 31
0.0
  0
LINE
  5
166D
330
2DFA
100
AcDbEntity
  8
SIZE
 62
     0
100
AcDbLine
 10
-122.5
 20
-448.0173952306
 30
0.0
 11
122.5
 21
-448.0173952306
 31
0.0
  0
INSERT
  5
166E
330
2DFA
100
AcDbEntity
  8
SIZE
 62
     0
100
AcDbBlockReference
  2
_DOTBLANK
 10
-134.5
 20
-448.0173952306
 30
0.0
 41
12.0
 42
12.0
 43
12.0
 50
180.0
  0
INSERT
  5
166F
330
2DFA
100
AcDbEntity
  8
SIZE
 62
     0
100
AcDbBlockReference
  2
_DOTBLANK
 10
134.5
 20
-448.0173952306
 30
0.0
 41
12.0
 42
12.0
 43
12.0
  0
INSERT
  5
1670
330
2DFA
100
AcDbEntity
  8
0
100
AcDbBlockReference
  2
*U31
 10
0.0
 20
0.0
 30
0.0
  0
POINT
  5
1671
330
2DFA
100
AcDbEntity
  8
DEFPOINTS
 62
     0
100
AcDbPoint
 10
-134.5
 20
-300.0
 30
0.0
  0
POINT
  5
1672
330
2DFA
100
AcDbEntity
  8
DEFPOINTS
 62
     0
100
AcDbPoint
 10
134.5
 20
-300.0
 30
0.0
  0
POINT
  5
1673
330
2DFA
100
AcDbEntity
  8
DEFPOINTS
 62
     0
100
AcDbPoint
 10
134.5
 20
-448.0173952306
 30
0.0
  0
ENDBLK
  5
14A7
330
2DFA
100
AcDbEntity
  8
0
100
AcDbBlockEnd
  0
BLOCK
  5
2DFD
330
2DFC
100
AcDbEntity
  8
0
100
AcDbBlockBegin
  2
*U31
 70
     1
 10
0.0
 20
0.0
 30
0.0
  3
*U31
  1

  0
TEXT
  5
1F09
330
2DFC
100
AcDbEntity
  8
SIZE
 62
     0
100
AcDbText
 10
-72.68571428571426
 20
-438.0173952306002
 30
0.0
 40
64.0
  1
269
 41
0.9
100
AcDbText
  0
ENDBLK
  5
1F0B
330
2DFC
100
AcDbEntity
  8
0
100
AcDbBlockEnd
  0
BLOCK
  5
2DFF
330
2DFE
100
AcDbEntity
  8
0
100
AcDbBlockBegin
  2
*D32
 70
     1
 10
0.0
 20
0.0
 30
0.0
  3
*D32
  1

  0
LINE
  5
1674
330
2DFE
100
AcDbEntity
  8
SIZE
  6
Continuous
 62
     0
100
AcDbLine
 10
143.5
 20
-300.0
 30
0.0
 11
304.6432844803784
 21
-300.0
 31
0.0
  0
LINE
  5
1675
330
2DFE
100
AcDbEntity
  8
SIZE
  6
Continuous
 62
     0
100
AcDbLine
 10
177.5
 20
-0.0000000000000057
 30
0.0
 11
304.6432844803785
 21
-0.0000000000000417
 31
0.0
  0
LINE
  5
1676
330
2DFE
100
AcDbEntity
  8
SIZE
  6
Continuous
 62
     0
100
AcDbLine
 10
284.6432844803784
 20
-288.0000000000001
 30
0.0
 11
284.6432844803785
 21
-12.00000000000003
 31
0.0
  0
INSERT
  5
1677
330
2DFE
100
AcDbEntity
  8
SIZE
  6
Continuous
 62
     0
100
AcDbBlockReference
  2
_DOTBLANK
 10
284.6432844803784
 20
-300.0
 30
0.0
 41
12.0
 42
12.0
 43
12.0
 50
270.0
  0
INSERT
  5
1678
330
2DFE
100
AcDbEntity
  8
SIZE
  6
Continuous
 62
     0
100
AcDbBlockReference
  2
_DOTBLANK
 10
284.6432844803785
 20
-0.000000000000036
 30
0.0
 41
12.0
 42
12.0
 43
12.0
 50
90.0
  0
INSERT
  5
1679
330
2DFE
100
AcDbEntity
  8
0
100
AcDbBlockReference
  2
*U33
 10
0.0
 20
0.0
 30
0.0
  0
POINT
  5
167A
330
2DFE
100
AcDbEntity
  8
DEFPOINTS
  6
Continuous
 62
     0
100
AcDbPoint
 10
123.5
 20
-300.0
 30
0.0
  0
POINT
  5
167B
330
2DFE
100
AcDbEntity
  8
DEFPOINTS
  6
Continuous
 62
     0
100
AcDbPoint
 10
157.5
 20
0.0
 30
0.0
  0
POINT
  5
167C
330
2DFE
100
AcDbEntity
  8
DEFPOINTS
  6
Continuous
 62
     0
100
AcDbPoint
 10
284.6432844803785
 20
-0.000000000000036
 30
0.0
  0
ENDBLK
  5
14B3
330
2DFE
100
AcDbEntity
  8
0
100
AcDbBlockEnd
  0
BLOCK
  5
2E01
330
2E00
100
AcDbEntity
  8
0
100
AcDbBlockBegin
  2
*U33
 70
     1
 10
0.0
 20
0.0
 30
0.0
  3
*U33
  1

  0
TEXT
  5
1F0D
330
2E00
100
AcDbEntity
  8
SIZE
 62
     0
100
AcDbText
 10
274.6432844803785
 20
-224.0571428571429
 30
0.0
 40
64.0
  1
300
 50
90.0
 41
0.9
100
AcDbText
  0
ENDBLK
  5
1F0F
330
2E00
100
AcDbEntity
  8
0
100
AcDbBlockEnd
  0
BLOCK
  5
2E03
330
2E02
100
AcDbEntity
  8
0
100
AcDbBlockBegin
  2
*D34
 70
     1
 10
0.0
 20
0.0
 30
0.0
  3
*D34
  1

  0
LINE
  5
167D
330
2E02
100
AcDbEntity
  8
SIZE
 62
     0
100
AcDbLine
 10
-140.0
 20
32.46448280219375
 30
0.0
 11
-140.0
 21
136.4516878685507
 31
0.0
  0
LINE
  5
167E
330
2E02
100
AcDbEntity
  8
SIZE
 62
     0
100
AcDbLine
 10
140.0
 20
32.46448280219375
 30
0.0
 11
140.0
 21
136.4516878685507
 31
0.0
  0
LINE
  5
167F
330
2E02
100
AcDbEntity
  8
SIZE
 62
     0
100
AcDbLine
 10
-128.0
 20
116.4516878685508
 30
0.0
 11
128.0
 21
116.4516878685508
 31
0.0
  0
INSERT
  5
1680
330
2E02
100
AcDbEntity
  8
SIZE
 62
     0
100
AcDbBlockReference
  2
_DOTBLANK
 10
-140.0
 20
116.4516878685508
 30
0.0
 41
12.0
 42
12.0
 43
12.0
 50
180.0
  0
INSERT
  5
1681
330
2E02
100
AcDbEntity
  8
SIZE
 62
     0
100
AcDbBlockReference
  2
_DOTBLANK
 10
140.0
 20
116.4516878685508
 30
0.0
 41
12.0
 42
12.0
 43
12.0
  0
INSERT
  5
1682
330
2E02
100
AcDbEntity
  8
0
100
AcDbBlockReference
  2
*U35
 10
0.0
 20
0.0
 30
0.0
  0
POINT
  5
1683
330
2E02
100
AcDbEntity
  8
DEFPOINTS
 62
     0
100
AcDbPoint
 10
-140.0
 20
12.46448280219374
 30
0.0
  0
POINT
  5
1684
330
2E02
100
AcDbEntity
  8
DEFPOINTS
 62
     0
100
AcDbPoint
 10
140.0
 20
12.46448280219374
 30
0.0
  0
POINT
  5
1685
330
2E02
100
AcDbEntity
  8
DEFPOINTS
 62
     0
100
AcDbPoint
 10
140.0
 20
116.4516878685508
 30
0.0
  0
ENDBLK
  5
14BF
330
2E02
100
AcDbEntity
  8
0
100
AcDbBlockEnd
  0
BLOCK
  5
2E05
330
2E04
100
AcDbEntity
  8
0
100
AcDbBlockBegin
  2
*U35
 70
     1
 10
0.0
 20
0.0
 30
0.0
  3
*U35
  1

  0
TEXT
  5
1F11
330
2E04
100
AcDbEntity
  8
SIZE
 62
     0
100
AcDbText
 10
-74.05714285714283
 20
126.4516878685507
 30
0.0
 40
64.0
  1
280
 41
0.9
100
AcDbText
  0
ENDBLK
  5
1F13
330
2E04
100
AcDbEntity
  8
0
100
AcDbBlockEnd
  0
BLOCK
  5
2E07
330
2E06
100
AcDbEntity
  8
0
100
AcDbBlockBegin
  2
*D36
 70
     1
 10
0.0
 20
0.0
 30
0.0
  3
*D36
  1

  0
LINE
  5
1686
330
2E06
100
AcDbEntity
  8
SIZE
 62
     0
100
AcDbLine
 10
-157.5
 20
20.0
 30
0.0
 11
-157.5
 21
245.5794621189598
 31
0.0
  0
LINE
  5
1687
330
2E06
100
AcDbEntity
  8
SIZE
 62
     0
100
AcDbLine
 10
157.5
 20
20.0
 30
0.0
 11
157.5
 21
245.5794621189598
 31
0.0
  0
LINE
  5
1688
330
2E06
100
AcDbEntity
  8
SIZE
 62
     0
100
AcDbLine
 10
-145.5
 20
225.5794621189598
 30
0.0
 11
145.5
 21
225.5794621189598
 31
0.0
  0
INSERT
  5
1689
330
2E06
100
AcDbEntity
  8
SIZE
 62
     0
100
AcDbBlockReference
  2
_DOTBLANK
 10
-157.5
 20
225.5794621189598
 30
0.0
 41
12.0
 42
12.0
 43
12.0
 50
180.0
  0
INSERT
  5
168A
330
2E06
100
AcDbEntity
  8
SIZE
 62
     0
100
AcDbBlockReference
  2
_DOTBLANK
 10
157.5
 20
225.5794621189598
 30
0.0
 41
12.0
 42
12.0
 43
12.0
  0
INSERT
  5
168B
330
2E06
100
AcDbEntity
  8
0
100
AcDbBlockReference
  2
*U37
 10
0.0
 20
0.0
 30
0.0
  0
POINT
  5
168C
330
2E06
100
AcDbEntity
  8
DEFPOINTS
 62
     0
100
AcDbPoint
 10
-157.5
 20
0.0
 30
0.0
  0
POINT
  5
168D
330
2E06
100
AcDbEntity
  8
DEFPOINTS
 62
     0
100
AcDbPoint
 10
157.5
 20
0.0
 30
0.0
  0
POINT
  5
168E
330
2E06
100
AcDbEntity
  8
DEFPOINTS
 62
     0
100
AcDbPoint
 10
157.5
 20
225.5794621189598
 30
0.0
  0
ENDBLK
  5
14CB
330
2E06
100
AcDbEntity
  8
0
100
AcDbBlockEnd
  0
BLOCK
  5
2E09
330
2E08
100
AcDbEntity
  8
0
100
AcDbBlockBegin
  2
*U37
 70
     1
 10
0.0
 20
0.0
 30
0.0
  3
*U37
  1

  0
TEXT
  5
1F15
330
2E08
100
AcDbEntity
  8
SIZE
 62
     0
100
AcDbText
 10
-68.57142857142857
 20
235.5794621189598
 30
0.0
 40
64.0
  1
315
 41
0.9
100
AcDbText
  0
ENDBLK
  5
1F17
330
2E08
100
AcDbEntity
  8
0
100
AcDbBlockEnd
  0
BLOCK
  5
2E0B
330
2E0A
100
AcDbEntity
  8
0
100
AcDbBlockBegin
  2
*U38
 70
     1
 10
0.0
 20
0.0
 30
0.0
  3
*U38
  1

  0
ENDBLK
  5
15CF
330
2E0A
100
AcDbEntity
  8
0
100
AcDbBlockEnd
  0
BLOCK
  5
2E0D
330
2E0C
100
AcDbEntity
  8
0
100
AcDbBlockBegin
  2
*D39
 70
     1
 10
0.0
 20
0.0
 30
0.0
  3
*D39
  1

  0
LINE
  5
1692
330
2E0C
100
AcDbEntity
  8
SIZE
 62
     0
100
AcDbLine
 10
-25844.51823276502
 20
7685.702971374808
 30
0.0
 11
-25981.04465488371
 21
7685.702971374808
 31
0.0
  0
LINE
  5
1693
330
2E0C
100
AcDbEntity
  8
SIZE
 62
     0
100
AcDbLine
 10
-25844.51823276502
 20
7677.702971374808
 30
0.0
 11
-25981.04465488371
 21
7677.702971374808
 31
0.0
  0
LINE
  5
1694
330
2E0C
100
AcDbEntity
  8
SIZE
 62
     0
100
AcDbLine
 10
-25961.04465488371
 20
7697.702971374808
 30
0.0
 11
-25961.04465488371
 21
7709.702971374809
 31
0.0
  0
LINE
  5
1695
330
2E0C
100
AcDbEntity
  8
SIZE
 62
     0
100
AcDbLine
 10
-25961.04465488371
 20
7665.70297137481
 30
0.0
 11
-25961.04465488371
 21
7595.302971374808
 31
0.0
  0
INSERT
  5
1696
330
2E0C
100
AcDbEntity
  8
SIZE
 62
     0
100
AcDbBlockReference
  2
_DOTBLANK
 10
-25961.04465488371
 20
7685.702971374808
 30
0.0
 41
12.0
 42
12.0
 43
12.0
 50
270.0
  0
INSERT
  5
1697
330
2E0C
100
AcDbEntity
  8
SIZE
 62
     0
100
AcDbBlockReference
  2
_DOTBLANK
 10
-25961.04465488371
 20
7677.702971374808
 30
0.0
 41
12.0
 42
12.0
 43
12.0
 50
90.0
  0
INSERT
  5
1698
330
2E0C
100
AcDbEntity
  8
0
100
AcDbBlockReference
  2
*U40
 10
0.0
 20
0.0
 30
0.0
  0
POINT
  5
1699
330
2E0C
100
AcDbEntity
  8
DEFPOINTS
 62
     0
100
AcDbPoint
 10
-25824.51823276501
 20
7685.702971374808
 30
0.0
  0
POINT
  5
169A
330
2E0C
100
AcDbEntity
  8
DEFPOINTS
 62
     0
100
AcDbPoint
 10
-25824.51823276501
 20
7677.702971374808
 30
0.0
  0
POINT
  5
169B
330
2E0C
100
AcDbEntity
  8
DEFPOINTS
 62
     0
100
AcDbPoint
 10
-25961.04465488371
 20
7677.702971374808
 30
0.0
  0
ENDBLK
  5
169C
330
2E0C
100
AcDbEntity
  8
0
100
AcDbBlockEnd
  0
BLOCK
  5
2E0F
330
2E0E
100
AcDbEntity
  8
0
100
AcDbBlockBegin
  2
*U40
 70
     1
 10
0.0
 20
0.0
 30
0.0
  3
*U40
  1

  0
TEXT
  5
1F19
330
2E0E
100
AcDbEntity
  8
SIZE
 62
     0
100
AcDbText
 10
-25971.04465488371
 20
7605.302971374804
 30
0.0
 40
64.0
  1
8
 50
90.0
 41
0.9
100
AcDbText
  0
ENDBLK
  5
1F1B
330
2E0E
100
AcDbEntity
  8
0
100
AcDbBlockEnd
  0
BLOCK
  5
2E11
330
2E10
100
AcDbEntity
  8
0
100
AcDbBlockBegin
  2
*D41
 70
     1
 10
0.0
 20
0.0
 30
0.0
  3
*D41
  1

  0
LINE
  5
169F
330
2E10
100
AcDbEntity
  8
SIZE
 62
     0
100
AcDbLine
 10
-25512.51823276502
 20
7385.702971374808
 30
0.0
 11
-25362.37494828464
 21
7385.702971374808
 31
0.0
  0
LINE
  5
16A0
330
2E10
100
AcDbEntity
  8
SIZE
 62
     0
100
AcDbLine
 10
-25523.51823276501
 20
7373.702971374808
 30
0.0
 11
-25362.37494828464
 21
7373.702971374808
 31
0.0
  0
LINE
  5
16A1
330
2E10
100
AcDbEntity
  8
SIZE
 62
     0
100
AcDbLine
 10
-25382.37494828464
 20
7397.702971374808
 30
0.0
 11
-25382.37494828464
 21
7409.70297137481
 31
0.0
  0
LINE
  5
16A2
330
2E10
100
AcDbEntity
  8
SIZE
 62
     0
100
AcDbLine
 10
-25382.37494828464
 20
7361.702971374808
 30
0.0
 11
-25382.37494828464
 21
7244.674399946238
 31
0.0
  0
INSERT
  5
16A3
330
2E10
100
AcDbEntity
  8
SIZE
 62
     0
100
AcDbBlockReference
  2
_DOTBLANK
 10
-25382.37494828464
 20
7385.702971374808
 30
0.0
 41
12.0
 42
12.0
 43
12.0
 50
270.0
  0
INSERT
  5
16A4
330
2E10
100
AcDbEntity
  8
SIZE
 62
     0
100
AcDbBlockReference
  2
_DOTBLANK
 10
-25382.37494828464
 20
7373.702971374808
 30
0.0
 41
12.0
 42
12.0
 43
12.0
 50
90.0
  0
INSERT
  5
16A5
330
2E10
100
AcDbEntity
  8
0
100
AcDbBlockReference
  2
*U42
 10
0.0
 20
0.0
 30
0.0
  0
POINT
  5
16A6
330
2E10
100
AcDbEntity
  8
DEFPOINTS
 62
     0
100
AcDbPoint
 10
-25532.51823276502
 20
7385.702971374808
 30
0.0
  0
POINT
  5
16A7
330
2E10
100
AcDbEntity
  8
DEFPOINTS
 62
     0
100
AcDbPoint
 10
-25543.51823276502
 20
7373.702971374808
 30
0.0
  0
POINT
  5
16A8
330
2E10
100
AcDbEntity
  8
DEFPOINTS
 62
     0
100
AcDbPoint
 10
-25382.37494828464
 20
7373.702971374808
 30
0.0
  0
ENDBLK
  5
16A9
330
2E10
100
AcDbEntity
  8
0
100
AcDbBlockEnd
  0
BLOCK
  5
2E13
330
2E12
100
AcDbEntity
  8
0
100
AcDbBlockBegin
  2
*U42
 70
     1
 10
0.0
 20
0.0
 30
0.0
  3
*U42
  1

  0
TEXT
  5
1F1D
330
2E12
100
AcDbEntity
  8
SIZE
 62
     0
100
AcDbText
 10
-25392.37494828464
 20
7256.045828517662
 30
0.0
 40
64.0
  1
12
 50
90.0
 41
0.9
100
AcDbText
  0
ENDBLK
  5
1F1F
330
2E12
100
AcDbEntity
  8
0
100
AcDbBlockEnd
  0
BLOCK
  5
2E15
330
2E14
100
AcDbEntity
  8
0
100
AcDbBlockBegin
  2
*D43
 70
     1
 10
0.0
 20
0.0
 30
0.0
  3
*D43
  1

  0
LINE
  5
16AC
330
2E14
100
AcDbEntity
  8
SIZE
 62
     0
100
AcDbLine
 10
-25801.51823276501
 20
7365.702971374808
 30
0.0
 11
-25801.51823276501
 21
7217.685576144207
 31
0.0
  0
LINE
  5
16AD
330
2E14
100
AcDbEntity
  8
SIZE
 62
     0
100
AcDbLine
 10
-25532.51823276502
 20
7365.702971374808
 30
0.0
 11
-25532.51823276502
 21
7217.685576144207
 31
0.0
  0
LINE
  5
16AE
330
2E14
100
AcDbEntity
  8
SIZE
 62
     0
100
AcDbLine
 10
-25789.51823276502
 20
7237.685576144207
 30
0.0
 11
-25544.51823276501
 21
7237.685576144207
 31
0.0
  0
INSERT
  5
16AF
330
2E14
100
AcDbEntity
  8
SIZE
 62
     0
100
AcDbBlockReference
  2
_DOTBLANK
 10
-25801.51823276501
 20
7237.685576144207
 30
0.0
 41
12.0
 42
12.0
 43
12.0
 50
180.0
  0
INSERT
  5
16B0
330
2E14
100
AcDbEntity
  8
SIZE
 62
     0
100
AcDbBlockReference
  2
_DOTBLANK
 10
-25532.51823276502
 20
7237.685576144207
 30
0.0
 41
12.0
 42
12.0
 43
12.0
  0
INSERT
  5
16B1
330
2E14
100
AcDbEntity
  8
0
100
AcDbBlockReference
  2
*U44
 10
0.0
 20
0.0
 30
0.0
  0
POINT
  5
16B2
330
2E14
100
AcDbEntity
  8
DEFPOINTS
 62
     0
100
AcDbPoint
 10
-25801.51823276501
 20
7385.702971374808
 30
0.0
  0
POINT
  5
16B3
330
2E14
100
AcDbEntity
  8
DEFPOINTS
 62
     0
100
AcDbPoint
 10
-25532.51823276502
 20
7385.702971374808
 30
0.0
  0
POINT
  5
16B4
330
2E14
100
AcDbEntity
  8
DEFPOINTS
 62
     0
100
AcDbPoint
 10
-25532.51823276502
 20
7237.685576144207
 30
0.0
  0
ENDBLK
  5
16B5
330
2E14
100
AcDbEntity
  8
0
100
AcDbBlockEnd
  0
BLOCK
  5
2E17
330
2E16
100
AcDbEntity
  8
0
100
AcDbBlockBegin
  2
*U44
 70
     1
 10
0.0
 20
0.0
 30
0.0
  3
*U44
  1

  0
TEXT
  5
1F21
330
2E16
100
AcDbEntity
  8
SIZE
 62
     0
100
AcDbText
 10
-25739.70394705074
 20
7247.685576144205
 30
0.0
 40
64.0
  1
269
 41
0.9
100
AcDbText
  0
ENDBLK
  5
1F23
330
2E16
100
AcDbEntity
  8
0
100
AcDbBlockEnd
  0
BLOCK
  5
2E19
330
2E18
100
AcDbEntity
  8
0
100
AcDbBlockBegin
  2
*D45
 70
     1
 10
0.0
 20
0.0
 30
0.0
  3
*D45
  1

  0
LINE
  5
16B8
330
2E18
100
AcDbEntity
  8
SIZE
 62
     0
100
AcDbLine
 10
-25512.51823276502
 20
7385.702971374808
 30
0.0
 11
-25362.37494828464
 21
7385.702971374808
 31
0.0
  0
LINE
  5
16B9
330
2E18
100
AcDbEntity
  8
SIZE
 62
     0
100
AcDbLine
 10
-25489.51823276501
 20
7685.702971374808
 30
0.0
 11
-25362.37494828464
 21
7685.702971374808
 31
0.0
  0
LINE
  5
16BA
330
2E18
100
AcDbEntity
  8
SIZE
 62
     0
100
AcDbLine
 10
-25382.37494828464
 20
7397.702971374808
 30
0.0
 11
-25382.37494828464
 21
7673.702971374808
 31
0.0
  0
INSERT
  5
16BB
330
2E18
100
AcDbEntity
  8
SIZE
 62
     0
100
AcDbBlockReference
  2
_DOTBLANK
 10
-25382.37494828464
 20
7385.702971374808
 30
0.0
 41
12.0
 42
12.0
 43
12.0
 50
270.0
  0
INSERT
  5
16BC
330
2E18
100
AcDbEntity
  8
SIZE
 62
     0
100
AcDbBlockReference
  2
_DOTBLANK
 10
-25382.37494828464
 20
7685.702971374808
 30
0.0
 41
12.0
 42
12.0
 43
12.0
 50
90.0
  0
INSERT
  5
16BD
330
2E18
100
AcDbEntity
  8
0
100
AcDbBlockReference
  2
*U46
 10
0.0
 20
0.0
 30
0.0
  0
POINT
  5
16BE
330
2E18
100
AcDbEntity
  8
DEFPOINTS
 62
     0
100
AcDbPoint
 10
-25532.51823276502
 20
7385.702971374808
 30
0.0
  0
POINT
  5
16BF
330
2E18
100
AcDbEntity
  8
DEFPOINTS
 62
     0
100
AcDbPoint
 10
-25509.51823276502
 20
7685.702971374808
 30
0.0
  0
POINT
  5
16C0
330
2E18
100
AcDbEntity
  8
DEFPOINTS
 62
     0
100
AcDbPoint
 10
-25382.37494828464
 20
7685.702971374808
 30
0.0
  0
ENDBLK
  5
16C1
330
2E18
100
AcDbEntity
  8
0
100
AcDbBlockEnd
  0
BLOCK
  5
2E1B
330
2E1A
100
AcDbEntity
  8
0
100
AcDbBlockBegin
  2
*U46
 70
     1
 10
0.0
 20
0.0
 30
0.0
  3
*U46
  1

  0
TEXT
  5
1F25
330
2E1A
100
AcDbEntity
  8
SIZE
 62
     0
100
AcDbText
 10
-25392.37494828464
 20
7461.645828517662
 30
0.0
 40
64.0
  1
300
 50
90.0
 41
0.9
100
AcDbText
  0
ENDBLK
  5
1F27
330
2E1A
100
AcDbEntity
  8
0
100
AcDbBlockEnd
  0
BLOCK
  5
2E1D
330
2E1C
100
AcDbEntity
  8
0
100
AcDbBlockBegin
  2
*D47
 70
     1
 10
0.0
 20
0.0
 30
0.0
  3
*D47
  1

  0
LINE
  5
16C4
330
2E1C
100
AcDbEntity
  8
SIZE
 62
     0
100
AcDbLine
 10
-25807.01823276501
 20
7718.167454177002
 30
0.0
 11
-25807.01823276501
 21
7822.154659243358
 31
0.0
  0
LINE
  5
16C5
330
2E1C
100
AcDbEntity
  8
SIZE
 62
     0
100
AcDbLine
 10
-25527.01823276501
 20
7718.167454177002
 30
0.0
 11
-25527.01823276501
 21
7822.154659243358
 31
0.0
  0
LINE
  5
16C6
330
2E1C
100
AcDbEntity
  8
SIZE
 62
     0
100
AcDbLine
 10
-25795.01823276502
 20
7802.154659243358
 30
0.0
 11
-25539.01823276501
 21
7802.154659243358
 31
0.0
  0
INSERT
  5
16C7
330
2E1C
100
AcDbEntity
  8
SIZE
 62
     0
100
AcDbBlockReference
  2
_DOTBLANK
 10
-25807.01823276501
 20
7802.154659243358
 30
0.0
 41
12.0
 42
12.0
 43
12.0
 50
180.0
  0
INSERT
  5
16C8
330
2E1C
100
AcDbEntity
  8
SIZE
 62
     0
100
AcDbBlockReference
  2
_DOTBLANK
 10
-25527.01823276501
 20
7802.154659243358
 30
0.0
 41
12.0
 42
12.0
 43
12.0
  0
INSERT
  5
16C9
330
2E1C
100
AcDbEntity
  8
0
100
AcDbBlockReference
  2
*U48
 10
0.0
 20
0.0
 30
0.0
  0
POINT
  5
16CA
330
2E1C
100
AcDbEntity
  8
DEFPOINTS
 62
     0
100
AcDbPoint
 10
-25807.01823276501
 20
7698.167454177002
 30
0.0
  0
POINT
  5
16CB
330
2E1C
100
AcDbEntity
  8
DEFPOINTS
 62
     0
100
AcDbPoint
 10
-25527.01823276501
 20
7698.167454177002
 30
0.0
  0
POINT
  5
16CC
330
2E1C
100
AcDbEntity
  8
DEFPOINTS
 62
     0
100
AcDbPoint
 10
-25527.01823276501
 20
7802.154659243358
 30
0.0
  0
ENDBLK
  5
16CD
330
2E1C
100
AcDbEntity
  8
0
100
AcDbBlockEnd
  0
BLOCK
  5
2E1F
330
2E1E
100
AcDbEntity
  8
0
100
AcDbBlockBegin
  2
*U48
 70
     1
 10
0.0
 20
0.0
 30
0.0
  3
*U48
  1

  0
TEXT
  5
1F29
330
2E1E
100
AcDbEntity
  8
SIZE
 62
     0
100
AcDbText
 10
-25741.07537562216
 20
7812.154659243358
 30
0.0
 40
64.0
  1
280
 41
0.9
100
AcDbText
  0
ENDBLK
  5
1F2B
330
2E1E
100
AcDbEntity
  8
0
100
AcDbBlockEnd
  0
BLOCK
  5
2E21
330
2E20
100
AcDbEntity
  8
0
100
AcDbBlockBegin
  2
*D49
 70
     1
 10
0.0
 20
0.0
 30
0.0
  3
*D49
  1

  0
LINE
  5
16D0
330
2E20
100
AcDbEntity
  8
SIZE
 62
     0
100
AcDbLine
 10
-25824.51823276501
 20
7705.702971374808
 30
0.0
 11
-25824.51823276501
 21
7931.282433493766
 31
0.0
  0
LINE
  5
16D1
330
2E20
100
AcDbEntity
  8
SIZE
 62
     0
100
AcDbLine
 10
-25509.51823276502
 20
7705.702971374808
 30
0.0
 11
-25509.51823276502
 21
7931.282433493766
 31
0.0
  0
LINE
  5
16D2
330
2E20
100
AcDbEntity
  8
SIZE
 62
     0
100
AcDbLine
 10
-25812.51823276502
 20
7911.282433493766
 30
0.0
 11
-25521.51823276501
 21
7911.282433493766
 31
0.0
  0
INSERT
  5
16D3
330
2E20
100
AcDbEntity
  8
SIZE
 62
     0
100
AcDbBlockReference
  2
_DOTBLANK
 10
-25824.51823276501
 20
7911.282433493766
 30
0.0
 41
12.0
 42
12.0
 43
12.0
 50
180.0
  0
INSERT
  5
16D4
330
2E20
100
AcDbEntity
  8
SIZE
 62
     0
100
AcDbBlockReference
  2
_DOTBLANK
 10
-25509.51823276502
 20
7911.282433493766
 30
0.0
 41
12.0
 42
12.0
 43
12.0
  0
INSERT
  5
16D5
330
2E20
100
AcDbEntity
  8
0
100
AcDbBlockReference
  2
*U50
 10
0.0
 20
0.0
 30
0.0
  0
POINT
  5
16D6
330
2E20
100
AcDbEntity
  8
DEFPOINTS
 62
     0
100
AcDbPoint
 10
-25824.51823276501
 20
7685.702971374808
 30
0.0
  0
POINT
  5
16D7
330
2E20
100
AcDbEntity
  8
DEFPOINTS
 62
     0
100
AcDbPoint
 10
-25509.51823276502
 20
7685.702971374808
 30
0.0
  0
POINT
  5
16D8
330
2E20
100
AcDbEntity
  8
DEFPOINTS
 62
     0
100
AcDbPoint
 10
-25509.51823276502
 20
7911.282433493766
 30
0.0
  0
ENDBLK
  5
16D9
330
2E20
100
AcDbEntity
  8
0
100
AcDbBlockEnd
  0
BLOCK
  5
2E23
330
2E22
100
AcDbEntity
  8
0
100
AcDbBlockBegin
  2
*U50
 70
     1
 10
0.0
 20
0.0
 30
0.0
  3
*U50
  1

  0
TEXT
  5
1F2D
330
2E22
100
AcDbEntity
  8
SIZE
 62
     0
100
AcDbText
 10
-25735.58966133645
 20
7921.282433493766
 30
0.0
 40
64.0
  1
315
 41
0.9
100
AcDbText
  0
ENDBLK
  5
1F2F
330
2E22
100
AcDbEntity
  8
0
100
AcDbBlockEnd
  0
BLOCK
  5
2E25
330
2E24
100
AcDbEntity
  8
0
100
AcDbBlockBegin
  2
*D51
 70
     1
 10
0.0
 20
0.0
 30
0.0
  3
*D51
  1

  0
LINE
  5
1D83
330
2E24
100
AcDbEntity
  8
SIZE
 62
     0
100
AcDbLine
 10
-134.5
 20
-320.0
 30
0.0
 11
-134.5
 21
-468.0173952306001
 31
0.0
  0
LINE
  5
1D84
330
2E24
100
AcDbEntity
  8
SIZE
 62
     0
100
AcDbLine
 10
134.5
 20
-320.0
 30
0.0
 11
134.5
 21
-468.0173952306001
 31
0.0
  0
LINE
  5
1D85
330
2E24
100
AcDbEntity
  8
SIZE
 62
     0
100
AcDbLine
 10
-122.5
 20
-448.0173952306
 30
0.0
 11
122.5
 21
-448.0173952306
 31
0.0
  0
INSERT
  5
1D86
330
2E24
100
AcDbEntity
  8
SIZE
 62
     0
100
AcDbBlockReference
  2
_DOTBLANK
 10
-134.5
 20
-448.0173952306
 30
0.0
 41
12.0
 42
12.0
 43
12.0
 50
180.0
  0
INSERT
  5
1D87
330
2E24
100
AcDbEntity
  8
SIZE
 62
     0
100
AcDbBlockReference
  2
_DOTBLANK
 10
134.5
 20
-448.0173952306
 30
0.0
 41
12.0
 42
12.0
 43
12.0
  0
INSERT
  5
1D88
330
2E24
100
AcDbEntity
  8
0
100
AcDbBlockReference
  2
*U52
 10
0.0
 20
0.0
 30
0.0
  0
POINT
  5
1D89
330
2E24
100
AcDbEntity
  8
DEFPOINTS
 62
     0
100
AcDbPoint
 10
-134.5
 20
-300.0
 30
0.0
  0
POINT
  5
1D8A
330
2E24
100
AcDbEntity
  8
DEFPOINTS
 62
     0
100
AcDbPoint
 10
134.5
 20
-300.0
 30
0.0
  0
POINT
  5
1D8B
330
2E24
100
AcDbEntity
  8
DEFPOINTS
 62
     0
100
AcDbPoint
 10
134.5
 20
-448.0173952306
 30
0.0
  0
ENDBLK
  5
173D
330
2E24
100
AcDbEntity
  8
0
100
AcDbBlockEnd
  0
BLOCK
  5
2E27
330
2E26
100
AcDbEntity
  8
0
100
AcDbBlockBegin
  2
*U52
 70
     1
 10
0.0
 20
0.0
 30
0.0
  3
*U52
  1

  0
TEXT
  5
1F31
330
2E26
100
AcDbEntity
  8
SIZE
 62
     0
100
AcDbText
 10
-72.68571428571426
 20
-438.0173952306003
 30
0.0
 40
64.0
  1
269
 41
0.9
100
AcDbText
  0
ENDBLK
  5
1F33
330
2E26
100
AcDbEntity
  8
0
100
AcDbBlockEnd
  0
BLOCK
  5
2E29
330
2E28
100
AcDbEntity
  8
0
100
AcDbBlockBegin
  2
*D53
 70
     1
 10
0.0
 20
0.0
 30
0.0
  3
*D53
  1

  0
LINE
  5
1D8C
330
2E28
100
AcDbEntity
  8
SIZE
 62
     0
100
AcDbLine
 10
154.5
 20
-300.0
 30
0.0
 11
304.6432844803784
 21
-300.0
 31
0.0
  0
LINE
  5
1D8D
330
2E28
100
AcDbEntity
  8
SIZE
 62
     0
100
AcDbLine
 10
177.5
 20
-0.0000000000000057
 30
0.0
 11
304.6432844803785
 21
-0.0000000000000417
 31
0.0
  0
LINE
  5
1D8E
330
2E28
100
AcDbEntity
  8
SIZE
 62
     0
100
AcDbLine
 10
284.6432844803784
 20
-288.0
 30
0.0
 11
284.6432844803785
 21
-12.00000000000003
 31
0.0
  0
INSERT
  5
1D8F
330
2E28
100
AcDbEntity
  8
SIZE
 62
     0
100
AcDbBlockReference
  2
_DOTBLANK
 10
284.6432844803784
 20
-300.0
 30
0.0
 41
12.0
 42
12.0
 43
12.0
 50
270.0
  0
INSERT
  5
1D90
330
2E28
100
AcDbEntity
  8
SIZE
 62
     0
100
AcDbBlockReference
  2
_DOTBLANK
 10
284.6432844803785
 20
-0.000000000000036
 30
0.0
 41
12.0
 42
12.0
 43
12.0
 50
90.0
  0
INSERT
  5
1D91
330
2E28
100
AcDbEntity
  8
0
100
AcDbBlockReference
  2
*U54
 10
0.0
 20
0.0
 30
0.0
  0
POINT
  5
1D92
330
2E28
100
AcDbEntity
  8
DEFPOINTS
 62
     0
100
AcDbPoint
 10
134.5
 20
-300.0
 30
0.0
  0
POINT
  5
1D93
330
2E28
100
AcDbEntity
  8
DEFPOINTS
 62
     0
100
AcDbPoint
 10
157.5
 20
0.0
 30
0.0
  0
POINT
  5
1D94
330
2E28
100
AcDbEntity
  8
DEFPOINTS
 62
     0
100
AcDbPoint
 10
284.6432844803785
 20
-0.000000000000036
 30
0.0
  0
ENDBLK
  5
1749
330
2E28
100
AcDbEntity
  8
0
100
AcDbBlockEnd
  0
BLOCK
  5
2E2B
330
2E2A
100
AcDbEntity
  8
0
100
AcDbBlockBegin
  2
*U54
 70
     1
 10
0.0
 20
0.0
 30
0.0
  3
*U54
  1

  0
TEXT
  5
1F35
330
2E2A
100
AcDbEntity
  8
SIZE
 62
     0
100
AcDbText
 10
274.6432844803785
 20
-224.0571428571429
 30
0.0
 40
64.0
  1
300
 50
90.0
 41
0.9
100
AcDbText
  0
ENDBLK
  5
1F37
330
2E2A
100
AcDbEntity
  8
0
100
AcDbBlockEnd
  0
BLOCK
  5
2E2D
330
2E2C
100
AcDbEntity
  8
0
100
AcDbBlockBegin
  2
*D55
 70
     1
 10
0.0
 20
0.0
 30
0.0
  3
*D55
  1

  0
LINE
  5
1D95
330
2E2C
100
AcDbEntity
  8
SIZE
 62
     0
100
AcDbLine
 10
-140.0
 20
32.46448280219375
 30
0.0
 11
-140.0
 21
136.4516878685508
 31
0.0
  0
LINE
  5
1D96
330
2E2C
100
AcDbEntity
  8
SIZE
 62
     0
100
AcDbLine
 10
140.0
 20
32.46448280219375
 30
0.0
 11
140.0
 21
136.4516878685508
 31
0.0
  0
LINE
  5
1D97
330
2E2C
100
AcDbEntity
  8
SIZE
 62
     0
100
AcDbLine
 10
-128.0
 20
116.4516878685508
 30
0.0
 11
128.0
 21
116.4516878685508
 31
0.0
  0
INSERT
  5
1D98
330
2E2C
100
AcDbEntity
  8
SIZE
 62
     0
100
AcDbBlockReference
  2
_DOTBLANK
 10
-140.0
 20
116.4516878685508
 30
0.0
 41
12.0
 42
12.0
 43
12.0
 50
180.0
  0
INSERT
  5
1D99
330
2E2C
100
AcDbEntity
  8
SIZE
 62
     0
100
AcDbBlockReference
  2
_DOTBLANK
 10
140.0
 20
116.4516878685508
 30
0.0
 41
12.0
 42
12.0
 43
12.0
  0
INSERT
  5
1D9A
330
2E2C
100
AcDbEntity
  8
0
100
AcDbBlockReference
  2
*U56
 10
0.0
 20
0.0
 30
0.0
  0
POINT
  5
1D9B
330
2E2C
100
AcDbEntity
  8
DEFPOINTS
 62
     0
100
AcDbPoint
 10
-140.0
 20
12.46448280219374
 30
0.0
  0
POINT
  5
1D9C
330
2E2C
100
AcDbEntity
  8
DEFPOINTS
 62
     0
100
AcDbPoint
 10
140.0
 20
12.46448280219374
 30
0.0
  0
POINT
  5
1D9D
330
2E2C
100
AcDbEntity
  8
DEFPOINTS
 62
     0
100
AcDbPoint
 10
140.0
 20
116.4516878685508
 30
0.0
  0
ENDBLK
  5
1755
330
2E2C
100
AcDbEntity
  8
0
100
AcDbBlockEnd
  0
BLOCK
  5
2E2F
330
2E2E
100
AcDbEntity
  8
0
100
AcDbBlockBegin
  2
*U56
 70
     1
 10
0.0
 20
0.0
 30
0.0
  3
*U56
  1

  0
TEXT
  5
1F39
330
2E2E
100
AcDbEntity
  8
SIZE
 62
     0
100
AcDbText
 10
-74.05714285714283
 20
126.4516878685508
 30
0.0
 40
64.0
  1
280
 41
0.9
100
AcDbText
  0
ENDBLK
  5
1F3B
330
2E2E
100
AcDbEntity
  8
0
100
AcDbBlockEnd
  0
BLOCK
  5
2E31
330
2E30
100
AcDbEntity
  8
0
100
AcDbBlockBegin
  2
*D57
 70
     1
 10
0.0
 20
0.0
 30
0.0
  3
*D57
  1

  0
LINE
  5
1D9E
330
2E30
100
AcDbEntity
  8
SIZE
 62
     0
100
AcDbLine
 10
-157.5
 20
20.0
 30
0.0
 11
-157.5
 21
245.5794621189598
 31
0.0
  0
LINE
  5
1D9F
330
2E30
100
AcDbEntity
  8
SIZE
 62
     0
100
AcDbLine
 10
157.5
 20
20.0
 30
0.0
 11
157.5
 21
245.5794621189598
 31
0.0
  0
LINE
  5
1DA0
330
2E30
100
AcDbEntity
  8
SIZE
 62
     0
100
AcDbLine
 10
-145.5
 20
225.5794621189598
 30
0.0
 11
145.5
 21
225.5794621189598
 31
0.0
  0
INSERT
  5
1DA1
330
2E30
100
AcDbEntity
  8
SIZE
 62
     0
100
AcDbBlockReference
  2
_DOTBLANK
 10
-157.5
 20
225.5794621189598
 30
0.0
 41
12.0
 42
12.0
 43
12.0
 50
180.0
  0
INSERT
  5
1DA2
330
2E30
100
AcDbEntity
  8
SIZE
 62
     0
100
AcDbBlockReference
  2
_DOTBLANK
 10
157.5
 20
225.5794621189598
 30
0.0
 41
12.0
 42
12.0
 43
12.0
  0
INSERT
  5
1DA3
330
2E30
100
AcDbEntity
  8
0
100
AcDbBlockReference
  2
*U58
 10
0.0
 20
0.0
 30
0.0
  0
POINT
  5
1DA4
330
2E30
100
AcDbEntity
  8
DEFPOINTS
 62
     0
100
AcDbPoint
 10
-157.5
 20
0.0
 30
0.0
  0
POINT
  5
1DA5
330
2E30
100
AcDbEntity
  8
DEFPOINTS
 62
     0
100
AcDbPoint
 10
157.5
 20
0.0
 30
0.0
  0
POINT
  5
1DA6
330
2E30
100
AcDbEntity
  8
DEFPOINTS
 62
     0
100
AcDbPoint
 10
157.5
 20
225.5794621189598
 30
0.0
  0
ENDBLK
  5
1761
330
2E30
100
AcDbEntity
  8
0
100
AcDbBlockEnd
  0
BLOCK
  5
2E33
330
2E32
100
AcDbEntity
  8
0
100
AcDbBlockBegin
  2
*U58
 70
     1
 10
0.0
 20
0.0
 30
0.0
  3
*U58
  1

  0
TEXT
  5
1F3D
330
2E32
100
AcDbEntity
  8
SIZE
 62
     0
100
AcDbText
 10
-68.57142857142857
 20
235.5794621189599
 30
0.0
 40
64.0
  1
315
 41
0.9
100
AcDbText
  0
ENDBLK
  5
1F3F
330
2E32
100
AcDbEntity
  8
0
100
AcDbBlockEnd
  0
BLOCK
  5
2E35
330
2E34
100
AcDbEntity
  8
0
100
AcDbBlockBegin
  2
*D59
 70
     1
 10
0.0
 20
0.0
 30
0.0
  3
*D59
  1

  0
LINE
  5
1DA7
330
2E34
100
AcDbEntity
  8
SIZE
 62
     0
100
AcDbLine
 10
-177.5
 20
0.0000000000000057
 30
0.0
 11
-314.0264221186908
 21
0.0000000000000443
 31
0.0
  0
LINE
  5
1DA8
330
2E34
100
AcDbEntity
  8
SIZE
 62
     0
100
AcDbLine
 10
-177.5
 20
-7.999999999999993
 30
0.0
 11
-314.0264221186908
 21
-7.999999999999958
 31
0.0
  0
LINE
  5
1DA9
330
2E34
100
AcDbEntity
  8
SIZE
 62
     0
100
AcDbLine
 10
-294.0264221186908
 20
12.00000000000003
 30
0.0
 11
-294.0264221186908
 21
24.00000000000004
 31
0.0
  0
LINE
  5
1DAA
330
2E34
100
AcDbEntity
  8
SIZE
 62
     0
100
AcDbLine
 10
-294.0264221186908
 20
-19.99999999999996
 30
0.0
 11
-294.0264221186908
 21
-90.39999999999997
 31
0.0
  0
INSERT
  5
1DAB
330
2E34
100
AcDbEntity
  8
SIZE
 62
     0
100
AcDbBlockReference
  2
_DOTBLANK
 10
-294.0264221186908
 20
0.0000000000000387
 30
0.0
 41
12.0
 42
12.0
 43
12.0
 50
270.0
  0
INSERT
  5
1DAC
330
2E34
100
AcDbEntity
  8
SIZE
 62
     0
100
AcDbBlockReference
  2
_DOTBLANK
 10
-294.0264221186908
 20
-7.999999999999961
 30
0.0
 41
12.0
 42
12.0
 43
12.0
 50
90.0
  0
INSERT
  5
1DAD
330
2E34
100
AcDbEntity
  8
0
100
AcDbBlockReference
  2
*U60
 10
0.0
 20
0.0
 30
0.0
  0
POINT
  5
1DAE
330
2E34
100
AcDbEntity
  8
DEFPOINTS
 62
     0
100
AcDbPoint
 10
-157.5
 20
0.0
 30
0.0
  0
POINT
  5
1DAF
330
2E34
100
AcDbEntity
  8
DEFPOINTS
 62
     0
100
AcDbPoint
 10
-157.5
 20
-8.000000000000003
 30
0.0
  0
POINT
  5
1DB0
330
2E34
100
AcDbEntity
  8
DEFPOINTS
 62
     0
100
AcDbPoint
 10
-294.0264221186908
 20
-7.999999999999961
 30
0.0
  0
ENDBLK
  5
176D
330
2E34
100
AcDbEntity
  8
0
100
AcDbBlockEnd
  0
BLOCK
  5
2E37
330
2E36
100
AcDbEntity
  8
0
100
AcDbBlockBegin
  2
*U60
 70
     1
 10
0.0
 20
0.0
 30
0.0
  3
*U60
  1

  0
TEXT
  5
1F41
330
2E36
100
AcDbEntity
  8
SIZE
 62
     0
100
AcDbText
 10
-304.0264221186908
 20
-80.4
 30
0.0
 40
64.0
  1
8
 50
90.0
 41
0.9
100
AcDbText
  0
ENDBLK
  5
1F43
330
2E36
100
AcDbEntity
  8
0
100
AcDbBlockEnd
  0
BLOCK
  5
2E39
330
2E38
100
AcDbEntity
  8
0
100
AcDbBlockBegin
  2
*D61
 70
     1
 10
0.0
 20
0.0
 30
0.0
  3
*D61
  1

  0
LINE
  5
1DB1
330
2E38
100
AcDbEntity
  8
SIZE
 62
     0
100
AcDbLine
 10
154.5
 20
-300.0
 30
0.0
 11
304.6432844803785
 21
-300.0
 31
0.0
  0
LINE
  5
1DB2
330
2E38
100
AcDbEntity
  8
SIZE
 62
     0
100
AcDbLine
 10
143.5
 20
-312.0
 30
0.0
 11
304.6432844803785
 21
-312.0
 31
0.0
  0
LINE
  5
1DB3
330
2E38
100
AcDbEntity
  8
SIZE
 62
     0
100
AcDbLine
 10
284.6432844803785
 20
-288.0
 30
0.0
 11
284.6432844803785
 21
-276.0
 31
0.0
  0
LINE
  5
1DB4
330
2E38
100
AcDbEntity
  8
SIZE
 62
     0
100
AcDbLine
 10
284.6432844803785
 20
-324.0000000000001
 30
0.0
 11
284.6432844803784
 21
-438.2857142857143
 31
0.0
  0
INSERT
  5
1DB5
330
2E38
100
AcDbEntity
  8
SIZE
 62
     0
100
AcDbBlockReference
  2
_DOTBLANK
 10
284.6432844803785
 20
-300.0
 30
0.0
 41
12.0
 42
12.0
 43
12.0
 50
270.0
  0
INSERT
  5
1DB6
330
2E38
100
AcDbEntity
  8
SIZE
 62
     0
100
AcDbBlockReference
  2
_DOTBLANK
 10
284.6432844803785
 20
-312.0
 30
0.0
 41
12.0
 42
12.0
 43
12.0
 50
90.0
  0
INSERT
  5
1DB7
330
2E38
100
AcDbEntity
  8
0
100
AcDbBlockReference
  2
*U62
 10
0.0
 20
0.0
 30
0.0
  0
POINT
  5
1DB8
330
2E38
100
AcDbEntity
  8
DEFPOINTS
 62
     0
100
AcDbPoint
 10
134.5
 20
-300.0
 30
0.0
  0
POINT
  5
1DB9
330
2E38
100
AcDbEntity
  8
DEFPOINTS
 62
     0
100
AcDbPoint
 10
123.5
 20
-312.0
 30
0.0
  0
POINT
  5
1DBA
330
2E38
100
AcDbEntity
  8
DEFPOINTS
 62
     0
100
AcDbPoint
 10
284.6432844803785
 20
-312.0
 30
0.0
  0
ENDBLK
  5
177B
330
2E38
100
AcDbEntity
  8
0
100
AcDbBlockEnd
  0
BLOCK
  5
2E3B
330
2E3A
100
AcDbEntity
  8
0
100
AcDbBlockBegin
  2
*U62
 70
     1
 10
0.0
 20
0.0
 30
0.0
  3
*U62
  1

  0
TEXT
  5
1F45
330
2E3A
100
AcDbEntity
  8
SIZE
 62
     0
100
AcDbText
 10
274.6432844803785
 20
-428.2857142857142
 30
0.0
 40
64.0
  1
12
 50
90.0
 41
0.9
100
AcDbText
  0
ENDBLK
  5
1F47
330
2E3A
100
AcDbEntity
  8
0
100
AcDbBlockEnd
  0
BLOCK
  5
2E3D
330
2E3C
100
AcDbEntity
  8
0
100
AcDbBlockBegin
  2
*U63
 70
     1
 10
0.0
 20
0.0
 30
0.0
  3
*U63
  1

  0
ENDBLK
  5
1D57
330
2E3C
100
AcDbEntity
  8
0
100
AcDbBlockEnd
  0
BLOCK
  5
2E3F
330
2E3E
100
AcDbEntity
  8
0
100
AcDbBlockBegin
  2
*U64
 70
     1
 10
0.0
 20
0.0
 30
0.0
  3
*U64
  1

  0
INSERT
  5
2088
330
2E3E
100
AcDbEntity
  8
NOTE
100
AcDbBlockReference
  2
_OPEN30
 10
-140.0
 20
0.0
 30
0.0
 41
12.0
 42
12.0
 43
12.0
 50
312.6090116116894
  0
POLYLINE
  5
2089
330
2E3E
100
AcDbEntity
  8
NOTE
100
AcDb2dPolyline
 66
     1
 10
0.0
 20
0.0
 30
0.0
  0
VERTEX
  5
2124
330
2089
100
AcDbEntity
  8
NOTE
100
AcDbVertex
100
AcDb2dVertex
 10
-148.1239008361894
 20
8.831887408915472
 30
0.0
  0
VERTEX
  5
2125
330
2089
100
AcDbEntity
  8
NOTE
100
AcDbVertex
100
AcDb2dVertex
 10
-227.8693999922543
 20
95.52709505801338
 30
0.0
  0
VERTEX
  5
2126
330
2089
100
AcDbEntity
  8
NOTE
100
AcDbVertex
100
AcDb2dVertex
 10
-773.7093999922541
 20
95.52709505801338
 30
0.0
  0
SEQEND
  5
2127
330
2089
100
AcDbEntity
  8
NOTE
  0
ENDBLK
  5
208A
330
2E3E
100
AcDbEntity
  8
0
100
AcDbBlockEnd
  0
BLOCK
  5
2E41
330
2E40
100
AcDbEntity
  8
0
100
AcDbBlockBegin
  2
*U65
 70
     1
 10
0.0
 20
0.0
 30
0.0
  3
*U65
  1

  0
TEXT
  5
208D
330
2E40
100
AcDbEntity
  8
NOTE
100
AcDbText
 10
-773.7093999922541
 20
113.5270950580134
 30
0.0
 40
64.0
  1
4×φ10取付穴
 41
0.9
100
AcDbText
  0
ENDBLK
  5
208E
330
2E40
100
AcDbEntity
  8
0
100
AcDbBlockEnd
  0
BLOCK
  5
2E43
330
2E42
100
AcDbEntity
  8
0
100
AcDbBlockBegin
  2
*U66
 70
     1
 10
0.0
 20
0.0
 30
0.0
  3
*U66
  1

  0
INSERT
  5
25A0
330
2E42
100
AcDbEntity
  8
NOTE
100
AcDbBlockReference
  2
_OPEN30
 10
-450.0
 20
0.0
 30
0.0
 41
12.0
 42
12.0
 43
12.0
 50
312.6090116116889
  0
POLYLINE
  5
25A1
330
2E42
100
AcDbEntity
  8
NOTE
100
AcDb2dPolyline
 66
     1
 10
0.0
 20
0.0
 30
0.0
  0
VERTEX
  5
25A2
330
25A1
100
AcDbEntity
  8
NOTE
100
AcDbVertex
100
AcDb2dVertex
 10
-458.1239008361894
 20
8.831887408915555
 30
0.0
  0
VERTEX
  5
25A3
330
25A1
100
AcDbEntity
  8
NOTE
100
AcDbVertex
100
AcDb2dVertex
 10
-537.8693999922525
 20
95.52709505801338
 30
0.0
  0
VERTEX
  5
25A4
330
25A1
100
AcDbEntity
  8
NOTE
100
AcDbVertex
100
AcDb2dVertex
 10
-1127.595114277967
 20
95.52709505801338
 30
0.0
  0
SEQEND
  5
25A5
330
25A1
100
AcDbEntity
  8
NOTE
  0
ENDBLK
  5
25A6
330
2E42
100
AcDbEntity
  8
0
100
AcDbBlockEnd
  0
BLOCK
  5
2E45
330
2E44
100
AcDbEntity
  8
0
100
AcDbBlockBegin
  2
*U67
 70
     1
 10
0.0
 20
0.0
 30
0.0
  3
*U67
  1

  0
TEXT
  5
25A9
330
2E44
100
AcDbEntity
  8
NOTE
100
AcDbText
 10
-1127.595114277967
 20
113.5270950580134
 30
0.0
 40
64.0
  1
16×φ15取付穴
 41
0.9
100
AcDbText
  0
ENDBLK
  5
25AA
330
2E44
100
AcDbEntity
  8
0
100
AcDbBlockEnd
  0
BLOCK
  5
2E47
330
2E46
100
AcDbEntity
  8
0
100
AcDbBlockBegin
  2
*X68
 70
     1
 10
0.0
 20
0.0
 30
0.0
  3
*X68
  1

  0
LINE
  5
25AD
330
2E46
100
AcDbEntity
  8
0
 62
     0
100
AcDbLine
 10
410.5804404953742
 20
-769.0000000000017
 30
0.0
 11
411.4999999999945
 21
-768.3869618956663
 31
0.0
  0
LINE
  5
25AE
330
2E46
100
AcDbEntity
  8
0
 62
     0
100
AcDbLine
 10
406.0804792014896
 20
-769.000000000001
 30
0.0
 11
411.4999999999908
 21
-765.3869953602525
 31
0.0
  0
LINE
  5
25AF
330
2E46
100
AcDbEntity
  8
0
 62
     0
100
AcDbLine
 10
401.5805179076031
 20
-769.0000000000017
 30
0.0
 11
411.4999999999945
 21
-762.3870288248363
 31
0.0
  0
LINE
  5
25B0
330
2E46
100
AcDbEntity
  8
0
 62
     0
100
AcDbLine
 10
397.0805566137187
 20
-769.000000000001
 30
0.0
 11
411.4999999999927
 21
-759.3870622894201
 31
0.0
  0
LINE
  5
25B1
330
2E46
100
AcDbEntity
  8
0
 62
     0
100
AcDbLine
 10
392.5805953198324
 20
-769.0000000000017
 30
0.0
 11
411.4999999999945
 21
-756.3870957540038
 31
0.0
  0
LINE
  5
25B2
330
2E46
100
AcDbEntity
  8
0
 62
     0
100
AcDbLine
 10
388.080634025946
 20
-769.0000000000017
 30
0.0
 11
411.4999999999927
 21
-753.3871292185864
 31
0.0
  0
LINE
  5
25B3
330
2E46
100
AcDbEntity
  8
0
 62
     0
100
AcDbLine
 10
383.5806727320614
 20
-769.0000000000017
 30
0.0
 11
411.4999999999945
 21
-750.3871626831712
 31
0.0
  0
LINE
  5
25B4
330
2E46
100
AcDbEntity
  8
0
 62
     0
100
AcDbLine
 10
379.0807114381769
 20
-769.0000000000017
 30
0.0
 11
411.4999999999927
 21
-747.3871961477542
 31
0.0
  0
LINE
  5
25B5
330
2E46
100
AcDbEntity
  8
0
 62
     0
100
AcDbLine
 10
374.5807501442905
 20
-769.000000000001
 30
0.0
 11
411.4999999999927
 21
-744.3872296123378
 31
0.0
  0
LINE
  5
25B6
330
2E46
100
AcDbEntity
  8
0
 62
     0
100
AcDbLine
 10
370.0807888504059
 20
-769.0000000000017
 30
0.0
 11
411.4999999999945
 21
-741.3872630769217
 31
0.0
  0
LINE
  5
25B7
330
2E46
100
AcDbEntity
  8
0
 62
     0
100
AcDbLine
 10
365.5808275565196
 20
-769.000000000001
 30
0.0
 11
411.4999999999927
 21
-738.3872965415057
 31
0.0
  0
LINE
  5
25B8
330
2E46
100
AcDbEntity
  8
0
 62
     0
100
AcDbLine
 10
361.080866262635
 20
-769.0000000000017
 30
0.0
 11
411.4999999999945
 21
-735.3873300060894
 31
0.0
  0
LINE
  5
25B9
330
2E46
100
AcDbEntity
  8
0
 62
     0
100
AcDbLine
 10
356.5809049687488
 20
-769.000000000001
 30
0.0
 11
411.4999999999927
 21
-732.3873634706732
 31
0.0
  0
LINE
  5
25BA
330
2E46
100
AcDbEntity
  8
0
 62
     0
100
AcDbLine
 10
352.0809436748622
 20
-769.0000000000017
 30
0.0
 11
411.4999999999927
 21
-729.3873969352571
 31
0.0
  0
LINE
  5
25BB
330
2E46
100
AcDbEntity
  8
0
 62
     0
100
AcDbLine
 10
347.5809823809777
 20
-769.000000000001
 30
0.0
 11
411.4999999999927
 21
-726.387430399841
 31
0.0
  0
LINE
  5
25BC
330
2E46
100
AcDbEntity
  8
0
 62
     0
100
AcDbLine
 10
343.0810210870914
 20
-769.0000000000017
 30
0.0
 11
411.4999999999927
 21
-723.3874638644246
 31
0.0
  0
LINE
  5
25BD
330
2E46
100
AcDbEntity
  8
0
 62
     0
100
AcDbLine
 10
338.5810597932068
 20
-769.0000000000027
 30
0.0
 11
411.4999999999927
 21
-720.3874973290082
 31
0.0
  0
LINE
  5
25BE
330
2E46
100
AcDbEntity
  8
0
 62
     0
100
AcDbLine
 10
334.0810984993205
 20
-769.0000000000017
 30
0.0
 11
411.4999999999927
 21
-717.387530793594
 31
0.0
  0
LINE
  5
25BF
330
2E46
100
AcDbEntity
  8
0
 62
     0
100
AcDbLine
 10
329.5811372054341
 20
-769.0000000000017
 30
0.0
 11
411.4999999999927
 21
-714.387564258175
 31
0.0
  0
LINE
  5
25C0
330
2E46
100
AcDbEntity
  8
0
 62
     0
100
AcDbLine
 10
325.0811759115495
 20
-769.0000000000017
 30
0.0
 11
411.4999999999945
 21
-711.3875977227599
 31
0.0
  0
LINE
  5
25C1
330
2E46
100
AcDbEntity
  8
0
 62
     0
100
AcDbLine
 10
320.5812146176632
 20
-769.0000000000017
 30
0.0
 11
411.4999999999927
 21
-708.3876311873425
 31
0.0
  0
LINE
  5
25C2
330
2E46
100
AcDbEntity
  8
0
 62
     0
100
AcDbLine
 10
316.0812533237804
 20
-769.000000000001
 30
0.0
 11
411.4999999999945
 21
-705.3876646519265
 31
0.0
  0
LINE
  5
25C3
330
2E46
100
AcDbEntity
  8
0
 62
     0
100
AcDbLine
 10
311.581292029894
 20
-769.0000000000017
 30
0.0
 11
411.4999999999927
 21
-702.3876981165122
 31
0.0
  0
LINE
  5
25C4
330
2E46
100
AcDbEntity
  8
0
 62
     0
100
AcDbLine
 10
307.0813307360095
 20
-769.000000000001
 30
0.0
 11
411.4999999999945
 21
-699.3877315810959
 31
0.0
  0
LINE
  5
25C5
330
2E46
100
AcDbEntity
  8
0
 62
     0
100
AcDbLine
 10
302.5813694421231
 20
-769.0000000000017
 30
0.0
 11
411.4999999999927
 21
-696.3877650456793
 31
0.0
  0
LINE
  5
25C6
330
2E46
100
AcDbEntity
  8
0
 62
     0
100
AcDbLine
 10
298.0814081482348
 20
-769.0000000000027
 30
0.0
 11
411.4999999999927
 21
-693.3877985102635
 31
0.0
  0
LINE
  5
25C7
330
2E46
100
AcDbEntity
  8
0
 62
     0
100
AcDbLine
 10
293.5814468543522
 20
-769.0000000000017
 30
0.0
 11
411.4999999999927
 21
-690.3878319748472
 31
0.0
  0
LINE
  5
25C8
330
2E46
100
AcDbEntity
  8
0
 62
     0
100
AcDbLine
 10
289.081485560464
 20
-769.0000000000027
 30
0.0
 11
411.4999999999945
 21
-687.3878654394293
 31
0.0
  0
LINE
  5
25C9
330
2E46
100
AcDbEntity
  8
0
 62
     0
100
AcDbLine
 10
284.5815242665813
 20
-769.0000000000017
 30
0.0
 11
411.4999999999945
 21
-684.3878989040149
 31
0.0
  0
LINE
  5
25CA
330
2E46
100
AcDbEntity
  8
0
 62
     0
100
AcDbLine
 10
280.0815629726931
 20
-769.0000000000027
 30
0.0
 11
411.4999999999945
 21
-681.3879323685987
 31
0.0
  0
LINE
  5
25CB
330
2E46
100
AcDbEntity
  8
0
 62
     0
100
AcDbLine
 10
275.5816016788103
 20
-769.0000000000017
 30
0.0
 11
411.4999999999945
 21
-678.3879658331825
 31
0.0
  0
LINE
  5
25CC
330
2E46
100
AcDbEntity
  8
0
 62
     0
100
AcDbLine
 10
271.0816403849221
 20
-769.0000000000017
 30
0.0
 11
411.4999999999927
 21
-675.3879992977655
 31
0.0
  0
LINE
  5
25CD
330
2E46
100
AcDbEntity
  8
0
 62
     0
100
AcDbLine
 10
266.5816790910376
 20
-769.0000000000017
 30
0.0
 11
411.4999999999927
 21
-672.3880327623501
 31
0.0
  0
LINE
  5
25CE
330
2E46
100
AcDbEntity
  8
0
 62
     0
100
AcDbLine
 10
262.0817177971531
 20
-769.0
 30
0.0
 11
411.4999999999927
 21
-669.388066226933
 31
0.0
  0
LINE
  5
25CF
330
2E46
100
AcDbEntity
  8
0
 62
     0
100
AcDbLine
 10
257.5817565032667
 20
-769.000000000001
 30
0.0
 11
411.4999999999927
 21
-666.3880996915167
 31
0.0
  0
LINE
  5
25D0
330
2E46
100
AcDbEntity
  8
0
 62
     0
100
AcDbLine
 10
253.0817952093821
 20
-769.0000000000017
 30
0.0
 11
411.4999999999927
 21
-663.3881331561005
 31
0.0
  0
LINE
  5
25D1
330
2E46
100
AcDbEntity
  8
0
 62
     0
100
AcDbLine
 10
248.5818339154957
 20
-769.000000000001
 30
0.0
 11
411.4999999999945
 21
-660.3881666206842
 31
0.0
  0
LINE
  5
25D2
330
2E46
100
AcDbEntity
  8
0
 62
     0
100
AcDbLine
 10
244.0818726216094
 20
-769.0000000000017
 30
0.0
 11
411.4999999999927
 21
-657.388200085268
 31
0.0
  0
LINE
  5
25D3
330
2E46
100
AcDbEntity
  8
0
 62
     0
100
AcDbLine
 10
239.5819113277248
 20
-769.0000000000027
 30
0.0
 11
411.4999999999945
 21
-654.3882335498517
 31
0.0
  0
LINE
  5
25D4
330
2E46
100
AcDbEntity
  8
0
 62
     0
100
AcDbLine
 10
235.0819500338384
 20
-769.0000000000017
 30
0.0
 11
411.4999999999927
 21
-651.3882670144356
 31
0.0
  0
LINE
  5
25D5
330
2E46
100
AcDbEntity
  8
0
 62
     0
100
AcDbLine
 10
230.5819887399539
 20
-769.0000000000027
 30
0.0
 11
411.4999999999945
 21
-648.3883004790194
 31
0.0
  0
LINE
  5
25D6
330
2E46
100
AcDbEntity
  8
0
 62
     0
100
AcDbLine
 10
226.0820274460675
 20
-769.0000000000017
 30
0.0
 11
411.4999999999927
 21
-645.3883339436033
 31
0.0
  0
LINE
  5
25D7
330
2E46
100
AcDbEntity
  8
0
 62
     0
100
AcDbLine
 10
221.5820661521811
 20
-769.0000000000027
 30
0.0
 11
411.4999999999927
 21
-642.3883674081872
 31
0.0
  0
LINE
  5
25D8
330
2E46
100
AcDbEntity
  8
0
 62
     0
100
AcDbLine
 10
217.0821048582966
 20
-769.0000000000017
 30
0.0
 11
411.4999999999927
 21
-639.3884008727727
 31
0.0
  0
LINE
  5
25D9
330
2E46
100
AcDbEntity
  8
0
 62
     0
100
AcDbLine
 10
212.5821435644101
 20
-769.0000000000017
 30
0.0
 11
411.4999999999927
 21
-636.3884343373556
 31
0.0
  0
LINE
  5
25DA
330
2E46
100
AcDbEntity
  8
0
 62
     0
100
AcDbLine
 10
208.0821822705257
 20
-769.0000000000017
 30
0.0
 11
411.4999999999945
 21
-633.3884678019385
 31
0.0
  0
LINE
  5
25DB
330
2E46
100
AcDbEntity
  8
0
 62
     0
100
AcDbLine
 10
203.5822209766411
 20
-769.0
 30
0.0
 11
411.4999999999945
 21
-630.3885012665212
 31
0.0
  0
LINE
  5
25DC
330
2E46
100
AcDbEntity
  8
0
 62
     0
100
AcDbLine
 10
199.0822596827547
 20
-769.000000000001
 30
0.0
 11
411.4999999999945
 21
-627.388534731105
 31
0.0
  0
LINE
  5
25DD
330
2E46
100
AcDbEntity
  8
0
 62
     0
100
AcDbLine
 10
194.5822983888702
 20
-769.0000000000017
 30
0.0
 11
411.4999999999945
 21
-624.3885681956887
 31
0.0
  0
LINE
  5
25DE
330
2E46
100
AcDbEntity
  8
0
 62
     0
100
AcDbLine
 10
190.082337094982
 20
-769.000000000001
 30
0.0
 11
411.4999999999927
 21
-621.3886016602745
 31
0.0
  0
LINE
  5
25DF
330
2E46
100
AcDbEntity
  8
0
 62
     0
100
AcDbLine
 10
185.5823758010992
 20
-769.0000000000017
 30
0.0
 11
411.4999999999945
 21
-618.3886351248584
 31
0.0
  0
LINE
  5
25E0
330
2E46
100
AcDbEntity
  8
0
 62
     0
100
AcDbLine
 10
181.082414507211
 20
-769.000000000001
 30
0.0
 11
411.4999999999927
 21
-615.3886685894422
 31
0.0
  0
LINE
  5
25E1
330
2E46
100
AcDbEntity
  8
0
 62
     0
100
AcDbLine
 10
176.5824532133283
 20
-769.0000000000017
 30
0.0
 11
411.4999999999927
 21
-612.388702054026
 31
0.0
  0
LINE
  5
25E2
330
2E46
100
AcDbEntity
  8
0
 62
     0
100
AcDbLine
 10
172.0824919194401
 20
-769.0000000000027
 30
0.0
 11
411.4999999999927
 21
-609.3887355186096
 31
0.0
  0
LINE
  5
25E3
330
2E46
100
AcDbEntity
  8
0
 62
     0
100
AcDbLine
 10
167.5825306255556
 20
-769.0000000000017
 30
0.0
 11
411.4999999999927
 21
-606.3887689831934
 31
0.0
  0
LINE
  5
25E4
330
2E46
100
AcDbEntity
  8
0
 62
     0
100
AcDbLine
 10
163.0825693316692
 20
-769.0000000000027
 30
0.0
 11
411.4999999999945
 21
-603.3888024477772
 31
0.0
  0
LINE
  5
25E5
330
2E46
100
AcDbEntity
  8
0
 62
     0
100
AcDbLine
 10
158.5826080377828
 20
-769.0000000000035
 30
0.0
 11
411.4999999999927
 21
-600.3888359123609
 31
0.0
  0
LINE
  5
25E6
330
2E46
100
AcDbEntity
  8
0
 62
     0
100
AcDbLine
 10
154.0826467438981
 20
-769.0000000000017
 30
0.0
 11
411.4999999999945
 21
-597.3888693769439
 31
0.0
  0
LINE
  5
25E7
330
2E46
100
AcDbEntity
  8
0
 62
     0
100
AcDbLine
 10
149.5826854500137
 20
-769.0000000000017
 30
0.0
 11
411.4999999999927
 21
-594.3889028415287
 31
0.0
  0
LINE
  5
25E8
330
2E46
100
AcDbEntity
  8
0
 62
     0
100
AcDbLine
 10
145.0827241561292
 20
-769.0
 30
0.0
 11
411.4999999999945
 21
-591.3889363061116
 31
0.0
  0
LINE
  5
25E9
330
2E46
100
AcDbEntity
  8
0
 62
     0
100
AcDbLine
 10
140.5827628622428
 20
-769.000000000001
 30
0.0
 11
411.4999999999927
 21
-588.3889697706952
 31
0.0
  0
LINE
  5
25EA
330
2E46
100
AcDbEntity
  8
0
 62
     0
100
AcDbLine
 10
136.0828015683564
 20
-769.0
 30
0.0
 11
411.4999999999945
 21
-585.3890032352792
 31
0.0
  0
LINE
  5
25EB
330
2E46
100
AcDbEntity
  8
0
 62
     0
100
AcDbLine
 10
131.5828402744718
 20
-769.000000000001
 30
0.0
 11
411.4999999999927
 21
-582.389036699863
 31
0.0
  0
LINE
  5
25EC
330
2E46
100
AcDbEntity
  8
0
 62
     0
100
AcDbLine
 10
127.0828789805837
 20
-769.0000000000017
 30
0.0
 11
411.4999999999945
 21
-579.3890701644467
 31
0.0
  0
LINE
  5
25ED
330
2E46
100
AcDbEntity
  8
0
 62
     0
100
AcDbLine
 10
122.5829176867009
 20
-769.000000000001
 30
0.0
 11
411.4999999999945
 21
-576.3891036290305
 31
0.0
  0
LINE
  5
25EE
330
2E46
100
AcDbEntity
  8
0
 62
     0
100
AcDbLine
 10
118.0829563928128
 20
-769.0000000000017
 30
0.0
 11
411.4999999999945
 21
-573.3891370936141
 31
0.0
  0
LINE
  5
25EF
330
2E46
100
AcDbEntity
  8
0
 62
     0
100
AcDbLine
 10
113.5829950989282
 20
-769.000000000001
 30
0.0
 11
411.4999999999927
 21
-570.3891705581979
 31
0.0
  0
LINE
  5
25F0
330
2E46
100
AcDbEntity
  8
0
 62
     0
100
AcDbLine
 10
109.0830338050418
 20
-769.0000000000017
 30
0.0
 11
411.4999999999945
 21
-567.3892040227817
 31
0.0
  0
LINE
  5
25F1
330
2E46
100
AcDbEntity
  8
0
 62
     0
100
AcDbLine
 10
104.5830725111573
 20
-769.0000000000027
 30
0.0
 11
411.4999999999927
 21
-564.3892374873656
 31
0.0
  0
LINE
  5
25F2
330
2E46
100
AcDbEntity
  8
0
 62
     0
100
AcDbLine
 10
100.0831112172709
 20
-769.0000000000017
 30
0.0
 11
411.4999999999945
 21
-561.3892709519496
 31
0.0
  0
LINE
  5
25F3
330
2E46
100
AcDbEntity
  8
0
 62
     0
100
AcDbLine
 10
95.58314992338635
 20
-769.0000000000017
 30
0.0
 11
411.4999999999945
 21
-558.3893044165323
 31
0.0
  0
LINE
  5
25F4
330
2E46
100
AcDbEntity
  8
0
 62
     0
100
AcDbLine
 10
91.08318862950183
 20
-769.0000000000017
 30
0.0
 11
411.4999999999945
 21
-555.3893378811172
 31
0.0
  0
LINE
  5
25F5
330
2E46
100
AcDbEntity
  8
0
 62
     0
100
AcDbLine
 10
86.58322733561545
 20
-769.0000000000017
 30
0.0
 11
411.4999999999945
 21
-552.3893713457
 31
0.0
  0
LINE
  5
25F6
330
2E46
100
AcDbEntity
  8
0
 62
     0
100
AcDbLine
 10
82.08326604172906
 20
-769.0000000000017
 30
0.0
 11
411.4999999999927
 21
-549.3894048102847
 31
0.0
  0
LINE
  5
25F7
330
2E46
100
AcDbEntity
  8
0
 62
     0
100
AcDbLine
 10
77.58330474784449
 20
-769.0000000000017
 30
0.0
 11
411.4999999999945
 21
-546.3894382748677
 31
0.0
  0
LINE
  5
25F8
330
2E46
100
AcDbEntity
  8
0
 62
     0
100
AcDbLine
 10
73.08334345395817
 20
-769.000000000001
 30
0.0
 11
411.4999999999927
 21
-543.3894717394532
 31
0.0
  0
LINE
  5
25F9
330
2E46
100
AcDbEntity
  8
0
 62
     0
100
AcDbLine
 10
68.58338216007361
 20
-769.0000000000017
 30
0.0
 11
411.4999999999945
 21
-540.389505204037
 31
0.0
  0
LINE
  5
25FA
330
2E46
100
AcDbEntity
  8
0
 62
     0
100
AcDbLine
 10
64.08342086618723
 20
-769.000000000001
 30
0.0
 11
411.4999999999945
 21
-537.389538668619
 31
0.0
  0
LINE
  5
25FB
330
2E46
100
AcDbEntity
  8
0
 62
     0
100
AcDbLine
 10
59.58345957230085
 20
-769.0000000000017
 30
0.0
 11
411.4999999999927
 21
-534.3895721332046
 31
0.0
  0
LINE
  5
25FC
330
2E46
100
AcDbEntity
  8
0
 62
     0
100
AcDbLine
 10
55.0834982784163
 20
-769.000000000001
 30
0.0
 11
411.4999999999945
 21
-531.3896055977866
 31
0.0
  0
LINE
  5
25FD
330
2E46
100
AcDbEntity
  8
0
 62
     0
100
AcDbLine
 10
50.58353698452993
 20
-769.0000000000017
 30
0.0
 11
411.4999999999927
 21
-528.3896390623722
 31
0.0
  0
LINE
  5
25FE
330
2E46
100
AcDbEntity
  8
0
 62
     0
100
AcDbLine
 10
46.08357569064536
 20
-769.0000000000027
 30
0.0
 11
411.4999999999945
 21
-525.389672526956
 31
0.0
  0
LINE
  5
25FF
330
2E46
100
AcDbEntity
  8
0
 62
     0
100
AcDbLine
 10
41.583614396759
 20
-769.0000000000017
 30
0.0
 11
411.4999999999945
 21
-522.3897059915397
 31
0.0
  0
LINE
  5
2600
330
2E46
100
AcDbEntity
  8
0
 62
     0
100
AcDbLine
 10
37.08365310287263
 20
-769.0000000000027
 30
0.0
 11
411.4999999999927
 21
-519.3897394561234
 31
0.0
  0
LINE
  5
2601
330
2E46
100
AcDbEntity
  8
0
 62
     0
100
AcDbLine
 10
32.58369180898808
 20
-769.0000000000017
 30
0.0
 11
411.4999999999945
 21
-516.3897729207072
 31
0.0
  0
LINE
  5
2602
330
2E46
100
AcDbEntity
  8
0
 62
     0
100
AcDbLine
 10
28.08373051510171
 20
-769.0000000000017
 30
0.0
 11
411.4999999999927
 21
-513.3898063852901
 31
0.0
  0
LINE
  5
2603
330
2E46
100
AcDbEntity
  8
0
 62
     0
100
AcDbLine
 10
23.58376922121897
 20
-769.0000000000017
 30
0.0
 11
411.4999999999945
 21
-510.3898398498748
 31
0.0
  0
LINE
  5
2604
330
2E46
100
AcDbEntity
  8
0
 62
     0
100
AcDbLine
 10
19.0838079273326
 20
-769.0000000000017
 30
0.0
 11
411.4999999999927
 21
-507.3898733144576
 31
0.0
  0
LINE
  5
2605
330
2E46
100
AcDbEntity
  8
0
 62
     0
100
AcDbLine
 10
14.58384663344804
 20
-769.000000000001
 30
0.0
 11
411.4999999999945
 21
-504.3899067790416
 31
0.0
  0
LINE
  5
2606
330
2E46
100
AcDbEntity
  8
0
 62
     0
100
AcDbLine
 10
10.08388533956167
 20
-769.0000000000017
 30
0.0
 11
411.4999999999945
 21
-501.3899402436254
 31
0.0
  0
LINE
  5
2607
330
2E46
100
AcDbEntity
  8
0
 62
     0
100
AcDbLine
 10
5.583924045675303
 20
-769.000000000001
 30
0.0
 11
411.4999999999927
 21
-498.3899737082089
 31
0.0
  0
LINE
  5
2608
330
2E46
100
AcDbEntity
  8
0
 62
     0
100
AcDbLine
 10
1.083962751790749
 20
-769.0000000000017
 30
0.0
 11
411.4999999999945
 21
-495.390007172793
 31
0.0
  0
LINE
  5
2609
330
2E46
100
AcDbEntity
  8
0
 62
     0
100
AcDbLine
 10
-3.41599854209562
 20
-769.000000000001
 30
0.0
 11
411.4999999999927
 21
-492.3900406373768
 31
0.0
  0
LINE
  5
260A
330
2E46
100
AcDbEntity
  8
0
 62
     0
100
AcDbLine
 10
-7.915959835980174
 20
-769.0000000000017
 30
0.0
 11
411.4999999999945
 21
-489.3900741019605
 31
0.0
  0
LINE
  5
260B
330
2E46
100
AcDbEntity
  8
0
 62
     0
100
AcDbLine
 10
-12.41592112986836
 20
-769.0000000000027
 30
0.0
 11
411.4999999999927
 21
-486.3901075665443
 31
0.0
  0
LINE
  5
260C
330
2E46
100
AcDbEntity
  8
0
 62
     0
100
AcDbLine
 10
-16.9158824237511
 20
-769.0000000000017
 30
0.0
 11
411.4999999999963
 21
-483.390141031128
 31
0.0
  0
LINE
  5
260D
330
2E46
100
AcDbEntity
  8
0
 62
     0
100
AcDbLine
 10
-21.41584371763929
 20
-769.0000000000027
 30
0.0
 11
411.4999999999945
 21
-480.3901744957117
 31
0.0
  0
LINE
  5
260E
330
2E46
100
AcDbEntity
  8
0
 62
     0
100
AcDbLine
 10
-25.91580501152384
 20
-769.0000000000017
 30
0.0
 11
411.4999999999945
 21
-477.3902079602958
 31
0.0
  0
LINE
  5
260F
330
2E46
100
AcDbEntity
  8
0
 62
     0
100
AcDbLine
 10
-30.4157663054084
 20
-769.0000000000017
 30
0.0
 11
411.4999999999945
 21
-474.3902414248784
 31
0.0
  0
LINE
  5
2610
330
2E46
100
AcDbEntity
  8
0
 62
     0
100
AcDbLine
 10
-34.91572759929477
 20
-769.0000000000017
 30
0.0
 11
411.4999999999945
 21
-471.3902748894631
 31
0.0
  0
LINE
  5
2611
330
2E46
100
AcDbEntity
  8
0
 62
     0
100
AcDbLine
 10
-39.41568889318114
 20
-769.0000000000017
 30
0.0
 11
411.4999999999927
 21
-468.3903083540463
 31
0.0
  0
LINE
  5
2612
330
2E46
100
AcDbEntity
  8
0
 62
     0
100
AcDbLine
 10
-43.91565018706385
 20
-769.000000000001
 30
0.0
 11
411.4999999999945
 21
-465.3903418186301
 31
0.0
  0
LINE
  5
2613
330
2E46
100
AcDbEntity
  8
0
 62
     0
100
AcDbLine
 10
-48.41561148095206
 20
-769.0000000000017
 30
0.0
 11
411.4999999999927
 21
-462.3903752832156
 31
0.0
  0
LINE
  5
2614
330
2E46
100
AcDbEntity
  8
0
 62
     0
100
AcDbLine
 10
-52.91557277483661
 20
-769.0000000000027
 30
0.0
 11
411.4999999999945
 21
-459.3904087477992
 31
0.0
  0
LINE
  5
2615
330
2E46
100
AcDbEntity
  8
0
 62
     0
100
AcDbLine
 10
-57.41553406872299
 20
-769.0000000000017
 30
0.0
 11
411.4999999999945
 21
-456.3904422123813
 31
0.0
  0
LINE
  5
2616
330
2E46
100
AcDbEntity
  8
0
 62
     0
100
AcDbLine
 10
-61.91549536260755
 20
-769.0000000000027
 30
0.0
 11
411.4999999999945
 21
-453.390475676965
 31
0.0
  0
LINE
  5
2617
330
2E46
100
AcDbEntity
  8
0
 62
     0
100
AcDbLine
 10
-66.41545665649392
 20
-769.0000000000017
 30
0.0
 11
411.4999999999945
 21
-450.3905091415488
 31
0.0
  0
LINE
  5
2618
330
2E46
100
AcDbEntity
  8
0
 62
     0
100
AcDbLine
 10
-70.9154179503803
 20
-769.0000000000027
 30
0.0
 11
411.4999999999927
 21
-447.3905426061346
 31
0.0
  0
LINE
  5
2619
330
2E46
100
AcDbEntity
  8
0
 62
     0
100
AcDbLine
 10
-75.41537924426481
 20
-769.0000000000017
 30
0.0
 11
411.4999999999945
 21
-444.3905760707184
 31
0.0
  0
LINE
  5
261A
330
2E46
100
AcDbEntity
  8
0
 62
     0
100
AcDbLine
 10
-79.91534053815121
 20
-769.0000000000027
 30
0.0
 11
411.4999999999927
 21
-441.3906095353022
 31
0.0
  0
LINE
  5
261B
330
2E46
100
AcDbEntity
  8
0
 62
     0
100
AcDbLine
 10
-84.41530183203576
 20
-769.0000000000017
 30
0.0
 11
411.4999999999945
 21
-438.390642999886
 31
0.0
  0
LINE
  5
261C
330
2E46
100
AcDbEntity
  8
0
 62
     0
100
AcDbLine
 10
-88.91526312592032
 20
-769.0000000000017
 30
0.0
 11
411.4999999999927
 21
-435.3906764644689
 31
0.0
  0
LINE
  5
261D
330
2E46
100
AcDbEntity
  8
0
 62
     0
100
AcDbLine
 10
-93.41522441980487
 20
-769.0000000000017
 30
0.0
 11
411.4999999999945
 21
-432.3907099290535
 31
0.0
  0
LINE
  5
261E
330
2E46
100
AcDbEntity
  8
0
 62
     0
100
AcDbLine
 10
-97.91518571369124
 20
-769.0000000000017
 30
0.0
 11
411.4999999999945
 21
-429.3907433936364
 31
0.0
  0
LINE
  5
261F
330
2E46
100
AcDbEntity
  8
0
 62
     0
100
AcDbLine
 10
-102.4151470075794
 20
-769.0000000000027
 30
0.0
 11
411.4999999999945
 21
-426.3907768582201
 31
0.0
  0
LINE
  5
2620
330
2E46
100
AcDbEntity
  8
0
 62
     0
100
AcDbLine
 10
-106.9151083014622
 20
-769.0000000000017
 30
0.0
 11
411.4999999999945
 21
-423.390810322804
 31
0.0
  0
LINE
  5
2621
330
2E46
100
AcDbEntity
  8
0
 62
     0
100
AcDbLine
 10
-111.4150695953503
 20
-769.0000000000027
 30
0.0
 11
411.4999999999945
 21
-420.3908437873876
 31
0.0
  0
LINE
  5
2622
330
2E46
100
AcDbEntity
  8
0
 62
     0
100
AcDbLine
 10
-115.915030889233
 20
-769.0000000000017
 30
0.0
 11
411.4999999999945
 21
-417.3908772519713
 31
0.0
  0
LINE
  5
2623
330
2E46
100
AcDbEntity
  8
0
 62
     0
100
AcDbLine
 10
-120.4149921831213
 20
-769.0000000000027
 30
0.0
 11
411.4999999999945
 21
-414.3909107165554
 31
0.0
  0
LINE
  5
2624
330
2E46
100
AcDbEntity
  8
0
 62
     0
100
AcDbLine
 10
-124.9149534770058
 20
-769.0000000000017
 30
0.0
 11
411.4999999999927
 21
-411.3909441811392
 31
0.0
  0
LINE
  5
2625
330
2E46
100
AcDbEntity
  8
0
 62
     0
100
AcDbLine
 10
-129.4149147708922
 20
-769.0000000000027
 30
0.0
 11
411.4999999999945
 21
-408.3909776457231
 31
0.0
  0
LINE
  5
2626
330
2E46
100
AcDbEntity
  8
0
 62
     0
100
AcDbLine
 10
-133.9148760647767
 20
-769.0000000000017
 30
0.0
 11
411.4999999999927
 21
-405.3910111103069
 31
0.0
  0
LINE
  5
2627
330
2E46
100
AcDbEntity
  8
0
 62
     0
100
AcDbLine
 10
-138.4148373586631
 20
-769.0000000000027
 30
0.0
 11
411.4999999999945
 21
-402.3910445748906
 31
0.0
  0
LINE
  5
2628
330
2E46
100
AcDbEntity
  8
0
 62
     0
100
AcDbLine
 10
-142.9147986525474
 20
-769.0000000000017
 30
0.0
 11
411.4999999999945
 21
-399.3910780394744
 31
0.0
  0
LINE
  5
2629
330
2E46
100
AcDbEntity
  8
0
 62
     0
100
AcDbLine
 10
-147.414759946434
 20
-769.0000000000017
 30
0.0
 11
411.4999999999927
 21
-396.3911115040572
 31
0.0
  0
LINE
  5
262A
330
2E46
100
AcDbEntity
  8
0
 62
     0
100
AcDbLine
 10
-151.9147212403186
 20
-769.0000000000017
 30
0.0
 11
411.4999999999945
 21
-393.391144968642
 31
0.0
  0
LINE
  5
262B
330
2E46
100
AcDbEntity
  8
0
 62
     0
100
AcDbLine
 10
-156.414682534205
 20
-769.0000000000017
 30
0.0
 11
411.4999999999927
 21
-390.3911784332249
 31
0.0
  0
LINE
  5
262C
330
2E46
100
AcDbEntity
  8
0
 62
     0
100
AcDbLine
 10
-160.9146438280895
 20
-769.000000000001
 30
0.0
 11
411.4999999999945
 21
-387.3912118978088
 31
0.0
  0
LINE
  5
262D
330
2E46
100
AcDbEntity
  8
0
 62
     0
100
AcDbLine
 10
-165.4146051219759
 20
-769.0000000000017
 30
0.0
 11
411.4999999999927
 21
-384.3912453623943
 31
0.0
  0
LINE
  5
262E
330
2E46
100
AcDbEntity
  8
0
 62
     0
100
AcDbLine
 10
-169.9145664158604
 20
-769.0000000000027
 30
0.0
 11
411.4999999999945
 21
-381.3912788269781
 31
0.0
  0
LINE
  5
262F
330
2E46
100
AcDbEntity
  8
0
 62
     0
100
AcDbLine
 10
-174.4145277097468
 20
-769.0000000000017
 30
0.0
 11
411.4999999999927
 21
-378.391312291562
 31
0.0
  0
LINE
  5
2630
330
2E46
100
AcDbEntity
  8
0
 62
     0
100
AcDbLine
 10
-178.9144890036332
 20
-769.0000000000027
 30
0.0
 11
411.4999999999945
 21
-375.391345756144
 31
0.0
  0
LINE
  5
2631
330
2E46
100
AcDbEntity
  8
0
 62
     0
100
AcDbLine
 10
-183.4144502975196
 20
-769.0000000000035
 30
0.0
 11
411.4999999999945
 21
-372.3913792207277
 31
0.0
  0
LINE
  5
2632
330
2E46
100
AcDbEntity
  8
0
 62
     0
100
AcDbLine
 10
-187.9144115914041
 20
-769.0000000000027
 30
0.0
 11
411.4999999999945
 21
-369.3914126853134
 31
0.0
  0
LINE
  5
2633
330
2E46
100
AcDbEntity
  8
0
 62
     0
100
AcDbLine
 10
-192.4143728852905
 20
-769.0000000000035
 30
0.0
 11
411.4999999999945
 21
-366.3914461498971
 31
0.0
  0
LINE
  5
2634
330
2E46
100
AcDbEntity
  8
0
 62
     0
100
AcDbLine
 10
-196.914334179175
 20
-769.0000000000027
 30
0.0
 11
411.4999999999945
 21
-363.3914796144809
 31
0.0
  0
LINE
  5
2635
330
2E46
100
AcDbEntity
  8
0
 62
     0
100
AcDbLine
 10
-201.4142954730596
 20
-769.0000000000017
 30
0.0
 11
411.4999999999945
 21
-360.3915130790647
 31
0.0
  0
LINE
  5
2636
330
2E46
100
AcDbEntity
  8
0
 62
     0
100
AcDbLine
 10
-205.9142567669442
 20
-769.0
 30
0.0
 11
411.4999999999945
 21
-357.3915465436475
 31
0.0
  0
LINE
  5
2637
330
2E46
100
AcDbEntity
  8
0
 62
     0
100
AcDbLine
 10
-210.4142180608323
 20
-769.0000000000017
 30
0.0
 11
411.4999999999945
 21
-354.3915800082305
 31
0.0
  0
LINE
  5
2638
330
2E46
100
AcDbEntity
  8
0
 62
     0
100
AcDbLine
 10
-214.9141793547151
 20
-769.0000000000017
 30
0.0
 11
411.4999999999945
 21
-351.3916134728152
 31
0.0
  0
LINE
  5
2639
330
2E46
100
AcDbEntity
  8
0
 62
     0
100
AcDbLine
 10
-219.4141406486033
 20
-769.0000000000017
 30
0.0
 11
411.4999999999945
 21
-348.3916469373999
 31
0.0
  0
LINE
  5
263A
330
2E46
100
AcDbEntity
  8
0
 62
     0
100
AcDbLine
 10
-223.9141019424878
 20
-769.0000000000017
 30
0.0
 11
411.4999999999927
 21
-345.3916804019828
 31
0.0
  0
LINE
  5
263B
330
2E46
100
AcDbEntity
  8
0
 62
     0
100
AcDbLine
 10
-228.4140632363742
 20
-769.0000000000017
 30
0.0
 11
411.4999999999945
 21
-342.3917138665674
 31
0.0
  0
LINE
  5
263C
330
2E46
100
AcDbEntity
  8
0
 62
     0
100
AcDbLine
 10
-232.9140245302606
 20
-769.0000000000017
 30
0.0
 11
411.4999999999927
 21
-339.3917473311504
 31
0.0
  0
LINE
  5
263D
330
2E46
100
AcDbEntity
  8
0
 62
     0
100
AcDbLine
 10
-237.4139858241451
 20
-769.0000000000035
 30
0.0
 11
411.4999999999945
 21
-336.3917807957349
 31
0.0
  0
LINE
  5
263E
330
2E46
100
AcDbEntity
  8
0
 62
     0
100
AcDbLine
 10
-241.9139471180315
 20
-769.0000000000017
 30
0.0
 11
411.4999999999927
 21
-333.391814260318
 31
0.0
  0
LINE
  5
263F
330
2E46
100
AcDbEntity
  8
0
 62
     0
100
AcDbLine
 10
-246.413908411916
 20
-769.0000000000017
 30
0.0
 11
411.4999999999945
 21
-330.3918477249008
 31
0.0
  0
LINE
  5
2640
330
2E46
100
AcDbEntity
  8
0
 62
     0
100
AcDbLine
 10
-250.9138697058024
 20
-769.0000000000035
 30
0.0
 11
411.4999999999945
 21
-327.3918811894855
 31
0.0
  0
LINE
  5
2641
330
2E46
100
AcDbEntity
  8
0
 62
     0
100
AcDbLine
 10
-255.4138309996888
 20
-769.0000000000017
 30
0.0
 11
411.4999999999927
 21
-324.3919146540684
 31
0.0
  0
LINE
  5
2642
330
2E46
100
AcDbEntity
  8
0
 62
     0
100
AcDbLine
 10
-259.9137922935715
 20
-769.0000000000017
 30
0.0
 11
411.4999999999945
 21
-321.3919481186531
 31
0.0
  0
LINE
  5
2643
330
2E46
100
AcDbEntity
  8
0
 62
     0
100
AcDbLine
 10
-264.4137535874579
 20
-769.0
 30
0.0
 11
411.4999999999945
 21
-318.391981583236
 31
0.0
  0
LINE
  5
2644
330
2E46
100
AcDbEntity
  8
0
 62
     0
100
AcDbLine
 10
-268.9137148813425
 20
-769.0000000000017
 30
0.0
 11
411.4999999999945
 21
-315.3920150478207
 31
0.0
  0
LINE
  5
2645
330
2E46
100
AcDbEntity
  8
0
 62
     0
100
AcDbLine
 10
-273.4136761752288
 20
-769.0000000000017
 30
0.0
 11
411.4999999999945
 21
-312.3920485124036
 31
0.0
  0
LINE
  5
2646
330
2E46
100
AcDbEntity
  8
0
 62
     0
100
AcDbLine
 10
-277.9136374691134
 20
-769.0000000000017
 30
0.0
 11
411.4999999999945
 21
-309.3920819769883
 31
0.0
  0
LINE
  5
2647
330
2E46
100
AcDbEntity
  8
0
 62
     0
100
AcDbLine
 10
-282.4135987629997
 20
-769.0000000000017
 30
0.0
 11
411.4999999999945
 21
-306.3921154415731
 31
0.0
  0
LINE
  5
2648
330
2E46
100
AcDbEntity
  8
0
 62
     0
100
AcDbLine
 10
-286.9135600568861
 20
-769.0000000000017
 30
0.0
 11
411.4999999999927
 21
-303.3921489061577
 31
0.0
  0
LINE
  5
2649
330
2E46
100
AcDbEntity
  8
0
 62
     0
100
AcDbLine
 10
-291.4135213507707
 20
-769.0000000000017
 30
0.0
 11
411.4999999999945
 21
-300.3921823707387
 31
0.0
  0
LINE
  5
264A
330
2E46
100
AcDbEntity
  8
0
 62
     0
100
AcDbLine
 10
-295.913482644657
 20
-769.0000000000035
 30
0.0
 11
411.4999999999927
 21
-297.3922158353253
 31
0.0
  0
LINE
  5
264B
330
2E46
100
AcDbEntity
  8
0
 62
     0
100
AcDbLine
 10
-300.4134439385417
 20
-769.0000000000017
 30
0.0
 11
411.4999999999945
 21
-294.3922492999064
 31
0.0
  0
LINE
  5
264C
330
2E46
100
AcDbEntity
  8
0
 62
     0
100
AcDbLine
 10
-304.913405232428
 20
-769.0000000000017
 30
0.0
 11
411.4999999999945
 21
-291.3922827644892
 31
0.0
  0
LINE
  5
264D
330
2E46
100
AcDbEntity
  8
0
 62
     0
100
AcDbLine
 10
-309.4133665263143
 20
-769.0000000000017
 30
0.0
 11
411.4999999999927
 21
-288.3923162290757
 31
0.0
  0
LINE
  5
264E
330
2E46
100
AcDbEntity
  8
0
 62
     0
100
AcDbLine
 10
-313.9133278201989
 20
-769.0000000000017
 30
0.0
 11
411.4999999999945
 21
-285.3923496936586
 31
0.0
  0
LINE
  5
264F
330
2E46
100
AcDbEntity
  8
0
 62
     0
100
AcDbLine
 10
-318.4132891140852
 20
-769.0000000000017
 30
0.0
 11
411.4999999999927
 21
-282.3923831582433
 31
0.0
  0
LINE
  5
2650
330
2E46
100
AcDbEntity
  8
0
 62
     0
100
AcDbLine
 10
-322.9132504079698
 20
-769.0000000000017
 30
0.0
 11
411.4999999999945
 21
-279.3924166228262
 31
0.0
  0
LINE
  5
2651
330
2E46
100
AcDbEntity
  8
0
 62
     0
100
AcDbLine
 10
-327.4132117018562
 20
-769.0000000000017
 30
0.0
 11
411.4999999999927
 21
-276.3924500874109
 31
0.0
  0
LINE
  5
2652
330
2E46
100
AcDbEntity
  8
0
 62
     0
100
AcDbLine
 10
-331.9131729957427
 20
-769.0000000000017
 30
0.0
 11
411.4999999999945
 21
-273.3924835519937
 31
0.0
  0
LINE
  5
2653
330
2E46
100
AcDbEntity
  8
0
 62
     0
100
AcDbLine
 10
407.8887663034857
 20
-272.8000000000011
 30
0.0
 11
411.4999999999927
 21
-270.3925170165785
 31
0.0
  0
LINE
  5
2654
330
2E46
100
AcDbEntity
  8
0
 62
     0
100
AcDbLine
 10
-336.4131342896253
 20
-769.0000000000017
 30
0.0
 11
407.8887663034838
 21
-272.8000000000029
 31
0.0
  0
LINE
  5
2655
330
2E46
100
AcDbEntity
  8
0
 62
     0
100
AcDbLine
 10
403.3888050095991
 20
-272.8000000000011
 30
0.0
 11
411.4999999999945
 21
-267.3925504811614
 31
0.0
  0
LINE
  5
2656
330
2E46
100
AcDbEntity
  8
0
 62
     0
100
AcDbLine
 10
-340.9130955835135
 20
-769.0000000000017
 30
0.0
 11
403.3888050095955
 21
-272.8000000000029
 31
0.0
  0
LINE
  5
2657
330
2E46
100
AcDbEntity
  8
0
 62
     0
100
AcDbLine
 10
398.8888437157148
 20
-272.8000000000029
 30
0.0
 11
411.4999999999927
 21
-264.3925839457461
 31
0.0
  0
LINE
  5
2658
330
2E46
100
AcDbEntity
  8
0
 62
     0
100
AcDbLine
 10
-345.4130568773962
 20
-769.0000000000017
 30
0.0
 11
398.8888437157111
 21
-272.8000000000047
 31
0.0
  0
LINE
  5
2659
330
2E46
100
AcDbEntity
  8
0
 62
     0
100
AcDbLine
 10
394.3888824218284
 20
-272.8000000000011
 30
0.0
 11
411.4999999999945
 21
-261.392617410329
 31
0.0
  0
LINE
  5
265A
330
2E46
100
AcDbEntity
  8
0
 62
     0
100
AcDbLine
 10
-349.9130181712844
 20
-769.0000000000017
 30
0.0
 11
394.3888824218248
 21
-272.8000000000047
 31
0.0
  0
LINE
  5
265B
330
2E46
100
AcDbEntity
  8
0
 62
     0
100
AcDbLine
 10
389.8889211279437
 20
-272.8000000000029
 30
0.0
 11
411.4999999999945
 21
-258.3926508749136
 31
0.0
  0
LINE
  5
265C
330
2E46
100
AcDbEntity
  8
0
 62
     0
100
AcDbLine
 10
-354.4129794651671
 20
-769.0000000000017
 30
0.0
 11
389.888921127942
 21
-272.8000000000029
 31
0.0
  0
LINE
  5
265D
330
2E46
100
AcDbEntity
  8
0
 62
     0
100
AcDbLine
 10
385.3889598340556
 20
-272.8000000000029
 30
0.0
 11
411.4999999999945
 21
-255.3926843394966
 31
0.0
  0
LINE
  5
265E
330
2E46
100
AcDbEntity
  8
0
 62
     0
100
AcDbLine
 10
-358.9129407590552
 20
-769.0000000000017
 30
0.0
 11
385.3889598340556
 21
-272.8000000000029
 31
0.0
  0
LINE
  5
265F
330
2E46
100
AcDbEntity
  8
0
 62
     0
100
AcDbLine
 10
380.8889985401711
 20
-272.8000000000011
 30
0.0
 11
411.4999999999927
 21
-252.3927178040795
 31
0.0
  0
LINE
  5
2660
330
2E46
100
AcDbEntity
  8
0
 62
     0
100
AcDbLine
 10
-363.4129020529399
 20
-769.0000000000017
 30
0.0
 11
380.8889985401675
 21
-272.8000000000029
 31
0.0
  0
LINE
  5
2661
330
2E46
100
AcDbEntity
  8
0
 62
     0
100
AcDbLine
 10
376.3890372462847
 20
-272.8000000000029
 30
0.0
 11
411.4999999999945
 21
-249.3927512686641
 31
0.0
  0
LINE
  5
2662
330
2E46
100
AcDbEntity
  8
0
 62
     0
100
AcDbLine
 10
-367.9128633468263
 20
-769.0000000000017
 30
0.0
 11
376.3890372462829
 21
-272.8000000000047
 31
0.0
  0
LINE
  5
2663
330
2E46
100
AcDbEntity
  8
0
 62
     0
100
AcDbLine
 10
371.8890759524001
 20
-272.8000000000011
 30
0.0
 11
411.4999999999927
 21
-246.392784733247
 31
0.0
  0
LINE
  5
2664
330
2E46
100
AcDbEntity
  8
0
 62
     0
100
AcDbLine
 10
-372.4128246407108
 20
-769.0000000000017
 30
0.0
 11
371.8890759523983
 21
-272.8000000000011
 31
0.0
  0
LINE
  5
2665
330
2E46
100
AcDbEntity
  8
0
 62
     0
100
AcDbLine
 10
367.3891146585138
 20
-272.8000000000029
 30
0.0
 11
411.4999999999945
 21
-243.3928181978335
 31
0.0
  0
LINE
  5
2666
330
2E46
100
AcDbEntity
  8
0
 62
     0
100
AcDbLine
 10
-376.9127859345953
 20
-769.0000000000017
 30
0.0
 11
367.3891146585138
 21
-272.8000000000029
 31
0.0
  0
LINE
  5
2667
330
2E46
100
AcDbEntity
  8
0
 62
     0
100
AcDbLine
 10
362.8891533646292
 20
-272.8000000000011
 30
0.0
 11
411.4999999999927
 21
-240.3928516624164
 31
0.0
  0
LINE
  5
2668
330
2E46
100
AcDbEntity
  8
0
 62
     0
100
AcDbLine
 10
-381.4127472284818
 20
-769.0000000000017
 30
0.0
 11
362.8891533646292
 21
-272.8000000000011
 31
0.0
  0
LINE
  5
2669
330
2E46
100
AcDbEntity
  8
0
 62
     0
100
AcDbLine
 10
358.3891920707447
 20
-272.8000000000011
 30
0.0
 11
411.4999999999945
 21
-237.3928851270012
 31
0.0
  0
LINE
  5
266A
330
2E46
100
AcDbEntity
  8
0
 62
     0
100
AcDbLine
 10
-385.9127085223664
 20
-769.0000000000017
 30
0.0
 11
358.3891920707429
 21
-272.8000000000029
 31
0.0
  0
LINE
  5
266B
330
2E46
100
AcDbEntity
  8
0
 62
     0
100
AcDbLine
 10
353.8892307768583
 20
-272.8000000000011
 30
0.0
 11
411.4999999999927
 21
-234.392918591584
 31
0.0
  0
LINE
  5
266C
330
2E46
100
AcDbEntity
  8
0
 62
     0
100
AcDbLine
 10
-390.4126698162528
 20
-769.0000000000017
 30
0.0
 11
353.8892307768583
 21
-272.8000000000011
 31
0.0
  0
LINE
  5
266D
330
2E46
100
AcDbEntity
  8
0
 62
     0
100
AcDbLine
 10
349.3892694829719
 20
-272.8000000000011
 30
0.0
 11
411.4999999999927
 21
-231.3929520561686
 31
0.0
  0
LINE
  5
266E
330
2E46
100
AcDbEntity
  8
0
 62
     0
100
AcDbLine
 10
-394.9126311101392
 20
-769.0000000000017
 30
0.0
 11
349.3892694829701
 21
-272.8000000000029
 31
0.0
  0
LINE
  5
266F
330
2E46
100
AcDbEntity
  8
0
 62
     0
100
AcDbLine
 10
344.8893081890874
 20
-272.8000000000011
 30
0.0
 11
411.4999999999945
 21
-228.3929855207497
 31
0.0
  0
LINE
  5
2670
330
2E46
100
AcDbEntity
  8
0
 62
     0
100
AcDbLine
 10
-399.4125924040236
 20
-769.0000000000017
 30
0.0
 11
344.8893081890874
 21
-272.8000000000011
 31
0.0
  0
LINE
  5
2671
330
2E46
100
AcDbEntity
  8
0
 62
     0
100
AcDbLine
 10
340.3893468952011
 20
-272.8000000000011
 30
0.0
 11
411.4999999999927
 21
-225.3930189853363
 31
0.0
  0
LINE
  5
2672
330
2E46
100
AcDbEntity
  8
0
 62
     0
100
AcDbLine
 10
-403.9125536979097
 20
-769.0000000000017
 30
0.0
 11
340.3893468951992
 21
-272.8000000000029
 31
0.0
  0
LINE
  5
2673
330
2E46
100
AcDbEntity
  8
0
 62
     0
100
AcDbLine
 10
335.8893856013147
 20
-272.8000000000011
 30
0.0
 11
411.4999999999927
 21
-222.3930524499192
 31
0.0
  0
LINE
  5
2674
330
2E46
100
AcDbEntity
  8
0
 62
     0
100
AcDbLine
 10
-408.412514991796
 20
-769.0000000000017
 30
0.0
 11
335.8893856013147
 21
-272.8000000000011
 31
0.0
  0
LINE
  5
2675
330
2E46
100
AcDbEntity
  8
0
 62
     0
100
AcDbLine
 10
331.3894243074301
 20
-272.8000000000029
 30
0.0
 11
411.4999999999927
 21
-219.3930859145039
 31
0.0
  0
LINE
  5
2676
330
2E46
100
AcDbEntity
  8
0
 62
     0
100
AcDbLine
 10
-411.5000000000051
 20
-768.0583515474136
 30
0.0
 11
331.3894243074284
 21
-272.8000000000029
 31
0.0
  0
LINE
  5
2677
330
2E46
100
AcDbEntity
  8
0
 62
     0
100
AcDbLine
 10
326.8894630135437
 20
-272.8000000000011
 30
0.0
 11
411.4999999999927
 21
-216.3931193790868
 31
0.0
  0
LINE
  5
2678
330
2E46
100
AcDbEntity
  8
0
 62
     0
100
AcDbLine
 10
-411.5000000000051
 20
-765.0583850119964
 30
0.0
 11
326.8894630135417
 21
-272.8000000000029
 31
0.0
  0
LINE
  5
2679
330
2E46
100
AcDbEntity
  8
0
 62
     0
100
AcDbLine
 10
322.3895017196592
 20
-272.8000000000011
 30
0.0
 11
411.4999999999927
 21
-213.3931528436697
 31
0.0
  0
LINE
  5
267A
330
2E46
100
AcDbEntity
  8
0
 62
     0
100
AcDbLine
 10
-411.5000000000051
 20
-762.0584184765788
 30
0.0
 11
322.3895017196592
 21
-272.8000000000011
 31
0.0
  0
LINE
  5
267B
330
2E46
100
AcDbEntity
  8
0
 62
     0
100
AcDbLine
 10
317.8895404257728
 20
-272.8000000000029
 30
0.0
 11
411.4999999999927
 21
-210.3931863082544
 31
0.0
  0
LINE
  5
267C
330
2E46
100
AcDbEntity
  8
0
 62
     0
100
AcDbLine
 10
-411.5000000000051
 20
-759.0584519411641
 30
0.0
 11
317.889540425771
 21
-272.8000000000029
 31
0.0
  0
LINE
  5
267D
330
2E46
100
AcDbEntity
  8
0
 62
     0
100
AcDbLine
 10
313.3895791318882
 20
-272.8000000000011
 30
0.0
 11
411.4999999999945
 21
-207.3932197728372
 31
0.0
  0
LINE
  5
267E
330
2E46
100
AcDbEntity
  8
0
 62
     0
100
AcDbLine
 10
-411.5000000000051
 20
-756.0584854057467
 30
0.0
 11
313.3895791318882
 21
-272.8000000000011
 31
0.0
  0
LINE
  5
267F
330
2E46
100
AcDbEntity
  8
0
 62
     0
100
AcDbLine
 10
308.8896178380019
 20
-272.8000000000029
 30
0.0
 11
411.4999999999927
 21
-204.393253237422
 31
0.0
  0
LINE
  5
2680
330
2E46
100
AcDbEntity
  8
0
 62
     0
100
AcDbLine
 10
-411.5000000000051
 20
-753.0585188703335
 30
0.0
 11
308.8896178380019
 21
-272.8000000000029
 31
0.0
  0
LINE
  5
2681
330
2E46
100
AcDbEntity
  8
0
 62
     0
100
AcDbLine
 10
304.3896565441155
 20
-272.8000000000011
 30
0.0
 11
411.4999999999927
 21
-201.3932867020048
 31
0.0
  0
LINE
  5
2682
330
2E46
100
AcDbEntity
  8
0
 62
     0
100
AcDbLine
 10
-411.5000000000073
 20
-750.0585523349164
 30
0.0
 11
304.3896565441155
 21
-272.8000000000011
 31
0.0
  0
LINE
  5
2683
330
2E46
100
AcDbEntity
  8
0
 62
     0
100
AcDbLine
 10
299.8896952502328
 20
-272.8000000000011
 30
0.0
 11
411.4999999999945
 21
-198.3933201665894
 31
0.0
  0
LINE
  5
2684
330
2E46
100
AcDbEntity
  8
0
 62
     0
100
AcDbLine
 10
-411.5000000000036
 20
-747.058585799499
 30
0.0
 11
299.889695250231
 21
-272.8000000000029
 31
0.0
  0
LINE
  5
2685
330
2E46
100
AcDbEntity
  8
0
 62
     0
100
AcDbLine
 10
295.3897339563446
 20
-272.8000000000011
 30
0.0
 11
411.4999999999927
 21
-195.3933536311724
 31
0.0
  0
LINE
  5
2686
330
2E46
100
AcDbEntity
  8
0
 62
     0
100
AcDbLine
 10
-411.5000000000051
 20
-744.0586192640822
 30
0.0
 11
295.3897339563446
 21
-272.8000000000011
 31
0.0
  0
LINE
  5
2687
330
2E46
100
AcDbEntity
  8
0
 62
     0
100
AcDbLine
 10
290.8897726624617
 20
-272.8000000000011
 30
0.0
 11
411.4999999999945
 21
-192.3933870957571
 31
0.0
  0
LINE
  5
2688
330
2E46
100
AcDbEntity
  8
0
 62
     0
100
AcDbLine
 10
-411.5000000000036
 20
-741.0586527286668
 30
0.0
 11
290.88977266246
 21
-272.8000000000029
 31
0.0
  0
LINE
  5
2689
330
2E46
100
AcDbEntity
  8
0
 62
     0
100
AcDbLine
 10
286.3898113685737
 20
-272.8000000000011
 30
0.0
 11
411.4999999999927
 21
-189.39342056034
 31
0.0
  0
LINE
  5
268A
330
2E46
100
AcDbEntity
  8
0
 62
     0
100
AcDbLine
 10
-411.5000000000051
 20
-738.0586861932513
 30
0.0
 11
286.3898113685737
 21
-272.8000000000011
 31
0.0
  0
LINE
  5
268B
330
2E46
100
AcDbEntity
  8
0
 62
     0
100
AcDbLine
 10
281.8898500746889
 20
-272.8000000000029
 30
0.0
 11
411.4999999999945
 21
-186.3934540249247
 31
0.0
  0
LINE
  5
268C
330
2E46
100
AcDbEntity
  8
0
 62
     0
100
AcDbLine
 10
-411.5000000000036
 20
-735.0587196578361
 30
0.0
 11
281.8898500746889
 21
-272.8000000000029
 31
0.0
  0
LINE
  5
268D
330
2E46
100
AcDbEntity
  8
0
 62
     0
100
AcDbLine
 10
277.3898887808027
 20
-272.8000000000011
 30
0.0
 11
411.4999999999908
 21
-183.3934874895094
 31
0.0
  0
LINE
  5
268E
330
2E46
100
AcDbEntity
  8
0
 62
     0
100
AcDbLine
 10
-411.5000000000051
 20
-732.0587531224187
 30
0.0
 11
277.3898887808027
 21
-272.8000000000011
 31
0.0
  0
LINE
  5
268F
330
2E46
100
AcDbEntity
  8
0
 62
     0
100
AcDbLine
 10
272.8899274869164
 20
-272.8000000000029
 30
0.0
 11
411.4999999999908
 21
-180.393520954094
 31
0.0
  0
LINE
  5
2690
330
2E46
100
AcDbEntity
  8
0
 62
     0
100
AcDbLine
 10
-411.5000000000051
 20
-729.058786587004
 30
0.0
 11
272.8899274869164
 21
-272.8000000000029
 31
0.0
  0
LINE
  5
2691
330
2E46
100
AcDbEntity
  8
0
 62
     0
100
AcDbLine
 10
268.3899661930318
 20
-272.8000000000011
 30
0.0
 11
411.4999999999927
 21
-177.393554418677
 31
0.0
  0
LINE
  5
2692
330
2E46
100
AcDbEntity
  8
0
 62
     0
100
AcDbLine
 10
-411.5000000000051
 20
-726.0588200515867
 30
0.0
 11
268.3899661930318
 21
-272.8000000000011
 31
0.0
  0
LINE
  5
2693
330
2E46
100
AcDbEntity
  8
0
 62
     0
100
AcDbLine
 10
263.8900048991454
 20
-272.8000000000011
 30
0.0
 11
411.4999999999908
 21
-174.3935878832599
 31
0.0
  0
LINE
  5
2694
330
2E46
100
AcDbEntity
  8
0
 62
     0
100
AcDbLine
 10
-411.5000000000051
 20
-723.0588535161696
 30
0.0
 11
263.8900048991454
 21
-272.8000000000011
 31
0.0
  0
LINE
  5
2695
330
2E46
100
AcDbEntity
  8
0
 62
     0
100
AcDbLine
 10
259.3900436052627
 20
-272.8000000000011
 30
0.0
 11
411.4999999999927
 21
-171.3936213478446
 31
0.0
  0
LINE
  5
2696
330
2E46
100
AcDbEntity
  8
0
 62
     0
100
AcDbLine
 10
-411.5000000000036
 20
-720.0588869807544
 30
0.0
 11
259.3900436052627
 21
-272.8000000000011
 31
0.0
  0
LINE
  5
2697
330
2E46
100
AcDbEntity
  8
0
 62
     0
100
AcDbLine
 10
254.8900823113745
 20
-272.8000000000011
 30
0.0
 11
411.4999999999927
 21
-168.3936548124275
 31
0.0
  0
LINE
  5
2698
330
2E46
100
AcDbEntity
  8
0
 62
     0
100
AcDbLine
 10
-411.5000000000051
 20
-717.0589204453372
 30
0.0
 11
254.8900823113745
 21
-272.8000000000011
 31
0.0
  0
LINE
  5
2699
330
2E46
100
AcDbEntity
  8
0
 62
     0
100
AcDbLine
 10
250.39012101749
 20
-272.8000000000029
 30
0.0
 11
411.4999999999908
 21
-165.3936882770122
 31
0.0
  0
LINE
  5
269A
330
2E46
100
AcDbEntity
  8
0
 62
     0
100
AcDbLine
 10
-411.5000000000051
 20
-714.0589539099216
 30
0.0
 11
250.39012101749
 21
-272.8000000000029
 31
0.0
  0
LINE
  5
269B
330
2E46
100
AcDbEntity
  8
0
 62
     0
100
AcDbLine
 10
245.8901597236054
 20
-272.8000000000011
 30
0.0
 11
411.4999999999927
 21
-162.393721741595
 31
0.0
  0
LINE
  5
269C
330
2E46
100
AcDbEntity
  8
0
 62
     0
100
AcDbLine
 10
-411.5000000000051
 20
-711.0589873745047
 30
0.0
 11
245.8901597236054
 21
-272.8000000000011
 31
0.0
  0
LINE
  5
269D
330
2E46
100
AcDbEntity
  8
0
 62
     0
100
AcDbLine
 10
241.390198429719
 20
-272.8000000000011
 30
0.0
 11
411.4999999999908
 21
-159.3937552061797
 31
0.0
  0
LINE
  5
269E
330
2E46
100
AcDbEntity
  8
0
 62
     0
100
AcDbLine
 10
-411.5000000000051
 20
-708.0590208390892
 30
0.0
 11
241.390198429719
 21
-272.8000000000029
 31
0.0
  0
LINE
  5
269F
330
2E46
100
AcDbEntity
  8
0
 62
     0
100
AcDbLine
 10
236.8902371358345
 20
-272.8000000000011
 30
0.0
 11
411.4999999999927
 21
-156.3937886707626
 31
0.0
  0
LINE
  5
26A0
330
2E46
100
AcDbEntity
  8
0
 62
     0
100
AcDbLine
 10
-411.5000000000051
 20
-705.0590543036721
 30
0.0
 11
236.8902371358345
 21
-272.8000000000011
 31
0.0
  0
LINE
  5
26A1
330
2E46
100
AcDbEntity
  8
0
 62
     0
100
AcDbLine
 10
232.3902758419481
 20
-272.8000000000011
 30
0.0
 11
411.4999999999908
 21
-153.3938221353473
 31
0.0
  0
LINE
  5
26A2
330
2E46
100
AcDbEntity
  8
0
 62
     0
100
AcDbLine
 10
-411.5000000000051
 20
-702.0590877682566
 30
0.0
 11
232.3902758419481
 21
-272.8000000000029
 31
0.0
  0
LINE
  5
26A3
330
2E46
100
AcDbEntity
  8
0
 62
     0
100
AcDbLine
 10
227.8903145480617
 20
-272.8000000000011
 30
0.0
 11
411.4999999999908
 21
-150.3938555999321
 31
0.0
  0
LINE
  5
26A4
330
2E46
100
AcDbEntity
  8
0
 62
     0
100
AcDbLine
 10
-411.5000000000073
 20
-699.0591212328396
 30
0.0
 11
227.8903145480617
 21
-272.8000000000011
 31
0.0
  0
LINE
  5
26A5
330
2E46
100
AcDbEntity
  8
0
 62
     0
100
AcDbLine
 10
223.3903532541772
 20
-272.8000000000011
 30
0.0
 11
411.4999999999908
 21
-147.3938890645167
 31
0.0
  0
LINE
  5
26A6
330
2E46
100
AcDbEntity
  8
0
 62
     0
100
AcDbLine
 10
-411.5000000000051
 20
-696.0591546974248
 30
0.0
 11
223.3903532541772
 21
-272.8000000000029
 31
0.0
  0
LINE
  5
26A7
330
2E46
100
AcDbEntity
  8
0
 62
     0
100
AcDbLine
 10
218.8903919602908
 20
-272.8000000000011
 30
0.0
 11
411.4999999999908
 21
-144.3939225290978
 31
0.0
  0
LINE
  5
26A8
330
2E46
100
AcDbEntity
  8
0
 62
     0
100
AcDbLine
 10
-411.5000000000073
 20
-693.0591881620074
 30
0.0
 11
218.8903919602908
 21
-272.8000000000011
 31
0.0
  0
LINE
  5
26A9
330
2E46
100
AcDbEntity
  8
0
 62
     0
100
AcDbLine
 10
214.3904306664063
 20
-272.8000000000011
 30
0.0
 11
411.4999999999908
 21
-141.3939559936843
 31
0.0
  0
LINE
  5
26AA
330
2E46
100
AcDbEntity
  8
0
 62
     0
100
AcDbLine
 10
-411.5000000000051
 20
-690.0592216265939
 30
0.0
 11
214.3904306664063
 21
-272.8000000000029
 31
0.0
  0
LINE
  5
26AB
330
2E46
100
AcDbEntity
  8
0
 62
     0
100
AcDbLine
 10
209.8904693725199
 20
-272.8000000000011
 30
0.0
 11
411.4999999999908
 21
-138.3939894582654
 31
0.0
  0
LINE
  5
26AC
330
2E46
100
AcDbEntity
  8
0
 62
     0
100
AcDbLine
 10
-411.5000000000051
 20
-687.0592550911752
 30
0.0
 11
209.8904693725199
 21
-272.8000000000011
 31
0.0
  0
LINE
  5
26AD
330
2E46
100
AcDbEntity
  8
0
 62
     0
100
AcDbLine
 10
205.3905080786353
 20
-272.8000000000011
 30
0.0
 11
411.4999999999927
 21
-135.3940229228501
 31
0.0
  0
LINE
  5
26AE
330
2E46
100
AcDbEntity
  8
0
 62
     0
100
AcDbLine
 10
-411.5000000000036
 20
-684.059288555758
 30
0.0
 11
205.3905080786353
 21
-272.8000000000011
 31
0.0
  0
LINE
  5
26AF
330
2E46
100
AcDbEntity
  8
0
 62
     0
100
AcDbLine
 10
200.890546784749
 20
-272.8000000000011
 30
0.0
 11
411.4999999999908
 21
-132.3940563874348
 31
0.0
  0
LINE
  5
26B0
330
2E46
100
AcDbEntity
  8
0
 62
     0
100
AcDbLine
 10
-411.5000000000051
 20
-681.0593220203427
 30
0.0
 11
200.8905467847471
 21
-272.8000000000029
 31
0.0
  0
LINE
  5
26B1
330
2E46
100
AcDbEntity
  8
0
 62
     0
100
AcDbLine
 10
196.3905854908626
 20
-272.8000000000011
 30
0.0
 11
411.4999999999908
 21
-129.3940898520177
 31
0.0
  0
LINE
  5
26B2
330
2E46
100
AcDbEntity
  8
0
 62
     0
100
AcDbLine
 10
-411.5000000000051
 20
-678.0593554849255
 30
0.0
 11
196.3905854908626
 21
-272.8000000000011
 31
0.0
  0
LINE
  5
26B3
330
2E46
100
AcDbEntity
  8
0
 62
     0
100
AcDbLine
 10
195.6999999999971
 20
-270.2604226162112
 30
0.0
 11
411.4999999999908
 21
-126.3941233166024
 31
0.0
  0
LINE
  5
26B4
330
2E46
100
AcDbEntity
  8
0
 62
     0
100
AcDbLine
 10
-411.5000000000051
 20
-675.0593889495121
 30
0.0
 11
195.6999999999952
 21
-270.2604226162129
 31
0.0
  0
LINE
  5
26B5
330
2E46
100
AcDbEntity
  8
0
 62
     0
100
AcDbLine
 10
195.6999999999952
 20
-267.2604560807958
 30
0.0
 11
411.4999999999908
 21
-123.3941567811853
 31
0.0
  0
LINE
  5
26B6
330
2E46
100
AcDbEntity
  8
0
 62
     0
100
AcDbLine
 10
-411.5000000000051
 20
-672.059422414095
 30
0.0
 11
195.6999999999933
 21
-267.2604560807977
 31
0.0
  0
LINE
  5
26B7
330
2E46
100
AcDbEntity
  8
0
 62
     0
100
AcDbLine
 10
195.6999999999971
 20
-264.2604895453806
 30
0.0
 11
411.4999999999908
 21
-120.39419024577
 31
0.0
  0
LINE
  5
26B8
330
2E46
100
AcDbEntity
  8
0
 62
     0
100
AcDbLine
 10
-411.5000000000051
 20
-669.0594558786796
 30
0.0
 11
195.6999999999952
 21
-264.2604895453824
 31
0.0
  0
LINE
  5
26B9
330
2E46
100
AcDbEntity
  8
0
 62
     0
100
AcDbLine
 10
195.6999999999971
 20
-261.2605230099634
 30
0.0
 11
411.4999999999927
 21
-117.3942237103529
 31
0.0
  0
LINE
  5
26BA
330
2E46
100
AcDbEntity
  8
0
 62
     0
100
AcDbLine
 10
-411.5000000000051
 20
-666.0594893432625
 30
0.0
 11
195.6999999999933
 21
-261.2605230099652
 31
0.0
  0
LINE
  5
26BB
330
2E46
100
AcDbEntity
  8
0
 62
     0
100
AcDbLine
 10
195.6999999999971
 20
-258.2605564745481
 30
0.0
 11
411.4999999999908
 21
-114.3942571749376
 31
0.0
  0
LINE
  5
26BC
330
2E46
100
AcDbEntity
  8
0
 62
     0
100
AcDbLine
 10
-411.5000000000051
 20
-663.0595228078472
 30
0.0
 11
195.6999999999952
 21
-258.26055647455
 31
0.0
  0
LINE
  5
26BD
330
2E46
100
AcDbEntity
  8
0
 62
     0
100
AcDbLine
 10
195.6999999999971
 20
-255.260589939131
 30
0.0
 11
411.4999999999927
 21
-111.3942906395205
 31
0.0
  0
LINE
  5
26BE
330
2E46
100
AcDbEntity
  8
0
 62
     0
100
AcDbLine
 10
-411.5000000000051
 20
-660.0595562724284
 30
0.0
 11
195.6999999999952
 21
-255.260589939131
 31
0.0
  0
LINE
  5
26BF
330
2E46
100
AcDbEntity
  8
0
 62
     0
100
AcDbLine
 10
195.6999999999952
 20
-252.2606234037157
 30
0.0
 11
411.4999999999908
 21
-108.3943241041052
 31
0.0
  0
LINE
  5
26C0
330
2E46
100
AcDbEntity
  8
0
 62
     0
100
AcDbLine
 10
-411.5000000000051
 20
-657.0595897370144
 30
0.0
 11
195.6999999999933
 21
-252.2606234037175
 31
0.0
  0
LINE
  5
26C1
330
2E46
100
AcDbEntity
  8
0
 62
     0
100
AcDbLine
 10
195.6999999999971
 20
-249.2606568682986
 30
0.0
 11
411.4999999999927
 21
-105.394357568688
 31
0.0
  0
LINE
  5
26C2
330
2E46
100
AcDbEntity
  8
0
 62
     0
100
AcDbLine
 10
-411.5000000000051
 20
-654.0596232015976
 30
0.0
 11
195.6999999999952
 21
-249.2606568683005
 31
0.0
  0
LINE
  5
26C3
330
2E46
100
AcDbEntity
  8
0
 62
     0
100
AcDbLine
 10
195.6999999999952
 20
-246.2606903328833
 30
0.0
 11
411.4999999999908
 21
-102.3943910332727
 31
0.0
  0
LINE
  5
26C4
330
2E46
100
AcDbEntity
  8
0
 62
     0
100
AcDbLine
 10
-411.5000000000051
 20
-651.0596566661823
 30
0.0
 11
195.6999999999952
 21
-246.2606903328851
 31
0.0
  0
LINE
  5
26C5
330
2E46
100
AcDbEntity
  8
0
 62
     0
100
AcDbLine
 10
195.6999999999952
 20
-243.2607237974662
 30
0.0
 11
411.4999999999908
 21
-99.39442449785566
 31
0.0
  0
LINE
  5
26C6
330
2E46
100
AcDbEntity
  8
0
 62
     0
100
AcDbLine
 10
-411.5000000000073
 20
-648.0596901307652
 30
0.0
 11
195.6999999999933
 21
-243.260723797468
 31
0.0
  0
LINE
  5
26C7
330
2E46
100
AcDbEntity
  8
0
 62
     0
100
AcDbLine
 10
195.6999999999952
 20
-240.2607572620492
 30
0.0
 11
411.4999999999908
 21
-96.39445796243856
 31
0.0
  0
LINE
  5
26C8
330
2E46
100
AcDbEntity
  8
0
 62
     0
100
AcDbLine
 10
-411.5000000000051
 20
-645.0597235953481
 30
0.0
 11
195.6999999999952
 21
-240.2607572620509
 31
0.0
  0
LINE
  5
26C9
330
2E46
100
AcDbEntity
  8
0
 62
     0
100
AcDbLine
 10
195.6999999999971
 20
-237.2607907266337
 30
0.0
 11
411.4999999999908
 21
-93.39449142702324
 31
0.0
  0
LINE
  5
26CA
330
2E46
100
AcDbEntity
  8
0
 62
     0
100
AcDbLine
 10
-411.5000000000073
 20
-642.0597570599328
 30
0.0
 11
195.6999999999933
 21
-237.2607907266356
 31
0.0
  0
LINE
  5
26CB
330
2E46
100
AcDbEntity
  8
0
 62
     0
100
AcDbLine
 10
195.6999999999952
 20
-234.2608241912185
 30
0.0
 11
411.4999999999927
 21
-90.39452489160613
 31
0.0
  0
LINE
  5
26CC
330
2E46
100
AcDbEntity
  8
0
 62
     0
100
AcDbLine
 10
-411.5000000000051
 20
-639.0597905245158
 30
0.0
 11
195.6999999999933
 21
-234.2608241912185
 31
0.0
  0
LINE
  5
26CD
330
2E46
100
AcDbEntity
  8
0
 62
     0
100
AcDbLine
 10
195.6999999999971
 20
-231.2608576558014
 30
0.0
 11
411.4999999999908
 21
-87.39455835619081
 31
0.0
  0
LINE
  5
26CE
330
2E46
100
AcDbEntity
  8
0
 62
     0
100
AcDbLine
 10
-411.5000000000073
 20
-636.0598239891005
 30
0.0
 11
195.6999999999933
 21
-231.2608576558032
 31
0.0
  0
LINE
  5
26CF
330
2E46
100
AcDbEntity
  8
0
 62
     0
100
AcDbLine
 10
195.6999999999971
 20
-228.2608911203843
 30
0.0
 11
411.4999999999927
 21
-84.39459182077371
 31
0.0
  0
LINE
  5
26D0
330
2E46
100
AcDbEntity
  8
0
 62
     0
100
AcDbLine
 10
-411.5000000000036
 20
-633.0598574536834
 30
0.0
 11
195.6999999999952
 21
-228.2608911203861
 31
0.0
  0
LINE
  5
26D1
330
2E46
100
AcDbEntity
  8
0
 62
     0
100
AcDbLine
 10
195.6999999999971
 20
-225.260924584969
 30
0.0
 11
411.4999999999908
 21
-81.39462528535842
 31
0.0
  0
LINE
  5
26D2
330
2E46
100
AcDbEntity
  8
0
 62
     0
100
AcDbLine
 10
-411.5000000000051
 20
-630.0598909182681
 30
0.0
 11
195.6999999999933
 21
-225.2609245849708
 31
0.0
  0
LINE
  5
26D3
330
2E46
100
AcDbEntity
  8
0
 62
     0
100
AcDbLine
 10
195.6999999999952
 20
-222.2609580495519
 30
0.0
 11
410.5919858062643
 21
-79.00000000000182
 31
0.0
  0
LINE
  5
26D4
330
2E46
100
AcDbEntity
  8
0
 62
     0
100
AcDbLine
 10
-411.5000000000051
 20
-627.059924382851
 30
0.0
 11
195.6999999999933
 21
-222.2609580495537
 31
0.0
  0
LINE
  5
26D5
330
2E46
100
AcDbEntity
  8
0
 62
     0
100
AcDbLine
 10
195.6999999999971
 20
-219.2609915141364
 30
0.0
 11
406.0920245123813
 21
-79.00000000000182
 31
0.0
  0
LINE
  5
26D6
330
2E46
100
AcDbEntity
  8
0
 62
     0
100
AcDbLine
 10
-411.5000000000051
 20
-624.0599578474355
 30
0.0
 11
195.6999999999952
 21
-219.2609915141384
 31
0.0
  0
LINE
  5
26D7
330
2E46
100
AcDbEntity
  8
0
 62
     0
100
AcDbLine
 10
195.6999999999952
 20
-216.2610249787213
 30
0.0
 11
401.592063218495
 21
-79.00000000000182
 31
0.0
  0
LINE
  5
26D8
330
2E46
100
AcDbEntity
  8
0
 62
     0
100
AcDbLine
 10
-411.5000000000051
 20
-621.0599913120185
 30
0.0
 11
195.6999999999933
 21
-216.2610249787213
 31
0.0
  0
LINE
  5
26D9
330
2E46
100
AcDbEntity
  8
0
 62
     0
100
AcDbLine
 10
195.6999999999971
 20
-213.2610584433059
 30
0.0
 11
397.0921019246089
 21
-79.00000000000182
 31
0.0
  0
LINE
  5
26DA
330
2E46
100
AcDbEntity
  8
0
 62
     0
100
AcDbLine
 10
-411.5000000000051
 20
-618.060024776603
 30
0.0
 11
195.6999999999952
 21
-213.2610584433059
 31
0.0
  0
LINE
  5
26DB
330
2E46
100
AcDbEntity
  8
0
 62
     0
100
AcDbLine
 10
195.6999999999971
 20
-210.261091907887
 30
0.0
 11
392.5921406307225
 21
-79.00000000000182
 31
0.0
  0
LINE
  5
26DC
330
2E46
100
AcDbEntity
  8
0
 62
     0
100
AcDbLine
 10
-411.5000000000051
 20
-615.0600582411861
 30
0.0
 11
195.6999999999933
 21
-210.2610919078888
 31
0.0
  0
LINE
  5
26DD
330
2E46
100
AcDbEntity
  8
0
 62
     0
100
AcDbLine
 10
195.6999999999971
 20
-207.2611253724736
 30
0.0
 11
388.0921793368398
 21
-79.00000000000182
 31
0.0
  0
LINE
  5
26DE
330
2E46
100
AcDbEntity
  8
0
 62
     0
100
AcDbLine
 10
-411.5000000000051
 20
-612.0600917057728
 30
0.0
 11
195.6999999999952
 21
-207.2611253724736
 31
0.0
  0
LINE
  5
26DF
330
2E46
100
AcDbEntity
  8
0
 62
     0
100
AcDbLine
 10
195.6999999999971
 20
-204.2611588370546
 30
0.0
 11
383.5922180429534
 21
-79.00000000000182
 31
0.0
  0
LINE
  5
26E0
330
2E46
100
AcDbEntity
  8
0
 62
     0
100
AcDbLine
 10
-411.5000000000051
 20
-609.0601251703556
 30
0.0
 11
195.6999999999933
 21
-204.2611588370581
 31
0.0
  0
LINE
  5
26E1
330
2E46
100
AcDbEntity
  8
0
 62
     0
100
AcDbLine
 10
195.6999999999952
 20
-201.2611923016393
 30
0.0
 11
379.0922567490651
 21
-79.00000000000182
 31
0.0
  0
LINE
  5
26E2
330
2E46
100
AcDbEntity
  8
0
 62
     0
100
AcDbLine
 10
-411.5000000000073
 20
-606.0601586349385
 30
0.0
 11
195.6999999999952
 21
-201.2611923016393
 31
0.0
  0
LINE
  5
26E3
330
2E46
100
AcDbEntity
  8
0
 62
     0
100
AcDbLine
 10
195.6999999999971
 20
-198.2612257662239
 30
0.0
 11
374.5922954551807
 21
-79.00000000000182
 31
0.0
  0
LINE
  5
26E4
330
2E46
100
AcDbEntity
  8
0
 62
     0
100
AcDbLine
 10
-411.5000000000051
 20
-603.0601920995231
 30
0.0
 11
195.6999999999933
 21
-198.2612257662258
 31
0.0
  0
LINE
  5
26E5
330
2E46
100
AcDbEntity
  8
0
 62
     0
100
AcDbLine
 10
195.6999999999952
 20
-195.2612592308087
 30
0.0
 11
370.0923341612943
 21
-79.00000000000365
 31
0.0
  0
LINE
  5
26E6
330
2E46
100
AcDbEntity
  8
0
 62
     0
100
AcDbLine
 10
-411.5000000000051
 20
-600.060225564106
 30
0.0
 11
195.6999999999952
 21
-195.2612592308087
 31
0.0
  0
LINE
  5
26E7
330
2E46
100
AcDbEntity
  8
0
 62
     0
100
AcDbLine
 10
195.6999999999971
 20
-192.2612926953916
 30
0.0
 11
365.5923728674114
 21
-79.00000000000182
 31
0.0
  0
LINE
  5
26E8
330
2E46
100
AcDbEntity
  8
0
 62
     0
100
AcDbLine
 10
-411.5000000000051
 20
-597.0602590286888
 30
0.0
 11
195.6999999999952
 21
-192.2612926953916
 31
0.0
  0
LINE
  5
26E9
330
2E46
100
AcDbEntity
  8
0
 62
     0
100
AcDbLine
 10
195.6999999999952
 20
-189.2613261599745
 30
0.0
 11
361.0924115735234
 21
-79.00000000000182
 31
0.0
  0
LINE
  5
26EA
330
2E46
100
AcDbEntity
  8
0
 62
     0
100
AcDbLine
 10
-411.5000000000051
 20
-594.0602924932736
 30
0.0
 11
195.6999999999952
 21
-189.2613261599763
 31
0.0
  0
LINE
  5
26EB
330
2E46
100
AcDbEntity
  8
0
 62
     0
100
AcDbLine
 10
195.6999999999971
 20
-186.2613596245591
 30
0.0
 11
356.5924502796424
 21
-79.00000000000182
 31
0.0
  0
LINE
  5
26EC
330
2E46
100
AcDbEntity
  8
0
 62
     0
100
AcDbLine
 10
-411.5000000000051
 20
-591.0603259578583
 30
0.0
 11
195.6999999999952
 21
-186.261359624561
 31
0.0
  0
LINE
  5
26ED
330
2E46
100
AcDbEntity
  8
0
 62
     0
100
AcDbLine
 10
195.6999999999971
 20
-183.2613930891421
 30
0.0
 11
352.0924889857543
 21
-79.0
 31
0.0
  0
LINE
  5
26EE
330
2E46
100
AcDbEntity
  8
0
 62
     0
100
AcDbLine
 10
-411.5000000000051
 20
-588.0603594224412
 30
0.0
 11
195.6999999999952
 21
-183.2613930891438
 31
0.0
  0
LINE
  5
26EF
330
2E46
100
AcDbEntity
  8
0
 62
     0
100
AcDbLine
 10
195.6999999999952
 20
-180.2614265537268
 30
0.0
 11
347.5925276918679
 21
-79.00000000000182
 31
0.0
  0
LINE
  5
26F0
330
2E46
100
AcDbEntity
  8
0
 62
     0
100
AcDbLine
 10
-411.5000000000073
 20
-585.0603928870259
 30
0.0
 11
195.6999999999916
 21
-180.2614265537286
 31
0.0
  0
LINE
  5
26F1
330
2E46
100
AcDbEntity
  8
0
 62
     0
100
AcDbLine
 10
195.6999999999952
 20
-177.2614600183096
 30
0.0
 11
343.0925663979833
 21
-79.00000000000182
 31
0.0
  0
LINE
  5
26F2
330
2E46
100
AcDbEntity
  8
0
 62
     0
100
AcDbLine
 10
-411.5000000000051
 20
-582.0604263516087
 30
0.0
 11
195.6999999999933
 21
-177.2614600183115
 31
0.0
  0
LINE
  5
26F3
330
2E46
100
AcDbEntity
  8
0
 62
     0
100
AcDbLine
 10
195.6999999999952
 20
-174.2614934828943
 30
0.0
 11
338.5926051040952
 21
-79.00000000000365
 31
0.0
  0
LINE
  5
26F4
330
2E46
100
AcDbEntity
  8
0
 62
     0
100
AcDbLine
 10
-411.5000000000073
 20
-579.0604598161936
 30
0.0
 11
195.6999999999916
 21
-174.261493482898
 31
0.0
  0
LINE
  5
26F5
330
2E46
100
AcDbEntity
  8
0
 62
     0
100
AcDbLine
 10
195.6999999999933
 20
-171.261526947479
 30
0.0
 11
334.0926438102106
 21
-79.00000000000182
 31
0.0
  0
LINE
  5
26F6
330
2E46
100
AcDbEntity
  8
0
 62
     0
100
AcDbLine
 10
-411.5000000000073
 20
-576.0604932807763
 30
0.0
 11
195.6999999999916
 21
-171.2615269474808
 31
0.0
  0
LINE
  5
26F7
330
2E46
100
AcDbEntity
  8
0
 62
     0
100
AcDbLine
 10
195.6999999999952
 20
-168.2615604120637
 30
0.0
 11
329.592682516326
 21
-79.00000000000182
 31
0.0
  0
LINE
  5
26F8
330
2E46
100
AcDbEntity
  8
0
 62
     0
100
AcDbLine
 10
-411.5000000000051
 20
-573.060526745361
 30
0.0
 11
195.6999999999916
 21
-168.2615604120656
 31
0.0
  0
LINE
  5
26F9
330
2E46
100
AcDbEntity
  8
0
 62
     0
100
AcDbLine
 10
195.6999999999933
 20
-165.2615938766466
 30
0.0
 11
325.0927212224397
 21
-79.00000000000182
 31
0.0
  0
LINE
  5
26FA
330
2E46
100
AcDbEntity
  8
0
 62
     0
100
AcDbLine
 10
-411.5000000000051
 20
-570.060560209944
 30
0.0
 11
195.6999999999916
 21
-165.2615938766466
 31
0.0
  0
LINE
  5
26FB
330
2E46
100
AcDbEntity
  8
0
 62
     0
100
AcDbLine
 10
195.6999999999952
 20
-162.2616273412295
 30
0.0
 11
320.5927599285532
 21
-79.00000000000182
 31
0.0
  0
LINE
  5
26FC
330
2E46
100
AcDbEntity
  8
0
 62
     0
100
AcDbLine
 10
-411.5000000000051
 20
-567.0605936745269
 30
0.0
 11
195.6999999999933
 21
-162.2616273412295
 31
0.0
  0
LINE
  5
26FD
330
2E46
100
AcDbEntity
  8
0
 62
     0
100
AcDbLine
 10
195.6999999999933
 20
-159.2616608058142
 30
0.0
 11
316.0927986346668
 21
-79.00000000000365
 31
0.0
  0
LINE
  5
26FE
330
2E46
100
AcDbEntity
  8
0
 62
     0
100
AcDbLine
 10
-411.5000000000051
 20
-564.0606271391114
 30
0.0
 11
195.6999999999916
 21
-159.261660805816
 31
0.0
  0
LINE
  5
26FF
330
2E46
100
AcDbEntity
  8
0
 62
     0
100
AcDbLine
 10
195.6999999999952
 20
-156.2616942703989
 30
0.0
 11
311.5928373407842
 21
-79.00000000000365
 31
0.0
  0
LINE
  5
2700
330
2E46
100
AcDbEntity
  8
0
 62
     0
100
AcDbLine
 10
-411.5000000000051
 20
-561.0606606036963
 30
0.0
 11
195.6999999999933
 21
-156.2616942704007
 31
0.0
  0
LINE
  5
2701
330
2E46
100
AcDbEntity
  8
0
 62
     0
100
AcDbLine
 10
195.6999999999952
 20
-153.2617277349818
 30
0.0
 11
307.0928760468978
 21
-79.00000000000182
 31
0.0
  0
LINE
  5
2702
330
2E46
100
AcDbEntity
  8
0
 62
     0
100
AcDbLine
 10
-411.5000000000051
 20
-558.0606940682788
 30
0.0
 11
195.6999999999916
 21
-153.2617277349836
 31
0.0
  0
LINE
  5
2703
330
2E46
100
AcDbEntity
  8
0
 62
     0
100
AcDbLine
 10
195.6999999999952
 20
-150.2617611995647
 30
0.0
 11
302.5929147530114
 21
-79.00000000000182
 31
0.0
  0
LINE
  5
2704
330
2E46
100
AcDbEntity
  8
0
 62
     0
100
AcDbLine
 10
-411.5000000000073
 20
-555.0607275328617
 30
0.0
 11
195.6999999999916
 21
-150.2617611995665
 31
0.0
  0
LINE
  5
2705
330
2E46
100
AcDbEntity
  8
0
 62
     0
100
AcDbLine
 10
195.6999999999952
 20
-147.2617946641494
 30
0.0
 11
298.0929534591269
 21
-79.00000000000365
 31
0.0
  0
LINE
  5
2706
330
2E46
100
AcDbEntity
  8
0
 62
     0
100
AcDbLine
 10
-411.5000000000051
 20
-552.0607609974468
 30
0.0
 11
195.6999999999916
 21
-147.2617946641512
 31
0.0
  0
LINE
  5
2707
330
2E46
100
AcDbEntity
  8
0
 62
     0
100
AcDbLine
 10
195.6999999999952
 20
-144.2618281287323
 30
0.0
 11
293.5929921652405
 21
-79.00000000000182
 31
0.0
  0
LINE
  5
2708
330
2E46
100
AcDbEntity
  8
0
 62
     0
100
AcDbLine
 10
-411.5000000000073
 20
-549.0607944620314
 30
0.0
 11
195.6999999999916
 21
-144.2618281287341
 31
0.0
  0
LINE
  5
2709
330
2E46
100
AcDbEntity
  8
0
 62
     0
100
AcDbLine
 10
195.6999999999952
 20
-141.261861593317
 30
0.0
 11
289.093030871356
 21
-79.00000000000365
 31
0.0
  0
LINE
  5
270A
330
2E46
100
AcDbEntity
  8
0
 62
     0
100
AcDbLine
 10
-411.5000000000051
 20
-546.0608279266144
 30
0.0
 11
195.6999999999916
 21
-141.2618615933188
 31
0.0
  0
LINE
  5
270B
330
2E46
100
AcDbEntity
  8
0
 62
     0
100
AcDbLine
 10
195.6999999999952
 20
-138.2618950578998
 30
0.0
 11
284.5930695774697
 21
-79.00000000000182
 31
0.0
  0
LINE
  5
270C
330
2E46
100
AcDbEntity
  8
0
 62
     0
100
AcDbLine
 10
-411.5000000000073
 20
-543.060861391199
 30
0.0
 11
195.6999999999933
 21
-138.2618950579017
 31
0.0
  0
LINE
  5
270D
330
2E46
100
AcDbEntity
  8
0
 62
     0
100
AcDbLine
 10
195.6999999999952
 20
-135.2619285224846
 30
0.0
 11
280.093108283585
 21
-79.00000000000365
 31
0.0
  0
LINE
  5
270E
330
2E46
100
AcDbEntity
  8
0
 62
     0
100
AcDbLine
 10
-411.5000000000051
 20
-540.060894855782
 30
0.0
 11
195.6999999999933
 21
-135.2619285224864
 31
0.0
  0
LINE
  5
270F
330
2E46
100
AcDbEntity
  8
0
 62
     0
100
AcDbLine
 10
195.6999999999952
 20
-132.2619619870675
 30
0.0
 11
275.5931469896968
 21
-79.00000000000365
 31
0.0
  0
LINE
  5
2710
330
2E46
100
AcDbEntity
  8
0
 62
     0
100
AcDbLine
 10
-411.5000000000051
 20
-537.0609283203648
 30
0.0
 11
195.6999999999933
 21
-132.2619619870693
 31
0.0
  0
LINE
  5
2711
330
2E46
100
AcDbEntity
  8
0
 62
     0
100
AcDbLine
 10
195.6999999999933
 20
-129.2619954516522
 30
0.0
 11
271.0931856958123
 21
-79.00000000000365
 31
0.0
  0
LINE
  5
2712
330
2E46
100
AcDbEntity
  8
0
 62
     0
100
AcDbLine
 10
-411.5000000000073
 20
-534.0609617849497
 30
0.0
 11
195.6999999999916
 21
-129.261995451654
 31
0.0
  0
LINE
  5
2713
330
2E46
100
AcDbEntity
  8
0
 62
     0
100
AcDbLine
 10
195.6999999999952
 20
-126.2620289162369
 30
0.0
 11
266.5932244019259
 21
-79.00000000000365
 31
0.0
  0
LINE
  5
2714
330
2E46
100
AcDbEntity
  8
0
 62
     0
100
AcDbLine
 10
-411.5000000000051
 20
-531.0609952495342
 30
0.0
 11
195.6999999999933
 21
-126.2620289162369
 31
0.0
  0
LINE
  5
2715
330
2E46
100
AcDbEntity
  8
0
 62
     0
100
AcDbLine
 10
195.6999999999933
 20
-123.2620623808198
 30
0.0
 11
262.0932631080413
 21
-79.00000000000182
 31
0.0
  0
LINE
  5
2716
330
2E46
100
AcDbEntity
  8
0
 62
     0
100
AcDbLine
 10
-411.5000000000073
 20
-528.0610287141171
 30
0.0
 11
195.6999999999916
 21
-123.2620623808198
 31
0.0
  0
LINE
  5
2717
330
2E46
100
AcDbEntity
  8
0
 62
     0
100
AcDbLine
 10
195.6999999999952
 20
-120.2620958454026
 30
0.0
 11
257.593301814155
 21
-79.00000000000365
 31
0.0
  0
LINE
  5
2718
330
2E46
100
AcDbEntity
  8
0
 62
     0
100
AcDbLine
 10
-411.5000000000051
 20
-525.0610621787018
 30
0.0
 11
195.6999999999933
 21
-120.2620958454045
 31
0.0
  0
LINE
  5
2719
330
2E46
100
AcDbEntity
  8
0
 62
     0
100
AcDbLine
 10
195.6999999999952
 20
-117.2621293099873
 30
0.0
 11
253.0933405202704
 21
-79.00000000000365
 31
0.0
  0
LINE
  5
271A
330
2E46
100
AcDbEntity
  8
0
 62
     0
100
AcDbLine
 10
-411.5000000000073
 20
-522.0610956432865
 30
0.0
 11
195.6999999999916
 21
-117.2621293099892
 31
0.0
  0
LINE
  5
271B
330
2E46
100
AcDbEntity
  8
0
 62
     0
100
AcDbLine
 10
195.6999999999933
 20
-114.2621627745702
 30
0.0
 11
248.593379226384
 21
-79.00000000000182
 31
0.0
  0
LINE
  5
271C
330
2E46
100
AcDbEntity
  8
0
 62
     0
100
AcDbLine
 10
-411.5000000000073
 20
-519.0611291078694
 30
0.0
 11
195.6999999999916
 21
-114.262162774572
 31
0.0
  0
LINE
  5
271D
330
2E46
100
AcDbEntity
  8
0
 62
     0
100
AcDbLine
 10
195.6999999999952
 20
-111.2621962391531
 30
0.0
 11
244.0934179324995
 21
-79.00000000000182
 31
0.0
  0
LINE
  5
271E
330
2E46
100
AcDbEntity
  8
0
 62
     0
100
AcDbLine
 10
-411.5000000000073
 20
-516.0611625724523
 30
0.0
 11
195.6999999999933
 21
-111.2621962391549
 31
0.0
  0
LINE
  5
271F
330
2E46
100
AcDbEntity
  8
0
 62
     0
100
AcDbLine
 10
195.6999999999933
 20
-108.2622297037396
 30
0.0
 11
239.5934566386131
 21
-79.00000000000182
 31
0.0
  0
LINE
  5
2720
330
2E46
100
AcDbEntity
  8
0
 62
     0
100
AcDbLine
 10
-411.5000000000051
 20
-513.0611960370369
 30
0.0
 11
195.6999999999916
 21
-108.2622297037396
 31
0.0
  0
LINE
  5
2721
330
2E46
100
AcDbEntity
  8
0
 62
     0
100
AcDbLine
 10
195.6999999999952
 20
-105.2622631683225
 30
0.0
 11
235.0934953447286
 21
-79.00000000000182
 31
0.0
  0
LINE
  5
2722
330
2E46
100
AcDbEntity
  8
0
 62
     0
100
AcDbLine
 10
-411.5000000000051
 20
-510.0612295016197
 30
0.0
 11
195.6999999999933
 21
-105.2622631683225
 31
0.0
  0
LINE
  5
2723
330
2E46
100
AcDbEntity
  8
0
 62
     0
100
AcDbLine
 10
195.6999999999933
 20
-102.2622966329072
 30
0.0
 11
230.5935340508422
 21
-79.00000000000365
 31
0.0
  0
LINE
  5
2724
330
2E46
100
AcDbEntity
  8
0
 62
     0
100
AcDbLine
 10
-411.5000000000051
 20
-507.0612629662045
 30
0.0
 11
195.6999999999916
 21
-102.2622966329072
 31
0.0
  0
LINE
  5
2725
330
2E46
100
AcDbEntity
  8
0
 62
     0
100
AcDbLine
 10
195.6999999999933
 20
-99.26233009749012
 30
0.0
 11
226.0935727569558
 21
-79.00000000000182
 31
0.0
  0
LINE
  5
2726
330
2E46
100
AcDbEntity
  8
0
 62
     0
100
AcDbLine
 10
-411.5000000000073
 20
-504.0612964307872
 30
0.0
 11
195.6999999999916
 21
-99.26233009749012
 31
0.0
  0
LINE
  5
2727
330
2E46
100
AcDbEntity
  8
0
 62
     0
100
AcDbLine
 10
195.6999999999933
 20
-96.26236356207479
 30
0.0
 11
221.5936114630713
 21
-79.00000000000365
 31
0.0
  0
LINE
  5
2728
330
2E46
100
AcDbEntity
  8
0
 62
     0
100
AcDbLine
 10
-411.5000000000051
 20
-501.061329895372
 30
0.0
 11
195.6999999999916
 21
-96.26236356207664
 31
0.0
  0
LINE
  5
2729
330
2E46
100
AcDbEntity
  8
0
 62
     0
100
AcDbLine
 10
195.6999999999952
 20
-93.26239702665771
 30
0.0
 11
217.0936501691849
 21
-79.00000000000365
 31
0.0
  0
LINE
  5
272A
330
2E46
100
AcDbEntity
  8
0
 62
     0
100
AcDbLine
 10
-411.5000000000073
 20
-498.061363359955
 30
0.0
 11
195.6999999999916
 21
-93.26239702665951
 31
0.0
  0
LINE
  5
272B
330
2E46
100
AcDbEntity
  8
0
 62
     0
100
AcDbLine
 10
195.6999999999952
 20
-90.26243049124241
 30
0.0
 11
212.5936888753003
 21
-79.00000000000365
 31
0.0
  0
LINE
  5
272C
330
2E46
100
AcDbEntity
  8
0
 62
     0
100
AcDbLine
 10
-411.5000000000051
 20
-495.0613968245398
 30
0.0
 11
195.6999999999933
 21
-90.26243049124241
 31
0.0
  0
LINE
  5
272D
330
2E46
100
AcDbEntity
  8
0
 62
     0
100
AcDbLine
 10
195.6999999999952
 20
-87.2624639558253
 30
0.0
 11
208.093727581414
 21
-79.00000000000365
 31
0.0
  0
LINE
  5
272E
330
2E46
100
AcDbEntity
  8
0
 62
     0
100
AcDbLine
 10
-411.5000000000073
 20
-492.0614302891226
 30
0.0
 11
195.6999999999916
 21
-87.26246395582711
 31
0.0
  0
LINE
  5
272F
330
2E46
100
AcDbEntity
  8
0
 62
     0
100
AcDbLine
 10
195.6999999999952
 20
-84.2624974204082
 30
0.0
 11
203.5937662875276
 21
-79.00000000000182
 31
0.0
  0
LINE
  5
2730
330
2E46
100
AcDbEntity
  8
0
 62
     0
100
AcDbLine
 10
-411.5000000000051
 20
-489.0614637537055
 30
0.0
 11
195.6999999999933
 21
-84.2624974204082
 31
0.0
  0
LINE
  5
2731
330
2E46
100
AcDbEntity
  8
0
 62
     0
100
AcDbLine
 10
195.6999999999952
 20
-81.26253088499288
 30
0.0
 11
199.093804993643
 21
-79.00000000000365
 31
0.0
  0
LINE
  5
2732
330
2E46
100
AcDbEntity
  8
0
 62
     0
100
AcDbLine
 10
-411.5000000000051
 20
-486.0614972182902
 30
0.0
 11
195.6999999999933
 21
-81.26253088499288
 31
0.0
  0
LINE
  5
2733
330
2E46
100
AcDbEntity
  8
0
 62
     0
100
AcDbLine
 10
-411.5000000000073
 20
-483.0615306828748
 30
0.0
 11
194.5938436997567
 21
-79.00000000000365
 31
0.0
  0
LINE
  5
2734
330
2E46
100
AcDbEntity
  8
0
 62
     0
100
AcDbLine
 10
-411.5000000000051
 20
-480.0615641474577
 30
0.0
 11
190.0938824058739
 21
-79.00000000000182
 31
0.0
  0
LINE
  5
2735
330
2E46
100
AcDbEntity
  8
0
 62
     0
100
AcDbLine
 10
-411.5000000000073
 20
-477.0615976120406
 30
0.0
 11
185.5939211119857
 21
-79.00000000000182
 31
0.0
  0
LINE
  5
2736
330
2E46
100
AcDbEntity
  8
0
 62
     0
100
AcDbLine
 10
-411.5000000000051
 20
-474.0616310766254
 30
0.0
 11
181.093959818103
 21
-79.00000000000182
 31
0.0
  0
LINE
  5
2737
330
2E46
100
AcDbEntity
  8
0
 62
     0
100
AcDbLine
 10
-411.5000000000073
 20
-471.0616645412101
 30
0.0
 11
176.5939985242148
 21
-79.00000000000182
 31
0.0
  0
LINE
  5
2738
330
2E46
100
AcDbEntity
  8
0
 62
     0
100
AcDbLine
 10
-411.5000000000051
 20
-468.0616980057948
 30
0.0
 11
172.0940372303303
 21
-79.00000000000365
 31
0.0
  0
LINE
  5
2739
330
2E46
100
AcDbEntity
  8
0
 62
     0
100
AcDbLine
 10
-411.5000000000073
 20
-465.0617314703776
 30
0.0
 11
167.5940759364439
 21
-79.00000000000182
 31
0.0
  0
LINE
  5
273A
330
2E46
100
AcDbEntity
  8
0
 62
     0
100
AcDbLine
 10
-411.5000000000073
 20
-462.0617649349624
 30
0.0
 11
163.0941146425575
 21
-79.00000000000365
 31
0.0
  0
LINE
  5
273B
330
2E46
100
AcDbEntity
  8
0
 62
     0
100
AcDbLine
 10
-411.5000000000073
 20
-459.0617983995453
 30
0.0
 11
158.594153348673
 21
-79.00000000000182
 31
0.0
  0
LINE
  5
273C
330
2E46
100
AcDbEntity
  8
0
 62
     0
100
AcDbLine
 10
-411.5000000000073
 20
-456.0618318641297
 30
0.0
 11
154.0941920547866
 21
-79.00000000000365
 31
0.0
  0
LINE
  5
273D
330
2E46
100
AcDbEntity
  8
0
 62
     0
100
AcDbLine
 10
-411.5000000000073
 20
-453.0618653287127
 30
0.0
 11
149.5942307609002
 21
-79.00000000000365
 31
0.0
  0
LINE
  5
273E
330
2E46
100
AcDbEntity
  8
0
 62
     0
100
AcDbLine
 10
-411.5000000000051
 20
-450.0618987932973
 30
0.0
 11
145.0942694670157
 21
-79.00000000000365
 31
0.0
  0
LINE
  5
273F
330
2E46
100
AcDbEntity
  8
0
 62
     0
100
AcDbLine
 10
-411.5000000000073
 20
-447.0619322578804
 30
0.0
 11
140.5943081731292
 21
-79.00000000000365
 31
0.0
  0
LINE
  5
2740
330
2E46
100
AcDbEntity
  8
0
 62
     0
100
AcDbLine
 10
-411.5000000000051
 20
-444.0619657224651
 30
0.0
 11
136.0943468792466
 21
-79.00000000000365
 31
0.0
  0
LINE
  5
2741
330
2E46
100
AcDbEntity
  8
0
 62
     0
100
AcDbLine
 10
-411.5000000000073
 20
-441.061999187048
 30
0.0
 11
131.5943855853602
 21
-79.00000000000182
 31
0.0
  0
LINE
  5
2742
330
2E46
100
AcDbEntity
  8
0
 62
     0
100
AcDbLine
 10
-411.5000000000051
 20
-438.0620326516307
 30
0.0
 11
127.0944242914756
 21
-79.00000000000182
 31
0.0
  0
LINE
  5
2743
330
2E46
100
AcDbEntity
  8
0
 62
     0
100
AcDbLine
 10
-411.5000000000073
 20
-435.0620661162156
 30
0.0
 11
122.5944629975893
 21
-79.00000000000365
 31
0.0
  0
LINE
  5
2744
330
2E46
100
AcDbEntity
  8
0
 62
     0
100
AcDbLine
 10
-411.5000000000073
 20
-432.0620995807983
 30
0.0
 11
118.0945017037029
 21
-79.00000000000182
 31
0.0
  0
LINE
  5
2745
330
2E46
100
AcDbEntity
  8
0
 62
     0
100
AcDbLine
 10
-411.5000000000073
 20
-429.0621330453832
 30
0.0
 11
113.5945404098183
 21
-79.00000000000365
 31
0.0
  0
LINE
  5
2746
330
2E46
100
AcDbEntity
  8
0
 62
     0
100
AcDbLine
 10
-411.5000000000073
 20
-426.0621665099661
 30
0.0
 11
109.094579115932
 21
-79.00000000000182
 31
0.0
  0
LINE
  5
2747
330
2E46
100
AcDbEntity
  8
0
 62
     0
100
AcDbLine
 10
-411.5000000000051
 20
-423.0621999745507
 30
0.0
 11
104.5946178220474
 21
-79.00000000000365
 31
0.0
  0
LINE
  5
2748
330
2E46
100
AcDbEntity
  8
0
 62
     0
100
AcDbLine
 10
-411.5000000000073
 20
-420.0622334391336
 30
0.0
 11
100.094656528161
 21
-79.00000000000182
 31
0.0
  0
LINE
  5
2749
330
2E46
100
AcDbEntity
  8
0
 62
     0
100
AcDbLine
 10
-411.5000000000051
 20
-417.0622669037183
 30
0.0
 11
95.59469523427653
 21
-79.00000000000365
 31
0.0
  0
LINE
  5
274A
330
2E46
100
AcDbEntity
  8
0
 62
     0
100
AcDbLine
 10
-411.5000000000073
 20
-414.0623003683011
 30
0.0
 11
91.09473394039014
 21
-79.00000000000182
 31
0.0
  0
LINE
  5
274B
330
2E46
100
AcDbEntity
  8
0
 62
     0
100
AcDbLine
 10
-411.5000000000073
 20
-411.062333832886
 30
0.0
 11
86.59477264650377
 21
-79.00000000000365
 31
0.0
  0
LINE
  5
274C
330
2E46
100
AcDbEntity
  8
0
 62
     0
100
AcDbLine
 10
-411.5000000000073
 20
-408.0623672974707
 30
0.0
 11
82.09481135261922
 21
-79.00000000000365
 31
0.0
  0
LINE
  5
274D
330
2E46
100
AcDbEntity
  8
0
 62
     0
100
AcDbLine
 10
-411.5000000000073
 20
-405.0624007620553
 30
0.0
 11
77.59485005873283
 21
-79.00000000000365
 31
0.0
  0
LINE
  5
274E
330
2E46
100
AcDbEntity
  8
0
 62
     0
100
AcDbLine
 10
-411.5000000000073
 20
-402.0624342266382
 30
0.0
 11
73.09488876485011
 21
-79.00000000000182
 31
0.0
  0
LINE
  5
274F
330
2E46
100
AcDbEntity
  8
0
 62
     0
100
AcDbLine
 10
-411.5000000000051
 20
-399.0624676912194
 30
0.0
 11
68.59492747096192
 21
-79.00000000000182
 31
0.0
  0
LINE
  5
2750
330
2E46
100
AcDbEntity
  8
0
 62
     0
100
AcDbLine
 10
-411.5000000000073
 20
-396.0625011558041
 30
0.0
 11
64.09496617707553
 21
-79.00000000000365
 31
0.0
  0
LINE
  5
2751
330
2E46
100
AcDbEntity
  8
0
 62
     0
100
AcDbLine
 10
-411.5000000000051
 20
-393.062534620387
 30
0.0
 11
59.59500488319282
 21
-79.00000000000182
 31
0.0
  0
LINE
  5
2752
330
2E46
100
AcDbEntity
  8
0
 62
     0
100
AcDbLine
 10
-411.5000000000073
 20
-390.0625680849735
 30
0.0
 11
55.09504358930461
 21
-79.00000000000365
 31
0.0
  0
LINE
  5
2753
330
2E46
100
AcDbEntity
  8
0
 62
     0
100
AcDbLine
 10
-411.5000000000051
 20
-387.0626015495563
 30
0.0
 11
50.59508229542188
 21
-79.00000000000182
 31
0.0
  0
LINE
  5
2754
330
2E46
100
AcDbEntity
  8
0
 62
     0
100
AcDbLine
 10
-411.5000000000073
 20
-384.0626350141409
 30
0.0
 11
46.09512100153369
 21
-79.00000000000365
 31
0.0
  0
LINE
  5
2755
330
2E46
100
AcDbEntity
  8
0
 62
     0
100
AcDbLine
 10
-411.5000000000073
 20
-381.0626684787239
 30
0.0
 11
41.59515970764913
 21
-79.00000000000182
 31
0.0
  0
LINE
  5
2756
330
2E46
100
AcDbEntity
  8
0
 62
     0
100
AcDbLine
 10
-411.5000000000073
 20
-378.0627019433087
 30
0.0
 11
37.09519841376277
 21
-79.00000000000365
 31
0.0
  0
LINE
  5
2757
330
2E46
100
AcDbEntity
  8
0
 62
     0
100
AcDbLine
 10
-411.5000000000073
 20
-375.0627354078915
 30
0.0
 11
32.59523711987822
 21
-79.00000000000182
 31
0.0
  0
LINE
  5
2758
330
2E46
100
AcDbEntity
  8
0
 62
     0
100
AcDbLine
 10
-411.5000000000051
 20
-372.0627688724743
 30
0.0
 11
28.09527582599185
 21
-79.00000000000182
 31
0.0
  0
LINE
  5
2759
330
2E46
100
AcDbEntity
  8
0
 62
     0
100
AcDbLine
 10
-411.5000000000073
 20
-369.0628023370591
 30
0.0
 11
23.59531453210729
 21
-79.00000000000365
 31
0.0
  0
LINE
  5
275A
330
2E46
100
AcDbEntity
  8
0
 62
     0
100
AcDbLine
 10
-411.5000000000051
 20
-366.0628358016438
 30
0.0
 11
19.09535323822272
 21
-79.00000000000365
 31
0.0
  0
LINE
  5
275B
330
2E46
100
AcDbEntity
  8
0
 62
     0
100
AcDbLine
 10
-411.5000000000073
 20
-363.0628692662266
 30
0.0
 11
14.59539194433637
 21
-79.00000000000182
 31
0.0
  0
LINE
  5
275C
330
2E46
100
AcDbEntity
  8
0
 62
     0
100
AcDbLine
 10
-411.5000000000073
 20
-360.0629027308096
 30
0.0
 11
10.09543065045
 21
-79.00000000000182
 31
0.0
  0
LINE
  5
275D
330
2E46
100
AcDbEntity
  8
0
 62
     0
100
AcDbLine
 10
-411.5000000000073
 20
-357.0629361953943
 30
0.0
 11
5.595469356565445
 21
-79.00000000000365
 31
0.0
  0
LINE
  5
275E
330
2E46
100
AcDbEntity
  8
0
 62
     0
100
AcDbLine
 10
-411.5000000000073
 20
-354.0629696599773
 30
0.0
 11
1.095508062679072
 21
-79.00000000000182
 31
0.0
  0
LINE
  5
275F
330
2E46
100
AcDbEntity
  8
0
 62
     0
100
AcDbLine
 10
-411.5000000000051
 20
-351.0630031245618
 30
0.0
 11
-3.404453231205478
 21
-79.00000000000365
 31
0.0
  0
LINE
  5
2760
330
2E46
100
AcDbEntity
  8
0
 62
     0
100
AcDbLine
 10
-411.5000000000073
 20
-348.0630365891447
 30
0.0
 11
-7.904414525091849
 21
-79.00000000000182
 31
0.0
  0
LINE
  5
2761
330
2E46
100
AcDbEntity
  8
0
 62
     0
100
AcDbLine
 10
-411.5000000000051
 20
-345.0630700537295
 30
0.0
 11
-12.4043758189764
 21
-79.00000000000365
 31
0.0
  0
LINE
  5
2762
330
2E46
100
AcDbEntity
  8
0
 62
     0
100
AcDbLine
 10
-411.5000000000051
 20
-342.0631035183124
 30
0.0
 11
-16.90433711286277
 21
-79.00000000000182
 31
0.0
  0
LINE
  5
2763
330
2E46
100
AcDbEntity
  8
0
 62
     0
100
AcDbLine
 10
-411.5000000000073
 20
-339.063136982897
 30
0.0
 11
-21.40429840674915
 21
-79.00000000000365
 31
0.0
  0
LINE
  5
2764
330
2E46
100
AcDbEntity
  8
0
 62
     0
100
AcDbLine
 10
-411.5000000000051
 20
-336.0631704474799
 30
0.0
 11
-25.9042597006337
 21
-79.00000000000182
 31
0.0
  0
LINE
  5
2765
330
2E46
100
AcDbEntity
  8
0
 62
     0
100
AcDbLine
 10
-411.5000000000073
 20
-333.0632039120628
 30
0.0
 11
-30.40422099452007
 21
-79.00000000000182
 31
0.0
  0
LINE
  5
2766
330
2E46
100
AcDbEntity
  8
0
 62
     0
100
AcDbLine
 10
-411.5000000000073
 20
-330.0632373766475
 30
0.0
 11
-34.90418228840645
 21
-79.00000000000182
 31
0.0
  0
LINE
  5
2767
330
2E46
100
AcDbEntity
  8
0
 62
     0
100
AcDbLine
 10
-411.5000000000073
 20
-327.063270841234
 30
0.0
 11
-39.40414358228918
 21
-79.00000000000365
 31
0.0
  0
LINE
  5
2768
330
2E46
100
AcDbEntity
  8
0
 62
     0
100
AcDbLine
 10
-411.5000000000073
 20
-324.0633043058151
 30
0.0
 11
-43.90410487617553
 21
-79.00000000000182
 31
0.0
  0
LINE
  5
2769
330
2E46
100
AcDbEntity
  8
0
 62
     0
100
AcDbLine
 10
-411.5000000000073
 20
-321.0633377703998
 30
0.0
 11
-48.4040661700601
 21
-79.00000000000182
 31
0.0
  0
LINE
  5
276A
330
2E46
100
AcDbEntity
  8
0
 62
     0
100
AcDbLine
 10
-411.5000000000073
 20
-318.0633712349827
 30
0.0
 11
-52.90402746394828
 21
-79.00000000000365
 31
0.0
  0
LINE
  5
276B
330
2E46
100
AcDbEntity
  8
0
 62
     0
100
AcDbLine
 10
-411.5000000000051
 20
-315.0634046995674
 30
0.0
 11
-57.40398875783103
 21
-79.00000000000365
 31
0.0
  0
LINE
  5
276C
330
2E46
100
AcDbEntity
  8
0
 62
     0
100
AcDbLine
 10
-411.5000000000073
 20
-312.0634381641521
 30
0.0
 11
-61.90395005171922
 21
-79.00000000000365
 31
0.0
  0
LINE
  5
276D
330
2E46
100
AcDbEntity
  8
0
 62
     0
100
AcDbLine
 10
-411.5000000000073
 20
-309.0634716287349
 30
0.0
 11
-66.40391134560378
 21
-79.00000000000182
 31
0.0
  0
LINE
  5
276E
330
2E46
100
AcDbEntity
  8
0
 62
     0
100
AcDbLine
 10
-411.5000000000073
 20
-306.0635050933197
 30
0.0
 11
-70.90387263949016
 21
-79.00000000000365
 31
0.0
  0
LINE
  5
276F
330
2E46
100
AcDbEntity
  8
0
 62
     0
100
AcDbLine
 10
-411.5000000000073
 20
-303.0635385579026
 30
0.0
 11
-75.4038339333747
 21
-79.00000000000182
 31
0.0
  0
LINE
  5
2770
330
2E46
100
AcDbEntity
  8
0
 62
     0
100
AcDbLine
 10
-411.5000000000073
 20
-300.0635720224873
 30
0.0
 11
-79.90379522726107
 21
-79.00000000000365
 31
0.0
  0
LINE
  5
2771
330
2E46
100
AcDbEntity
  8
0
 62
     0
100
AcDbLine
 10
-411.5000000000051
 20
-297.0636054870682
 30
0.0
 11
-84.40375652114562
 21
-79.00000000000182
 31
0.0
  0
LINE
  5
2772
330
2E46
100
AcDbEntity
  8
0
 62
     0
100
AcDbLine
 10
-411.5000000000073
 20
-294.0636389516529
 30
0.0
 11
-88.90371781503198
 21
-79.00000000000182
 31
0.0
  0
LINE
  5
2773
330
2E46
100
AcDbEntity
  8
0
 62
     0
100
AcDbLine
 10
-411.5000000000051
 20
-291.0636724162377
 30
0.0
 11
-93.40367910891655
 21
-79.00000000000182
 31
0.0
  0
LINE
  5
2774
330
2E46
100
AcDbEntity
  8
0
 62
     0
100
AcDbLine
 10
-411.5000000000073
 20
-288.0637058808225
 30
0.0
 11
-97.90364040280293
 21
-79.00000000000365
 31
0.0
  0
LINE
  5
2775
330
2E46
100
AcDbEntity
  8
0
 62
     0
100
AcDbLine
 10
-411.5000000000051
 20
-285.0637393454054
 30
0.0
 11
-102.4036016966856
 21
-79.00000000000182
 31
0.0
  0
LINE
  5
2776
330
2E46
100
AcDbEntity
  8
0
 62
     0
100
AcDbLine
 10
-411.5000000000073
 20
-282.0637728099882
 30
0.0
 11
-106.9035629905738
 21
-79.00000000000182
 31
0.0
  0
LINE
  5
2777
330
2E46
100
AcDbEntity
  8
0
 62
     0
100
AcDbLine
 10
-411.5000000000051
 20
-279.0638062745729
 30
0.0
 11
-111.4035242844584
 21
-79.00000000000365
 31
0.0
  0
LINE
  5
2778
330
2E46
100
AcDbEntity
  8
0
 62
     0
100
AcDbLine
 10
-411.5000000000073
 20
-276.0638397391576
 30
0.0
 11
-115.9034855783448
 21
-79.00000000000365
 31
0.0
  0
LINE
  5
2779
330
2E46
100
AcDbEntity
  8
0
 62
     0
100
AcDbLine
 10
-411.5000000000073
 20
-273.0638732037405
 30
0.0
 11
-120.4034468722311
 21
-79.00000000000365
 31
0.0
  0
LINE
  5
277A
330
2E46
100
AcDbEntity
  8
0
 62
     0
100
AcDbLine
 10
-411.5000000000051
 20
-270.0639066683234
 30
0.0
 11
-124.9034081661138
 21
-79.0
 31
0.0
  0
LINE
  5
277B
330
2E46
100
AcDbEntity
  8
0
 62
     0
100
AcDbLine
 10
-411.5000000000073
 20
-267.0639401329081
 30
0.0
 11
-129.4033694600002
 21
-79.00000000000182
 31
0.0
  0
LINE
  5
277C
330
2E46
100
AcDbEntity
  8
0
 62
     0
100
AcDbLine
 10
-411.5000000000051
 20
-264.063973597491
 30
0.0
 11
-133.9033307538866
 21
-79.00000000000182
 31
0.0
  0
LINE
  5
277D
330
2E46
100
AcDbEntity
  8
0
 62
     0
100
AcDbLine
 10
-411.5000000000073
 20
-261.0640070620757
 30
0.0
 11
-138.403292047773
 21
-79.00000000000365
 31
0.0
  0
LINE
  5
277E
330
2E46
100
AcDbEntity
  8
0
 62
     0
100
AcDbLine
 10
-411.5000000000073
 20
-258.0640405266586
 30
0.0
 11
-142.9032533416574
 21
-79.00000000000182
 31
0.0
  0
LINE
  5
277F
330
2E46
100
AcDbEntity
  8
0
 62
     0
100
AcDbLine
 10
-411.5000000000073
 20
-255.0640739912414
 30
0.0
 11
-147.4032146355421
 21
-79.0
 31
0.0
  0
LINE
  5
2780
330
2E46
100
AcDbEntity
  8
0
 62
     0
100
AcDbLine
 10
-411.5000000000073
 20
-252.0641074558262
 30
0.0
 11
-151.9031759294302
 21
-79.00000000000182
 31
0.0
  0
LINE
  5
2781
330
2E46
100
AcDbEntity
  8
0
 62
     0
100
AcDbLine
 10
-411.5000000000073
 20
-249.0641409204127
 30
0.0
 11
-156.4031372233112
 21
-79.00000000000182
 31
0.0
  0
LINE
  5
2782
330
2E46
100
AcDbEntity
  8
0
 62
     0
100
AcDbLine
 10
-411.5000000000073
 20
-246.0641743849956
 30
0.0
 11
-160.9030985171994
 21
-79.00000000000182
 31
0.0
  0
LINE
  5
2783
330
2E46
100
AcDbEntity
  8
0
 62
     0
100
AcDbLine
 10
-411.5000000000051
 20
-243.0642078495766
 30
0.0
 11
-165.4030598110838
 21
-79.00000000000182
 31
0.0
  0
LINE
  5
2784
330
2E46
100
AcDbEntity
  8
0
 62
     0
100
AcDbLine
 10
-411.5000000000073
 20
-240.0642413141631
 30
0.0
 11
-169.9030211049721
 21
-79.00000000000365
 31
0.0
  0
LINE
  5
2785
330
2E46
100
AcDbEntity
  8
0
 62
     0
100
AcDbLine
 10
-411.5000000000073
 20
-237.064274778746
 30
0.0
 11
-174.4029823988548
 21
-79.00000000000182
 31
0.0
  0
LINE
  5
2786
330
2E46
100
AcDbEntity
  8
0
 62
     0
100
AcDbLine
 10
-411.5000000000051
 20
-234.0643082433289
 30
0.0
 11
-178.9029436927412
 21
-79.00000000000182
 31
0.0
  0
LINE
  5
2787
330
2E46
100
AcDbEntity
  8
0
 62
     0
100
AcDbLine
 10
-411.5000000000073
 20
-231.0643417079136
 30
0.0
 11
-183.4029049866276
 21
-79.00000000000182
 31
0.0
  0
LINE
  5
2788
330
2E46
100
AcDbEntity
  8
0
 62
     0
100
AcDbLine
 10
-411.5000000000051
 20
-228.0643751724984
 30
0.0
 11
-187.902866280514
 21
-79.00000000000365
 31
0.0
  0
LINE
  5
2789
330
2E46
100
AcDbEntity
  8
0
 62
     0
100
AcDbLine
 10
-411.5000000000073
 20
-225.0644086370812
 30
0.0
 11
-192.4028275744003
 21
-79.00000000000365
 31
0.0
  0
LINE
  5
278A
330
2E46
100
AcDbEntity
  8
0
 62
     0
100
AcDbLine
 10
-411.5000000000051
 20
-222.0644421016659
 30
0.0
 11
-196.902788868283
 21
-79.00000000000182
 31
0.0
  0
LINE
  5
278B
330
2E46
100
AcDbEntity
  8
0
 62
     0
100
AcDbLine
 10
-411.5000000000073
 20
-219.0644755662488
 30
0.0
 11
-201.4027501621695
 21
-79.00000000000182
 31
0.0
  0
LINE
  5
278C
330
2E46
100
AcDbEntity
  8
0
 62
     0
100
AcDbLine
 10
-411.5000000000051
 20
-216.0645090308336
 30
0.0
 11
-205.9027114560576
 21
-79.00000000000365
 31
0.0
  0
LINE
  5
278D
330
2E46
100
AcDbEntity
  8
0
 62
     0
100
AcDbLine
 10
-411.5000000000073
 20
-213.0645424954164
 30
0.0
 11
-210.4026727499422
 21
-79.00000000000365
 31
0.0
  0
LINE
  5
278E
330
2E46
100
AcDbEntity
  8
0
 62
     0
100
AcDbLine
 10
-411.5000000000073
 20
-210.0645759600011
 30
0.0
 11
-214.9026340438268
 21
-79.00000000000182
 31
0.0
  0
LINE
  5
278F
330
2E46
100
AcDbEntity
  8
0
 62
     0
100
AcDbLine
 10
-411.5000000000073
 20
-207.064609424584
 30
0.0
 11
-219.4025953377131
 21
-79.00000000000182
 31
0.0
  0
LINE
  5
2790
330
2E46
100
AcDbEntity
  8
0
 62
     0
100
AcDbLine
 10
-411.5000000000073
 20
-204.0646428891669
 30
0.0
 11
-223.9025566315959
 21
-79.0
 31
0.0
  0
LINE
  5
2791
330
2E46
100
AcDbEntity
  8
0
 62
     0
100
AcDbLine
 10
-411.5000000000073
 20
-201.0646763537516
 30
0.0
 11
-228.4025179254821
 21
-79.00000000000182
 31
0.0
  0
LINE
  5
2792
330
2E46
100
AcDbEntity
  8
0
 62
     0
100
AcDbLine
 10
-411.5000000000073
 20
-198.0647098183363
 30
0.0
 11
-232.9024792193686
 21
-79.00000000000365
 31
0.0
  0
LINE
  5
2793
330
2E46
100
AcDbEntity
  8
0
 62
     0
100
AcDbLine
 10
-411.5000000000073
 20
-195.0647432829191
 30
0.0
 11
-237.402440513255
 21
-79.00000000000365
 31
0.0
  0
LINE
  5
2794
330
2E46
100
AcDbEntity
  8
0
 62
     0
100
AcDbLine
 10
-411.5000000000073
 20
-192.064776747502
 30
0.0
 11
-241.9024018071395
 21
-79.00000000000182
 31
0.0
  0
LINE
  5
2795
330
2E46
100
AcDbEntity
  8
0
 62
     0
100
AcDbLine
 10
-411.5000000000051
 20
-189.0648102120867
 30
0.0
 11
-246.4023631010241
 21
-79.00000000000182
 31
0.0
  0
LINE
  5
2796
330
2E46
100
AcDbEntity
  8
0
 62
     0
100
AcDbLine
 10
-411.5000000000089
 20
-186.0648436766713
 30
0.0
 11
-250.9023243949123
 21
-79.00000000000182
 31
0.0
  0
LINE
  5
2797
330
2E46
100
AcDbEntity
  8
0
 62
     0
100
AcDbLine
 10
-411.5000000000051
 20
-183.0648771412543
 30
0.0
 11
-255.4022856887968
 21
-79.00000000000365
 31
0.0
  0
LINE
  5
2798
330
2E46
100
AcDbEntity
  8
0
 62
     0
100
AcDbLine
 10
-411.5000000000073
 20
-180.0649106058371
 30
0.0
 11
-259.9022469826832
 21
-79.00000000000365
 31
0.0
  0
LINE
  5
2799
330
2E46
100
AcDbEntity
  8
0
 62
     0
100
AcDbLine
 10
-411.5000000000051
 20
-177.0649440704218
 30
0.0
 11
-264.4022082765657
 21
-79.00000000000182
 31
0.0
  0
LINE
  5
279A
330
2E46
100
AcDbEntity
  8
0
 62
     0
100
AcDbLine
 10
-411.5000000000073
 20
-174.0649775350048
 30
0.0
 11
-268.9021695704541
 21
-79.00000000000182
 31
0.0
  0
LINE
  5
279B
330
2E46
100
AcDbEntity
  8
0
 62
     0
100
AcDbLine
 10
-411.5000000000051
 20
-171.0650109995912
 30
0.0
 11
-273.4021308643387
 21
-79.00000000000365
 31
0.0
  0
LINE
  5
279C
330
2E46
100
AcDbEntity
  8
0
 62
     0
100
AcDbLine
 10
-411.5000000000073
 20
-168.0650444641742
 30
0.0
 11
-277.9020921582232
 21
-79.00000000000182
 31
0.0
  0
LINE
  5
279D
330
2E46
100
AcDbEntity
  8
0
 62
     0
100
AcDbLine
 10
-411.5000000000073
 20
-165.0650779287571
 30
0.0
 11
-282.4020534521098
 21
-79.00000000000182
 31
0.0
  0
LINE
  5
279E
330
2E46
100
AcDbEntity
  8
0
 62
     0
100
AcDbLine
 10
-411.5000000000051
 20
-162.06511139334
 30
0.0
 11
-286.9020147459961
 21
-79.00000000000182
 31
0.0
  0
LINE
  5
279F
330
2E46
100
AcDbEntity
  8
0
 62
     0
100
AcDbLine
 10
-411.5000000000051
 20
-159.0651448579247
 30
0.0
 11
-291.4019760398824
 21
-79.00000000000365
 31
0.0
  0
LINE
  5
27A0
330
2E46
100
AcDbEntity
  8
0
 62
     0
100
AcDbLine
 10
-411.5000000000051
 20
-156.0651783225075
 30
0.0
 11
-295.9019373337651
 21
-79.00000000000182
 31
0.0
  0
LINE
  5
27A1
330
2E46
100
AcDbEntity
  8
0
 62
     0
100
AcDbLine
 10
-411.5000000000051
 20
-153.0652117870921
 30
0.0
 11
-300.4018986276514
 21
-79.00000000000182
 31
0.0
  0
LINE
  5
27A2
330
2E46
100
AcDbEntity
  8
0
 62
     0
100
AcDbLine
 10
-411.5000000000073
 20
-150.0652452516769
 30
0.0
 11
-304.9018599215377
 21
-79.00000000000365
 31
0.0
  0
LINE
  5
27A3
330
2E46
100
AcDbEntity
  8
0
 62
     0
100
AcDbLine
 10
-411.5000000000073
 20
-147.0652787162598
 30
0.0
 11
-309.4018212154242
 21
-79.00000000000182
 31
0.0
  0
LINE
  5
27A4
330
2E46
100
AcDbEntity
  8
0
 62
     0
100
AcDbLine
 10
-411.5000000000073
 20
-144.0653121808445
 30
0.0
 11
-313.9017825093106
 21
-79.00000000000365
 31
0.0
  0
LINE
  5
27A5
330
2E46
100
AcDbEntity
  8
0
 62
     0
100
AcDbLine
 10
-411.5000000000073
 20
-141.0653456454274
 30
0.0
 11
-318.4017438031933
 21
-79.00000000000182
 31
0.0
  0
LINE
  5
27A6
330
2E46
100
AcDbEntity
  8
0
 62
     0
100
AcDbLine
 10
-411.5000000000073
 20
-138.065379110012
 30
0.0
 11
-322.9017050970797
 21
-79.00000000000365
 31
0.0
  0
LINE
  5
27A7
330
2E46
100
AcDbEntity
  8
0
 62
     0
100
AcDbLine
 10
-411.5000000000073
 20
-135.065412574595
 30
0.0
 11
-327.4016663909679
 21
-79.00000000000365
 31
0.0
  0
LINE
  5
27A8
330
2E46
100
AcDbEntity
  8
0
 62
     0
100
AcDbLine
 10
-411.5000000000051
 20
-132.0654460391797
 30
0.0
 11
-331.9016276848506
 21
-79.00000000000182
 31
0.0
  0
LINE
  5
27A9
330
2E46
100
AcDbEntity
  8
0
 62
     0
100
AcDbLine
 10
-411.5000000000073
 20
-129.0654795037626
 30
0.0
 11
-336.401588978737
 21
-79.00000000000182
 31
0.0
  0
LINE
  5
27AA
330
2E46
100
AcDbEntity
  8
0
 62
     0
100
AcDbLine
 10
-411.5000000000051
 20
-126.0655129683455
 30
0.0
 11
-340.9015502726215
 21
-79.00000000000182
 31
0.0
  0
LINE
  5
27AB
330
2E46
100
AcDbEntity
  8
0
 62
     0
100
AcDbLine
 10
-411.5000000000073
 20
-123.0655464329302
 30
0.0
 11
-345.4015115665098
 21
-79.00000000000365
 31
0.0
  0
LINE
  5
27AC
330
2E46
100
AcDbEntity
  8
0
 62
     0
100
AcDbLine
 10
-411.5000000000051
 20
-120.0655798975148
 30
0.0
 11
-349.9014728603925
 21
-79.00000000000365
 31
0.0
  0
LINE
  5
27AD
330
2E46
100
AcDbEntity
  8
0
 62
     0
100
AcDbLine
 10
-411.5000000000073
 20
-117.0656133620978
 30
0.0
 11
-354.4014341542788
 21
-79.00000000000182
 31
0.0
  0
LINE
  5
27AE
330
2E46
100
AcDbEntity
  8
0
 62
     0
100
AcDbLine
 10
-411.5000000000073
 20
-114.0656468266806
 30
0.0
 11
-358.9013954481652
 21
-79.00000000000182
 31
0.0
  0
LINE
  5
27AF
330
2E46
100
AcDbEntity
  8
0
 62
     0
100
AcDbLine
 10
-411.5000000000073
 20
-111.0656802912654
 30
0.0
 11
-363.4013567420516
 21
-79.00000000000365
 31
0.0
  0
LINE
  5
27B0
330
2E46
100
AcDbEntity
  8
0
 62
     0
100
AcDbLine
 10
-411.5000000000051
 20
-108.0657137558482
 30
0.0
 11
-367.9013180359343
 21
-79.00000000000182
 31
0.0
  0
LINE
  5
27B1
330
2E46
100
AcDbEntity
  8
0
 62
     0
100
AcDbLine
 10
-411.5000000000051
 20
-105.0657472204329
 30
0.0
 11
-372.4012793298208
 21
-79.00000000000365
 31
0.0
  0
LINE
  5
27B2
330
2E46
100
AcDbEntity
  8
0
 62
     0
100
AcDbLine
 10
-411.5000000000051
 20
-102.0657806850158
 30
0.0
 11
-376.9012406237071
 21
-79.00000000000182
 31
0.0
  0
LINE
  5
27B3
330
2E46
100
AcDbEntity
  8
0
 62
     0
100
AcDbLine
 10
-411.5000000000051
 20
-99.06581414960058
 30
0.0
 11
-381.4012019175935
 21
-79.00000000000365
 31
0.0
  0
LINE
  5
27B4
330
2E46
100
AcDbEntity
  8
0
 62
     0
100
AcDbLine
 10
-411.5000000000051
 20
-96.06584761418345
 30
0.0
 11
-385.9011632114762
 21
-79.00000000000182
 31
0.0
  0
LINE
  5
27B5
330
2E46
100
AcDbEntity
  8
0
 62
     0
100
AcDbLine
 10
-411.5000000000073
 20
-93.06588107876814
 30
0.0
 11
-390.4011245053644
 21
-79.00000000000365
 31
0.0
  0
LINE
  5
27B6
330
2E46
100
AcDbEntity
  8
0
 62
     0
100
AcDbLine
 10
-411.5000000000073
 20
-90.06591454335284
 30
0.0
 11
-394.9010857992489
 21
-79.00000000000365
 31
0.0
  0
LINE
  5
27B7
330
2E46
100
AcDbEntity
  8
0
 62
     0
100
AcDbLine
 10
-411.5000000000073
 20
-87.0659480079357
 30
0.0
 11
-399.4010470931335
 21
-79.0
 31
0.0
  0
LINE
  5
27B8
330
2E46
100
AcDbEntity
  8
0
 62
     0
100
AcDbLine
 10
-411.5000000000089
 20
-84.06598147252044
 30
0.0
 11
-403.9010083870196
 21
-79.00000000000182
 31
0.0
  0
LINE
  5
27B9
330
2E46
100
AcDbEntity
  8
0
 62
     0
100
AcDbLine
 10
-411.5000000000051
 20
-81.06601493710334
 30
0.0
 11
-408.4009696809062
 21
-79.00000000000365
 31
0.0
  0
ENDBLK
  5
27BA
330
2E46
100
AcDbEntity
  8
0
100
AcDbBlockEnd
  0
BLOCK
  5
2E49
330
2E48
100
AcDbEntity
  8
0
100
AcDbBlockBegin
  2
*X69
 70
     1
 10
0.0
 20
0.0
 30
0.0
  3
*X69
  1

  0
LINE
  5
27BD
330
2E48
100
AcDbEntity
  8
0
 62
     0
100
AcDbLine
 10
-411.5000000000036
 20
-766.4311648928205
 30
0.0
 11
-407.6467374998328
 21
-769.0000000000017
 31
0.0
  0
LINE
  5
27BE
330
2E48
100
AcDbEntity
  8
0
 62
     0
100
AcDbLine
 10
-411.5000000000036
 20
-763.4311983574061
 30
0.0
 11
-403.1467762059463
 21
-769.0000000000027
 31
0.0
  0
LINE
  5
27BF
330
2E48
100
AcDbEntity
  8
0
 62
     0
100
AcDbLine
 10
-411.5000000000036
 20
-760.4312318219889
 30
0.0
 11
-398.6468149120619
 21
-769.0000000000017
 31
0.0
  0
LINE
  5
27C0
330
2E48
100
AcDbEntity
  8
0
 62
     0
100
AcDbLine
 10
-411.5000000000036
 20
-757.4312652865718
 30
0.0
 11
-394.1468536181757
 21
-769.0000000000017
 31
0.0
  0
LINE
  5
27C1
330
2E48
100
AcDbEntity
  8
0
 62
     0
100
AcDbLine
 10
-411.5000000000025
 20
-754.4312987511566
 30
0.0
 11
-389.6468923242901
 21
-769.0000000000017
 31
0.0
  0
LINE
  5
27C2
330
2E48
100
AcDbEntity
  8
0
 62
     0
100
AcDbLine
 10
-411.5000000000043
 20
-751.4313322157382
 30
0.0
 11
-385.1469310304046
 21
-769.0000000000017
 31
0.0
  0
LINE
  5
27C3
330
2E48
100
AcDbEntity
  8
0
 62
     0
100
AcDbLine
 10
-411.5000000000025
 20
-748.4313656803252
 30
0.0
 11
-380.6469697365192
 21
-769.0000000000017
 31
0.0
  0
LINE
  5
27C4
330
2E48
100
AcDbEntity
  8
0
 62
     0
100
AcDbLine
 10
-411.5000000000025
 20
-745.431399144908
 30
0.0
 11
-376.1470084426337
 21
-769.0000000000017
 31
0.0
  0
LINE
  5
27C5
330
2E48
100
AcDbEntity
  8
0
 62
     0
100
AcDbLine
 10
-411.5000000000025
 20
-742.4314326094926
 30
0.0
 11
-371.6470471487473
 21
-769.0000000000035
 31
0.0
  0
LINE
  5
27C6
330
2E48
100
AcDbEntity
  8
0
 62
     0
100
AcDbLine
 10
-411.5000000000036
 20
-739.4314660740747
 30
0.0
 11
-367.1470858548619
 21
-769.0000000000017
 31
0.0
  0
LINE
  5
27C7
330
2E48
100
AcDbEntity
  8
0
 62
     0
100
AcDbLine
 10
-411.5000000000036
 20
-736.4314995386592
 30
0.0
 11
-362.6471245609764
 21
-769.0000000000027
 31
0.0
  0
LINE
  5
27C8
330
2E48
100
AcDbEntity
  8
0
 62
     0
100
AcDbLine
 10
-411.5000000000036
 20
-733.4315330032431
 30
0.0
 11
-358.1471632670919
 21
-769.000000000001
 31
0.0
  0
LINE
  5
27C9
330
2E48
100
AcDbEntity
  8
0
 62
     0
100
AcDbLine
 10
-411.5000000000036
 20
-730.4315664678279
 30
0.0
 11
-353.6472019732064
 21
-769.0000000000027
 31
0.0
  0
LINE
  5
27CA
330
2E48
100
AcDbEntity
  8
0
 62
     0
100
AcDbLine
 10
-411.5000000000036
 20
-727.4315999324109
 30
0.0
 11
-349.1472406793209
 21
-769.0000000000017
 31
0.0
  0
LINE
  5
27CB
330
2E48
100
AcDbEntity
  8
0
 62
     0
100
AcDbLine
 10
-411.5000000000036
 20
-724.4316333969955
 30
0.0
 11
-344.6472793854355
 21
-769.0000000000027
 31
0.0
  0
LINE
  5
27CC
330
2E48
100
AcDbEntity
  8
0
 62
     0
100
AcDbLine
 10
-411.5000000000025
 20
-721.4316668615779
 30
0.0
 11
-340.1473180915491
 21
-769.0000000000017
 31
0.0
  0
LINE
  5
27CD
330
2E48
100
AcDbEntity
  8
0
 62
     0
100
AcDbLine
 10
-411.5000000000025
 20
-718.4317003261618
 30
0.0
 11
-335.6473567976636
 21
-769.000000000001
 31
0.0
  0
LINE
  5
27CE
330
2E48
100
AcDbEntity
  8
0
 62
     0
100
AcDbLine
 10
-411.5000000000025
 20
-715.4317337907468
 30
0.0
 11
-331.1473955037773
 21
-769.0000000000027
 31
0.0
  0
LINE
  5
27CF
330
2E48
100
AcDbEntity
  8
0
 62
     0
100
AcDbLine
 10
-411.5000000000036
 20
-712.4317672553289
 30
0.0
 11
-326.6474342098927
 21
-769.0000000000017
 31
0.0
  0
LINE
  5
27D0
330
2E48
100
AcDbEntity
  8
0
 62
     0
100
AcDbLine
 10
-411.5000000000036
 20
-709.4318007199136
 30
0.0
 11
-322.1474729160064
 21
-769.0000000000027
 31
0.0
  0
LINE
  5
27D1
330
2E48
100
AcDbEntity
  8
0
 62
     0
100
AcDbLine
 10
-411.5000000000036
 20
-706.4318341844964
 30
0.0
 11
-317.6475116221217
 21
-769.0000000000017
 31
0.0
  0
LINE
  5
27D2
330
2E48
100
AcDbEntity
  8
0
 62
     0
100
AcDbLine
 10
-411.5000000000025
 20
-703.4318676490811
 30
0.0
 11
-313.1475503282345
 21
-769.0000000000027
 31
0.0
  0
LINE
  5
27D3
330
2E48
100
AcDbEntity
  8
0
 62
     0
100
AcDbLine
 10
-411.5000000000025
 20
-700.431901113665
 30
0.0
 11
-308.6475890343499
 21
-769.0000000000017
 31
0.0
  0
LINE
  5
27D4
330
2E48
100
AcDbEntity
  8
0
 62
     0
100
AcDbLine
 10
-411.5000000000025
 20
-697.4319345782496
 30
0.0
 11
-304.1476277404654
 21
-769.0000000000027
 31
0.0
  0
LINE
  5
27D5
330
2E48
100
AcDbEntity
  8
0
 62
     0
100
AcDbLine
 10
-411.5000000000025
 20
-694.4319680428325
 30
0.0
 11
-299.6476664465799
 21
-769.000000000001
 31
0.0
  0
LINE
  5
27D6
330
2E48
100
AcDbEntity
  8
0
 62
     0
100
AcDbLine
 10
-411.5000000000025
 20
-691.4320015074173
 30
0.0
 11
-295.1477051526945
 21
-769.0000000000027
 31
0.0
  0
LINE
  5
27D7
330
2E48
100
AcDbEntity
  8
0
 62
     0
100
AcDbLine
 10
-411.5000000000025
 20
-688.4320349720001
 30
0.0
 11
-290.6477438588099
 21
-769.000000000001
 31
0.0
  0
LINE
  5
27D8
330
2E48
100
AcDbEntity
  8
0
 62
     0
100
AcDbLine
 10
-411.5000000000036
 20
-685.4320684365847
 30
0.0
 11
-286.1477825649227
 21
-769.0000000000027
 31
0.0
  0
LINE
  5
27D9
330
2E48
100
AcDbEntity
  8
0
 62
     0
100
AcDbLine
 10
-411.5000000000036
 20
-682.4321019011676
 30
0.0
 11
-281.6478212710363
 21
-769.0000000000027
 31
0.0
  0
LINE
  5
27DA
330
2E48
100
AcDbEntity
  8
0
 62
     0
100
AcDbLine
 10
-411.5000000000036
 20
-679.4321353657505
 30
0.0
 11
-277.1478599771517
 21
-769.000000000001
 31
0.0
  0
LINE
  5
27DB
330
2E48
100
AcDbEntity
  8
0
 62
     0
100
AcDbLine
 10
-411.5000000000036
 20
-676.4321688303352
 30
0.0
 11
-272.6478986832653
 21
-769.0000000000027
 31
0.0
  0
LINE
  5
27DC
330
2E48
100
AcDbEntity
  8
0
 62
     0
100
AcDbLine
 10
-411.5000000000036
 20
-673.4322022949181
 30
0.0
 11
-268.1479373893808
 21
-769.000000000001
 31
0.0
  0
LINE
  5
27DD
330
2E48
100
AcDbEntity
  8
0
 62
     0
100
AcDbLine
 10
-411.5000000000036
 20
-670.4322357595038
 30
0.0
 11
-263.6479760954944
 21
-769.0000000000027
 31
0.0
  0
LINE
  5
27DE
330
2E48
100
AcDbEntity
  8
0
 62
     0
100
AcDbLine
 10
-411.5000000000025
 20
-667.4322692240865
 30
0.0
 11
-259.1480148016089
 21
-769.0000000000017
 31
0.0
  0
LINE
  5
27DF
330
2E48
100
AcDbEntity
  8
0
 62
     0
100
AcDbLine
 10
-411.5000000000025
 20
-664.4323026886714
 30
0.0
 11
-254.6480535077226
 21
-769.0000000000027
 31
0.0
  0
LINE
  5
27E0
330
2E48
100
AcDbEntity
  8
0
 62
     0
100
AcDbLine
 10
-411.5000000000025
 20
-661.4323361532544
 30
0.0
 11
-250.148092213838
 21
-769.0000000000017
 31
0.0
  0
LINE
  5
27E1
330
2E48
100
AcDbEntity
  8
0
 62
     0
100
AcDbLine
 10
-411.5000000000025
 20
-658.4323696178388
 30
0.0
 11
-245.6481309199535
 21
-769.0000000000017
 31
0.0
  0
LINE
  5
27E2
330
2E48
100
AcDbEntity
  8
0
 62
     0
100
AcDbLine
 10
-411.5000000000025
 20
-655.4324030824227
 30
0.0
 11
-241.1481696260671
 21
-769.0000000000017
 31
0.0
  0
LINE
  5
27E3
330
2E48
100
AcDbEntity
  8
0
 62
     0
100
AcDbLine
 10
-411.5000000000036
 20
-652.4324365470065
 30
0.0
 11
-236.6482083321824
 21
-769.0000000000027
 31
0.0
  0
LINE
  5
27E4
330
2E48
100
AcDbEntity
  8
0
 62
     0
100
AcDbLine
 10
-411.5000000000025
 20
-649.4324700115896
 30
0.0
 11
-232.1482470382953
 21
-769.0000000000017
 31
0.0
  0
LINE
  5
27E5
330
2E48
100
AcDbEntity
  8
0
 62
     0
100
AcDbLine
 10
-411.5000000000025
 20
-646.4325034761741
 30
0.0
 11
-227.6482857444107
 21
-769.0000000000027
 31
0.0
  0
LINE
  5
27E6
330
2E48
100
AcDbEntity
  8
0
 62
     0
100
AcDbLine
 10
-411.5000000000025
 20
-643.432536940757
 30
0.0
 11
-223.1483244505243
 21
-769.0000000000027
 31
0.0
  0
LINE
  5
27E7
330
2E48
100
AcDbEntity
  8
0
 62
     0
100
AcDbLine
 10
-411.5000000000025
 20
-640.4325704053404
 30
0.0
 11
-218.6483631566398
 21
-769.000000000001
 31
0.0
  0
LINE
  5
27E8
330
2E48
100
AcDbEntity
  8
0
 62
     0
100
AcDbLine
 10
-411.5000000000025
 20
-637.4326038699255
 30
0.0
 11
-214.1484018627533
 21
-769.0000000000027
 31
0.0
  0
LINE
  5
27E9
330
2E48
100
AcDbEntity
  8
0
 62
     0
100
AcDbLine
 10
-411.5000000000025
 20
-634.4326373345084
 30
0.0
 11
-209.6484405688689
 21
-769.000000000001
 31
0.0
  0
LINE
  5
27EA
330
2E48
100
AcDbEntity
  8
0
 62
     0
100
AcDbLine
 10
-411.5000000000017
 20
-631.4326707990931
 30
0.0
 11
-205.1484792749816
 21
-769.0000000000027
 31
0.0
  0
LINE
  5
27EB
330
2E48
100
AcDbEntity
  8
0
 62
     0
100
AcDbLine
 10
-411.5000000000017
 20
-628.432704263676
 30
0.0
 11
-200.6485179810952
 21
-769.0000000000027
 31
0.0
  0
LINE
  5
27EC
330
2E48
100
AcDbEntity
  8
0
 62
     0
100
AcDbLine
 10
-411.5000000000036
 20
-625.4327377282598
 30
0.0
 11
-196.1485566872106
 21
-769.0000000000027
 31
0.0
  0
LINE
  5
27ED
330
2E48
100
AcDbEntity
  8
0
 62
     0
100
AcDbLine
 10
-411.5000000000036
 20
-622.4327711928435
 30
0.0
 11
-191.6485953933261
 21
-769.0000000000017
 31
0.0
  0
LINE
  5
27EE
330
2E48
100
AcDbEntity
  8
0
 62
     0
100
AcDbLine
 10
-411.5000000000036
 20
-619.4328046574281
 30
0.0
 11
-187.1486340994414
 21
-769.0000000000017
 31
0.0
  0
LINE
  5
27EF
330
2E48
100
AcDbEntity
  8
0
 62
     0
100
AcDbLine
 10
-411.5000000000025
 20
-616.4328381220111
 30
0.0
 11
-182.6486728055543
 21
-769.0000000000017
 31
0.0
  0
LINE
  5
27F0
330
2E48
100
AcDbEntity
  8
0
 62
     0
100
AcDbLine
 10
-411.5000000000025
 20
-613.4328715865957
 30
0.0
 11
-178.1487115116697
 21
-769.0000000000017
 31
0.0
  0
LINE
  5
27F1
330
2E48
100
AcDbEntity
  8
0
 62
     0
100
AcDbLine
 10
-411.5000000000025
 20
-610.4329050511787
 30
0.0
 11
-173.6487502177833
 21
-769.0000000000017
 31
0.0
  0
LINE
  5
27F2
330
2E48
100
AcDbEntity
  8
0
 62
     0
100
AcDbLine
 10
-411.5000000000025
 20
-607.4329385157644
 30
0.0
 11
-169.1487889238988
 21
-769.0000000000027
 31
0.0
  0
LINE
  5
27F3
330
2E48
100
AcDbEntity
  8
0
 62
     0
100
AcDbLine
 10
-411.5000000000036
 20
-604.4329719803463
 30
0.0
 11
-164.6488276300124
 21
-769.0000000000017
 31
0.0
  0
LINE
  5
27F4
330
2E48
100
AcDbEntity
  8
0
 62
     0
100
AcDbLine
 10
-411.5000000000025
 20
-601.433005444932
 30
0.0
 11
-160.1488663361278
 21
-769.0000000000027
 31
0.0
  0
LINE
  5
27F5
330
2E48
100
AcDbEntity
  8
0
 62
     0
100
AcDbLine
 10
-411.5000000000025
 20
-598.4330389095138
 30
0.0
 11
-155.6489050422405
 21
-769.0000000000027
 31
0.0
  0
LINE
  5
27F6
330
2E48
100
AcDbEntity
  8
0
 62
     0
100
AcDbLine
 10
-411.5000000000025
 20
-595.4330723740968
 30
0.0
 11
-151.1489437483542
 21
-769.0000000000017
 31
0.0
  0
LINE
  5
27F7
330
2E48
100
AcDbEntity
  8
0
 62
     0
100
AcDbLine
 10
-411.5000000000025
 20
-592.4331058386824
 30
0.0
 11
-146.6489824544694
 21
-769.0000000000027
 31
0.0
  0
LINE
  5
27F8
330
2E48
100
AcDbEntity
  8
0
 62
     0
100
AcDbLine
 10
-411.5000000000025
 20
-589.433139303265
 30
0.0
 11
-142.1490211605833
 21
-769.0000000000017
 31
0.0
  0
LINE
  5
27F9
330
2E48
100
AcDbEntity
  8
0
 62
     0
100
AcDbLine
 10
-411.5000000000025
 20
-586.43317276785
 30
0.0
 11
-137.6490598666987
 21
-769.0000000000027
 31
0.0
  0
LINE
  5
27FA
330
2E48
100
AcDbEntity
  8
0
 62
     0
100
AcDbLine
 10
-411.5000000000025
 20
-583.4332062324327
 30
0.0
 11
-133.1490985728142
 21
-769.0000000000017
 31
0.0
  0
LINE
  5
27FB
330
2E48
100
AcDbEntity
  8
0
 62
     0
100
AcDbLine
 10
-411.5000000000017
 20
-580.4332396970176
 30
0.0
 11
-128.6491372789287
 21
-769.0000000000017
 31
0.0
  0
LINE
  5
27FC
330
2E48
100
AcDbEntity
  8
0
 62
     0
100
AcDbLine
 10
-411.5000000000017
 20
-577.4332731616014
 30
0.0
 11
-124.1491759850423
 21
-769.0000000000017
 31
0.0
  0
LINE
  5
27FD
330
2E48
100
AcDbEntity
  8
0
 62
     0
100
AcDbLine
 10
-411.5000000000017
 20
-574.4333066261861
 30
0.0
 11
-119.6492146911578
 21
-769.0000000000017
 31
0.0
  0
LINE
  5
27FE
330
2E48
100
AcDbEntity
  8
0
 62
     0
100
AcDbLine
 10
-411.5000000000017
 20
-571.433340090769
 30
0.0
 11
-115.1492533972714
 21
-769.0000000000017
 31
0.0
  0
LINE
  5
27FF
330
2E48
100
AcDbEntity
  8
0
 62
     0
100
AcDbLine
 10
-411.5000000000017
 20
-568.4333735553535
 30
0.0
 11
-110.649292103385
 21
-769.0000000000035
 31
0.0
  0
LINE
  5
2800
330
2E48
100
AcDbEntity
  8
0
 62
     0
100
AcDbLine
 10
-411.5000000000036
 20
-565.4334070199355
 30
0.0
 11
-106.1493308095005
 21
-769.0000000000017
 31
0.0
  0
LINE
  5
2801
330
2E48
100
AcDbEntity
  8
0
 62
     0
100
AcDbLine
 10
-411.5000000000025
 20
-562.4334404845202
 30
0.0
 11
-101.649369515614
 21
-769.0000000000035
 31
0.0
  0
LINE
  5
2802
330
2E48
100
AcDbEntity
  8
0
 62
     0
100
AcDbLine
 10
-411.5000000000025
 20
-559.4334739491041
 30
0.0
 11
-97.14940822172865
 21
-769.0000000000017
 31
0.0
  0
LINE
  5
2803
330
2E48
100
AcDbEntity
  8
0
 62
     0
100
AcDbLine
 10
-411.5000000000025
 20
-556.433507413687
 30
0.0
 11
-92.64944692784322
 21
-769.0000000000017
 31
0.0
  0
LINE
  5
2804
330
2E48
100
AcDbEntity
  8
0
 62
     0
100
AcDbLine
 10
-411.5000000000025
 20
-553.4335408782717
 30
0.0
 11
-88.14948563395772
 21
-769.0000000000027
 31
0.0
  0
LINE
  5
2805
330
2E48
100
AcDbEntity
  8
0
 62
     0
100
AcDbLine
 10
-411.5000000000025
 20
-550.4335743428545
 30
0.0
 11
-83.64952434007227
 21
-769.0000000000017
 31
0.0
  0
LINE
  5
2806
330
2E48
100
AcDbEntity
  8
0
 62
     0
100
AcDbLine
 10
-411.5000000000025
 20
-547.4336078074392
 30
0.0
 11
-79.14956304618681
 21
-769.0000000000027
 31
0.0
  0
LINE
  5
2807
330
2E48
100
AcDbEntity
  8
0
 62
     0
100
AcDbLine
 10
-411.5000000000017
 20
-544.4336412720231
 30
0.0
 11
-74.64960175230133
 21
-769.000000000001
 31
0.0
  0
LINE
  5
2808
330
2E48
100
AcDbEntity
  8
0
 62
     0
100
AcDbLine
 10
-411.5000000000017
 20
-541.4336747366077
 30
0.0
 11
-70.14964045841589
 21
-769.0000000000027
 31
0.0
  0
LINE
  5
2809
330
2E48
100
AcDbEntity
  8
0
 62
     0
100
AcDbLine
 10
-411.5000000000025
 20
-538.4337082011898
 30
0.0
 11
-65.64967916453042
 21
-769.0000000000017
 31
0.0
  0
LINE
  5
280A
330
2E48
100
AcDbEntity
  8
0
 62
     0
100
AcDbLine
 10
-411.5000000000025
 20
-535.4337416657743
 30
0.0
 11
-61.14971787064496
 21
-769.0000000000027
 31
0.0
  0
LINE
  5
280B
330
2E48
100
AcDbEntity
  8
0
 62
     0
100
AcDbLine
 10
-411.5000000000025
 20
-532.4337751303573
 30
0.0
 11
-56.6497565767595
 21
-769.0000000000017
 31
0.0
  0
LINE
  5
280C
330
2E48
100
AcDbEntity
  8
0
 62
     0
100
AcDbLine
 10
-411.5000000000025
 20
-529.433808594943
 30
0.0
 11
-52.14979528287404
 21
-769.0000000000035
 31
0.0
  0
LINE
  5
280D
330
2E48
100
AcDbEntity
  8
0
 62
     0
100
AcDbLine
 10
-411.5000000000017
 20
-526.4338420595256
 30
0.0
 11
-47.64983398898766
 21
-769.0000000000017
 31
0.0
  0
LINE
  5
280E
330
2E48
100
AcDbEntity
  8
0
 62
     0
100
AcDbLine
 10
-411.5000000000017
 20
-523.4338755241106
 30
0.0
 11
-43.1498726951022
 21
-769.0000000000035
 31
0.0
  0
LINE
  5
280F
330
2E48
100
AcDbEntity
  8
0
 62
     0
100
AcDbLine
 10
-411.5000000000017
 20
-520.4339089886935
 30
0.0
 11
-38.64991140121765
 21
-769.0000000000017
 31
0.0
  0
LINE
  5
2810
330
2E48
100
AcDbEntity
  8
0
 62
     0
100
AcDbLine
 10
-411.5000000000017
 20
-517.4339424532762
 30
0.0
 11
-34.14995010733128
 21
-769.0000000000017
 31
0.0
  0
LINE
  5
2811
330
2E48
100
AcDbEntity
  8
0
 62
     0
100
AcDbLine
 10
-411.5000000000017
 20
-514.4339759178617
 30
0.0
 11
-29.64998881344673
 21
-769.0000000000017
 31
0.0
  0
LINE
  5
2812
330
2E48
100
AcDbEntity
  8
0
 62
     0
100
AcDbLine
 10
-411.5000000000017
 20
-511.4340093824448
 30
0.0
 11
-25.15002751956036
 21
-769.0000000000017
 31
0.0
  0
LINE
  5
2813
330
2E48
100
AcDbEntity
  8
0
 62
     0
100
AcDbLine
 10
-411.5000000000008
 20
-508.4340428470293
 30
0.0
 11
-20.65006622567489
 21
-769.0000000000027
 31
0.0
  0
LINE
  5
2814
330
2E48
100
AcDbEntity
  8
0
 62
     0
100
AcDbLine
 10
-411.5000000000025
 20
-505.4340763116114
 30
0.0
 11
-16.15010493178943
 21
-769.000000000001
 31
0.0
  0
LINE
  5
2815
330
2E48
100
AcDbEntity
  8
0
 62
     0
100
AcDbLine
 10
-411.5000000000025
 20
-502.4341097761962
 30
0.0
 11
-11.65014363790396
 21
-769.0000000000027
 31
0.0
  0
LINE
  5
2816
330
2E48
100
AcDbEntity
  8
0
 62
     0
100
AcDbLine
 10
-411.5000000000025
 20
-499.4341432407791
 30
0.0
 11
-7.150182344019412
 21
-769.000000000001
 31
0.0
  0
LINE
  5
2817
330
2E48
100
AcDbEntity
  8
0
 62
     0
100
AcDbLine
 10
-411.5000000000025
 20
-496.4341767053647
 30
0.0
 11
-2.65022105013304
 21
-769.0000000000027
 31
0.0
  0
LINE
  5
2818
330
2E48
100
AcDbEntity
  8
0
 62
     0
100
AcDbLine
 10
-411.5000000000025
 20
-493.4342101699477
 30
0.0
 11
1.84974024375151
 21
-769.0000000000017
 31
0.0
  0
LINE
  5
2819
330
2E48
100
AcDbEntity
  8
0
 62
     0
100
AcDbLine
 10
-411.5000000000017
 20
-490.4342436345323
 30
0.0
 11
6.34970153763879
 21
-769.0000000000027
 31
0.0
  0
LINE
  5
281A
330
2E48
100
AcDbEntity
  8
0
 62
     0
100
AcDbLine
 10
-411.5000000000017
 20
-487.4342770991152
 30
0.0
 11
10.84966283152335
 21
-769.0000000000017
 31
0.0
  0
LINE
  5
281B
330
2E48
100
AcDbEntity
  8
0
 62
     0
100
AcDbLine
 10
-411.5000000000017
 20
-484.4343105636998
 30
0.0
 11
15.34962412540972
 21
-769.0000000000035
 31
0.0
  0
LINE
  5
281C
330
2E48
100
AcDbEntity
  8
0
 62
     0
100
AcDbLine
 10
-411.5000000000017
 20
-481.4343440282836
 30
0.0
 11
19.84958541929427
 21
-769.0000000000017
 31
0.0
  0
LINE
  5
281D
330
2E48
100
AcDbEntity
  8
0
 62
     0
100
AcDbLine
 10
-411.5000000000025
 20
-478.4343774928657
 30
0.0
 11
24.34954671318064
 21
-769.0000000000017
 31
0.0
  0
LINE
  5
281E
330
2E48
100
AcDbEntity
  8
0
 62
     0
100
AcDbLine
 10
-411.5000000000017
 20
-475.4344109574502
 30
0.0
 11
28.84950800706793
 21
-769.0000000000027
 31
0.0
  0
LINE
  5
281F
330
2E48
100
AcDbEntity
  8
0
 62
     0
100
AcDbLine
 10
-411.5000000000017
 20
-472.4344444220331
 30
0.0
 11
33.34946930095249
 21
-769.0000000000017
 31
0.0
  0
LINE
  5
2820
330
2E48
100
AcDbEntity
  8
0
 62
     0
100
AcDbLine
 10
-411.5000000000017
 20
-469.4344778866179
 30
0.0
 11
37.84943059483703
 21
-769.0000000000027
 31
0.0
  0
LINE
  5
2821
330
2E48
100
AcDbEntity
  8
0
 62
     0
100
AcDbLine
 10
-411.5000000000017
 20
-466.4345113512017
 30
0.0
 11
42.34939188872156
 21
-769.000000000001
 31
0.0
  0
LINE
  5
2822
330
2E48
100
AcDbEntity
  8
0
 62
     0
100
AcDbLine
 10
-411.5000000000017
 20
-463.4345448157865
 30
0.0
 11
46.84935318260794
 21
-769.0000000000027
 31
0.0
  0
LINE
  5
2823
330
2E48
100
AcDbEntity
  8
0
 62
     0
100
AcDbLine
 10
-411.5000000000017
 20
-460.4345782803691
 30
0.0
 11
51.3493144764925
 21
-769.000000000001
 31
0.0
  0
LINE
  5
2824
330
2E48
100
AcDbEntity
  8
0
 62
     0
100
AcDbLine
 10
-411.5000000000008
 20
-457.4346117449541
 30
0.0
 11
55.84927577037979
 21
-769.0000000000027
 31
0.0
  0
LINE
  5
2825
330
2E48
100
AcDbEntity
  8
0
 62
     0
100
AcDbLine
 10
-411.5000000000008
 20
-454.4346452095369
 30
0.0
 11
60.34923706426434
 21
-769.0000000000017
 31
0.0
  0
LINE
  5
2826
330
2E48
100
AcDbEntity
  8
0
 62
     0
100
AcDbLine
 10
-411.5000000000025
 20
-451.4346786741207
 30
0.0
 11
64.84919835815071
 21
-769.0000000000027
 31
0.0
  0
LINE
  5
2827
330
2E48
100
AcDbEntity
  8
0
 62
     0
100
AcDbLine
 10
-411.5000000000025
 20
-448.4347121387044
 30
0.0
 11
69.3491596520371
 21
-769.0000000000027
 31
0.0
  0
LINE
  5
2828
330
2E48
100
AcDbEntity
  8
0
 62
     0
100
AcDbLine
 10
-411.5000000000025
 20
-445.434745603289
 30
0.0
 11
73.84912094592163
 21
-769.0000000000027
 31
0.0
  0
LINE
  5
2829
330
2E48
100
AcDbEntity
  8
0
 62
     0
100
AcDbLine
 10
-411.5000000000025
 20
-442.4347790678721
 30
0.0
 11
78.34908223980801
 21
-769.0000000000027
 31
0.0
  0
LINE
  5
282A
330
2E48
100
AcDbEntity
  8
0
 62
     0
100
AcDbLine
 10
-411.5000000000017
 20
-439.4348125324547
 30
0.0
 11
82.84904353369347
 21
-769.0000000000017
 31
0.0
  0
LINE
  5
282B
330
2E48
100
AcDbEntity
  8
0
 62
     0
100
AcDbLine
 10
-411.5000000000017
 20
-436.4348459970397
 30
0.0
 11
87.3490048275798
 21
-769.0000000000027
 31
0.0
  0
LINE
  5
282C
330
2E48
100
AcDbEntity
  8
0
 62
     0
100
AcDbLine
 10
-411.5000000000017
 20
-433.4348794616235
 30
0.0
 11
91.8489661214644
 21
-769.0000000000017
 31
0.0
  0
LINE
  5
282D
330
2E48
100
AcDbEntity
  8
0
 62
     0
100
AcDbLine
 10
-411.5000000000017
 20
-430.4349129262082
 30
0.0
 11
96.34892741534896
 21
-769.0000000000017
 31
0.0
  0
LINE
  5
282E
330
2E48
100
AcDbEntity
  8
0
 62
     0
100
AcDbLine
 10
-411.5000000000017
 20
-427.4349463907911
 30
0.0
 11
100.8488887092353
 21
-769.0000000000017
 31
0.0
  0
LINE
  5
282F
330
2E48
100
AcDbEntity
  8
0
 62
     0
100
AcDbLine
 10
-411.5000000000017
 20
-424.4349798553757
 30
0.0
 11
105.3488500031199
 21
-769.0000000000027
 31
0.0
  0
LINE
  5
2830
330
2E48
100
AcDbEntity
  8
0
 62
     0
100
AcDbLine
 10
-411.5000000000008
 20
-421.4350133199586
 30
0.0
 11
109.8488112970071
 21
-769.0000000000017
 31
0.0
  0
LINE
  5
2831
330
2E48
100
AcDbEntity
  8
0
 62
     0
100
AcDbLine
 10
-411.5000000000017
 20
-418.4350467845431
 30
0.0
 11
114.3487725908917
 21
-769.0000000000027
 31
0.0
  0
LINE
  5
2832
330
2E48
100
AcDbEntity
  8
0
 62
     0
100
AcDbLine
 10
-411.5000000000017
 20
-415.435080249126
 30
0.0
 11
118.8487338847781
 21
-769.0000000000017
 31
0.0
  0
LINE
  5
2833
330
2E48
100
AcDbEntity
  8
0
 62
     0
100
AcDbLine
 10
-411.5000000000017
 20
-412.4351137137105
 30
0.0
 11
123.3486951786626
 21
-769.0000000000027
 31
0.0
  0
LINE
  5
2834
330
2E48
100
AcDbEntity
  8
0
 62
     0
100
AcDbLine
 10
-411.5000000000017
 20
-409.4351471782935
 30
0.0
 11
127.848656472549
 21
-769.0000000000027
 31
0.0
  0
LINE
  5
2835
330
2E48
100
AcDbEntity
  8
0
 62
     0
100
AcDbLine
 10
-411.5000000000017
 20
-406.4351806428785
 30
0.0
 11
132.3486177664335
 21
-769.0000000000027
 31
0.0
  0
LINE
  5
2836
330
2E48
100
AcDbEntity
  8
0
 62
     0
100
AcDbLine
 10
-411.5000000000008
 20
-403.4352141074623
 30
0.0
 11
136.8485790603208
 21
-769.0000000000027
 31
0.0
  0
LINE
  5
2837
330
2E48
100
AcDbEntity
  8
0
 62
     0
100
AcDbLine
 10
-411.5000000000008
 20
-400.435247572047
 30
0.0
 11
141.3485403542054
 21
-769.0000000000027
 31
0.0
  0
LINE
  5
2838
330
2E48
100
AcDbEntity
  8
0
 62
     0
100
AcDbLine
 10
-411.5000000000008
 20
-397.4352810366297
 30
0.0
 11
145.8485016480917
 21
-769.0000000000027
 31
0.0
  0
LINE
  5
2839
330
2E48
100
AcDbEntity
  8
0
 62
     0
100
AcDbLine
 10
-411.5000000000008
 20
-394.4353145012129
 30
0.0
 11
150.3484629419763
 21
-769.0000000000017
 31
0.0
  0
LINE
  5
283A
330
2E48
100
AcDbEntity
  8
0
 62
     0
100
AcDbLine
 10
-411.5000000000025
 20
-391.4353479657967
 30
0.0
 11
154.8484242358608
 21
-769.0000000000017
 31
0.0
  0
LINE
  5
283B
330
2E48
100
AcDbEntity
  8
0
 62
     0
100
AcDbLine
 10
-411.5000000000025
 20
-388.4353814303795
 30
0.0
 11
159.3483855297472
 21
-769.0000000000017
 31
0.0
  0
LINE
  5
283C
330
2E48
100
AcDbEntity
  8
0
 62
     0
100
AcDbLine
 10
-411.5000000000017
 20
-385.4354148949651
 30
0.0
 11
163.8483468236327
 21
-769.0000000000017
 31
0.0
  0
LINE
  5
283D
330
2E48
100
AcDbEntity
  8
0
 62
     0
100
AcDbLine
 10
-411.5000000000017
 20
-382.4354483595481
 30
0.0
 11
168.3483081175191
 21
-769.0000000000017
 31
0.0
  0
LINE
  5
283E
330
2E48
100
AcDbEntity
  8
0
 62
     0
100
AcDbLine
 10
-411.5000000000017
 20
-379.4354818241327
 30
0.0
 11
172.8482694114036
 21
-769.0000000000027
 31
0.0
  0
LINE
  5
283F
330
2E48
100
AcDbEntity
  8
0
 62
     0
100
AcDbLine
 10
-411.5000000000017
 20
-376.4355152887156
 30
0.0
 11
177.34823070529
 21
-769.0000000000017
 31
0.0
  0
LINE
  5
2840
330
2E48
100
AcDbEntity
  8
0
 62
     0
100
AcDbLine
 10
-411.5000000000017
 20
-373.4355487533002
 30
0.0
 11
181.8481919991745
 21
-769.0000000000027
 31
0.0
  0
LINE
  5
2841
330
2E48
100
AcDbEntity
  8
0
 62
     0
100
AcDbLine
 10
-411.5000000000017
 20
-370.4355822178841
 30
0.0
 11
186.3481532930609
 21
-769.0000000000027
 31
0.0
  0
LINE
  5
2842
330
2E48
100
AcDbEntity
  8
0
 62
     0
100
AcDbLine
 10
-411.5000000000017
 20
-367.435615682468
 30
0.0
 11
190.8481145869464
 21
-769.0000000000027
 31
0.0
  0
LINE
  5
2843
330
2E48
100
AcDbEntity
  8
0
 62
     0
100
AcDbLine
 10
-411.5000000000017
 20
-364.4356491470507
 30
0.0
 11
195.3480758808327
 21
-769.0000000000027
 31
0.0
  0
LINE
  5
2844
330
2E48
100
AcDbEntity
  8
0
 62
     0
100
AcDbLine
 10
-411.5000000000017
 20
-361.4356826116355
 30
0.0
 11
199.8480371747182
 21
-769.0000000000035
 31
0.0
  0
LINE
  5
2845
330
2E48
100
AcDbEntity
  8
0
 62
     0
100
AcDbLine
 10
-411.5000000000017
 20
-358.4357160762183
 30
0.0
 11
204.3479984686028
 21
-769.0000000000027
 31
0.0
  0
LINE
  5
2846
330
2E48
100
AcDbEntity
  8
0
 62
     0
100
AcDbLine
 10
-411.5000000000017
 20
-355.4357495408021
 30
0.0
 11
208.8479597624882
 21
-769.0000000000017
 31
0.0
  0
LINE
  5
2847
330
2E48
100
AcDbEntity
  8
0
 62
     0
100
AcDbLine
 10
-411.5000000000017
 20
-352.4357830053868
 30
0.0
 11
213.3479210563737
 21
-769.0000000000027
 31
0.0
  0
LINE
  5
2848
330
2E48
100
AcDbEntity
  8
0
 62
     0
100
AcDbLine
 10
-411.5000000000025
 20
-349.4358164699688
 30
0.0
 11
217.8478823502601
 21
-769.0000000000017
 31
0.0
  0
LINE
  5
2849
330
2E48
100
AcDbEntity
  8
0
 62
     0
100
AcDbLine
 10
-411.5000000000008
 20
-346.4358499345544
 30
0.0
 11
222.3478436441446
 21
-769.0000000000017
 31
0.0
  0
LINE
  5
284A
330
2E48
100
AcDbEntity
  8
0
 62
     0
100
AcDbLine
 10
-411.5000000000025
 20
-343.4358833991364
 30
0.0
 11
226.847804938031
 21
-769.0000000000017
 31
0.0
  0
LINE
  5
284B
330
2E48
100
AcDbEntity
  8
0
 62
     0
100
AcDbLine
 10
-411.5000000000025
 20
-340.4359168637211
 30
0.0
 11
231.3477662319156
 21
-769.0000000000027
 31
0.0
  0
LINE
  5
284C
330
2E48
100
AcDbEntity
  8
0
 62
     0
100
AcDbLine
 10
-411.5000000000025
 20
-337.4359503283049
 30
0.0
 11
235.847727525801
 21
-769.0000000000017
 31
0.0
  0
LINE
  5
284D
330
2E48
100
AcDbEntity
  8
0
 62
     0
100
AcDbLine
 10
-411.5000000000017
 20
-334.4359837928897
 30
0.0
 11
240.3476888196883
 21
-769.0000000000035
 31
0.0
  0
LINE
  5
284E
330
2E48
100
AcDbEntity
  8
0
 62
     0
100
AcDbLine
 10
-411.5000000000017
 20
-331.4360172574725
 30
0.0
 11
244.8476501135729
 21
-769.0000000000017
 31
0.0
  0
LINE
  5
284F
330
2E48
100
AcDbEntity
  8
0
 62
     0
100
AcDbLine
 10
-411.5000000000017
 20
-328.4360507220572
 30
0.0
 11
249.3476114074592
 21
-769.0000000000035
 31
0.0
  0
LINE
  5
2850
330
2E48
100
AcDbEntity
  8
0
 62
     0
100
AcDbLine
 10
-411.5000000000017
 20
-325.4360841866409
 30
0.0
 11
253.8475727013438
 21
-769.0000000000027
 31
0.0
  0
LINE
  5
2851
330
2E48
100
AcDbEntity
  8
0
 62
     0
100
AcDbLine
 10
-411.5000000000025
 20
-322.4361176512248
 30
0.0
 11
258.3475339952301
 21
-769.0000000000035
 31
0.0
  0
LINE
  5
2852
330
2E48
100
AcDbEntity
  8
0
 62
     0
100
AcDbLine
 10
-411.5000000000017
 20
-319.4361511158086
 30
0.0
 11
262.8474952891147
 21
-769.0000000000027
 31
0.0
  0
LINE
  5
2853
330
2E48
100
AcDbEntity
  8
0
 62
     0
100
AcDbLine
 10
-411.5000000000017
 20
-316.4361845803906
 30
0.0
 11
267.3474565830003
 21
-769.000000000001
 31
0.0
  0
LINE
  5
2854
330
2E48
100
AcDbEntity
  8
0
 62
     0
100
AcDbLine
 10
-411.5000000000017
 20
-313.4362180449752
 30
0.0
 11
271.8474178768865
 21
-769.0000000000027
 31
0.0
  0
LINE
  5
2855
330
2E48
100
AcDbEntity
  8
0
 62
     0
100
AcDbLine
 10
-411.5000000000017
 20
-310.4362515095581
 30
0.0
 11
276.3473791707711
 21
-769.0000000000017
 31
0.0
  0
LINE
  5
2856
330
2E48
100
AcDbEntity
  8
0
 62
     0
100
AcDbLine
 10
-411.5000000000017
 20
-307.4362849741437
 30
0.0
 11
280.8473404646566
 21
-769.0000000000017
 31
0.0
  0
LINE
  5
2857
330
2E48
100
AcDbEntity
  8
0
 62
     0
100
AcDbLine
 10
-411.5000000000017
 20
-304.4363184387266
 30
0.0
 11
285.347301758542
 21
-769.0000000000017
 31
0.0
  0
LINE
  5
2858
330
2E48
100
AcDbEntity
  8
0
 62
     0
100
AcDbLine
 10
-411.5000000000017
 20
-301.4363519033112
 30
0.0
 11
289.8472630524282
 21
-769.0000000000027
 31
0.0
  0
LINE
  5
2859
330
2E48
100
AcDbEntity
  8
0
 62
     0
100
AcDbLine
 10
-411.5000000000008
 20
-298.4363853678943
 30
0.0
 11
294.3472243463137
 21
-769.0000000000017
 31
0.0
  0
LINE
  5
285A
330
2E48
100
AcDbEntity
  8
0
 62
     0
100
AcDbLine
 10
-411.5000000000025
 20
-295.436418832478
 30
0.0
 11
298.8471856402002
 21
-769.0000000000035
 31
0.0
  0
LINE
  5
285B
330
2E48
100
AcDbEntity
  8
0
 62
     0
100
AcDbLine
 10
-411.5000000000008
 20
-292.4364522970628
 30
0.0
 11
303.3471469340848
 21
-769.0000000000017
 31
0.0
  0
LINE
  5
285C
330
2E48
100
AcDbEntity
  8
0
 62
     0
100
AcDbLine
 10
-411.5000000000025
 20
-289.4364857616465
 30
0.0
 11
307.8471082279711
 21
-769.0000000000035
 31
0.0
  0
LINE
  5
285D
330
2E48
100
AcDbEntity
  8
0
 62
     0
100
AcDbLine
 10
-411.5000000000025
 20
-286.4365192262294
 30
0.0
 11
312.3470695218557
 21
-769.0000000000017
 31
0.0
  0
LINE
  5
285E
330
2E48
100
AcDbEntity
  8
0
 62
     0
100
AcDbLine
 10
-411.5000000000025
 20
-283.4365526908142
 30
0.0
 11
316.8470308157421
 21
-769.0000000000035
 31
0.0
  0
LINE
  5
285F
330
2E48
100
AcDbEntity
  8
0
 62
     0
100
AcDbLine
 10
-411.5000000000017
 20
-280.436586155397
 30
0.0
 11
321.3469921096276
 21
-769.0000000000027
 31
0.0
  0
LINE
  5
2860
330
2E48
100
AcDbEntity
  8
0
 62
     0
100
AcDbLine
 10
-411.5000000000017
 20
-277.4366196199808
 30
0.0
 11
325.8469534035139
 21
-769.0000000000017
 31
0.0
  0
LINE
  5
2861
330
2E48
100
AcDbEntity
  8
0
 62
     0
100
AcDbLine
 10
-411.5000000000017
 20
-274.4366530845655
 30
0.0
 11
330.3469146973985
 21
-769.0000000000027
 31
0.0
  0
LINE
  5
2862
330
2E48
100
AcDbEntity
  8
0
 62
     0
100
AcDbLine
 10
-411.5000000000017
 20
-271.4366865491484
 30
0.0
 11
334.846875991283
 21
-769.000000000001
 31
0.0
  0
LINE
  5
2863
330
2E48
100
AcDbEntity
  8
0
 62
     0
100
AcDbLine
 10
-411.5000000000025
 20
-268.4367200137322
 30
0.0
 11
339.3468372851694
 21
-769.0000000000027
 31
0.0
  0
LINE
  5
2864
330
2E48
100
AcDbEntity
  8
0
 62
     0
100
AcDbLine
 10
-411.5000000000017
 20
-265.436753478316
 30
0.0
 11
343.846798579054
 21
-769.0000000000017
 31
0.0
  0
LINE
  5
2865
330
2E48
100
AcDbEntity
  8
0
 62
     0
100
AcDbLine
 10
-411.5000000000017
 20
-262.4367869428998
 30
0.0
 11
348.3467598729412
 21
-769.0000000000027
 31
0.0
  0
LINE
  5
2866
330
2E48
100
AcDbEntity
  8
0
 62
     0
100
AcDbLine
 10
-411.5000000000017
 20
-259.4368204074835
 30
0.0
 11
352.8467211668257
 21
-769.0000000000017
 31
0.0
  0
LINE
  5
2867
330
2E48
100
AcDbEntity
  8
0
 62
     0
100
AcDbLine
 10
-411.5000000000017
 20
-256.4368538720681
 30
0.0
 11
357.346682460712
 21
-769.0000000000035
 31
0.0
  0
LINE
  5
2868
330
2E48
100
AcDbEntity
  8
0
 62
     0
100
AcDbLine
 10
-411.5000000000017
 20
-253.4368873366511
 30
0.0
 11
361.8466437545967
 21
-769.0000000000017
 31
0.0
  0
LINE
  5
2869
330
2E48
100
AcDbEntity
  8
0
 62
     0
100
AcDbLine
 10
-411.5000000000017
 20
-250.4369208012358
 30
0.0
 11
366.3466050484831
 21
-769.0000000000035
 31
0.0
  0
LINE
  5
286A
330
2E48
100
AcDbEntity
  8
0
 62
     0
100
AcDbLine
 10
-411.5000000000017
 20
-247.4369542658187
 30
0.0
 11
370.8465663423694
 21
-769.0000000000027
 31
0.0
  0
LINE
  5
286B
330
2E48
100
AcDbEntity
  8
0
 62
     0
100
AcDbLine
 10
-411.5000000000008
 20
-244.4369877304043
 30
0.0
 11
375.3465276362549
 21
-769.0000000000035
 31
0.0
  0
LINE
  5
286C
330
2E48
100
AcDbEntity
  8
0
 62
     0
100
AcDbLine
 10
-411.5000000000025
 20
-241.4370211949863
 30
0.0
 11
379.8464889301395
 21
-769.0000000000027
 31
0.0
  0
LINE
  5
286D
330
2E48
100
AcDbEntity
  8
0
 62
     0
100
AcDbLine
 10
-411.5000000000025
 20
-238.4370546595692
 30
0.0
 11
384.3464502240257
 21
-769.0000000000017
 31
0.0
  0
LINE
  5
286E
330
2E48
100
AcDbEntity
  8
0
 62
     0
100
AcDbLine
 10
-411.5000000000025
 20
-235.4370881241539
 30
0.0
 11
388.8464115179104
 21
-769.0000000000027
 31
0.0
  0
LINE
  5
286F
330
2E48
100
AcDbEntity
  8
0
 62
     0
100
AcDbLine
 10
-411.5000000000025
 20
-232.4371215887368
 30
0.0
 11
393.3463728117949
 21
-769.000000000001
 31
0.0
  0
LINE
  5
2870
330
2E48
100
AcDbEntity
  8
0
 62
     0
100
AcDbLine
 10
-411.5000000000025
 20
-229.4371550533224
 30
0.0
 11
397.8463341056813
 21
-769.0000000000027
 31
0.0
  0
LINE
  5
2871
330
2E48
100
AcDbEntity
  8
0
 62
     0
100
AcDbLine
 10
-411.5000000000017
 20
-226.4371885179053
 30
0.0
 11
402.3462953995666
 21
-769.0000000000017
 31
0.0
  0
LINE
  5
2872
330
2E48
100
AcDbEntity
  8
0
 62
     0
100
AcDbLine
 10
-411.5000000000017
 20
-223.43722198249
 30
0.0
 11
406.8462566934528
 21
-769.0000000000027
 31
0.0
  0
LINE
  5
2873
330
2E48
100
AcDbEntity
  8
0
 62
     0
100
AcDbLine
 10
-411.5000000000017
 20
-220.4372554470729
 30
0.0
 11
411.3462179873376
 21
-769.0000000000017
 31
0.0
  0
LINE
  5
2874
330
2E48
100
AcDbEntity
  8
0
 62
     0
100
AcDbLine
 10
-411.5000000000017
 20
-217.4372889116575
 30
0.0
 11
411.4999999999978
 21
-766.102554544569
 31
0.0
  0
LINE
  5
2875
330
2E48
100
AcDbEntity
  8
0
 62
     0
100
AcDbLine
 10
-411.5000000000025
 20
-214.4373223762396
 30
0.0
 11
411.4999999999978
 21
-763.1025880091516
 31
0.0
  0
LINE
  5
2876
330
2E48
100
AcDbEntity
  8
0
 62
     0
100
AcDbLine
 10
-411.5000000000017
 20
-211.4373558408252
 30
0.0
 11
411.4999999999978
 21
-760.1026214737364
 31
0.0
  0
LINE
  5
2877
330
2E48
100
AcDbEntity
  8
0
 62
     0
100
AcDbLine
 10
-411.5000000000017
 20
-208.437389305408
 30
0.0
 11
411.4999999999978
 21
-757.1026549383193
 31
0.0
  0
LINE
  5
2878
330
2E48
100
AcDbEntity
  8
0
 62
     0
100
AcDbLine
 10
-411.5000000000017
 20
-205.4374227699927
 30
0.0
 11
411.4999999999978
 21
-754.1026884029045
 31
0.0
  0
LINE
  5
2879
330
2E48
100
AcDbEntity
  8
0
 62
     0
100
AcDbLine
 10
-411.5000000000017
 20
-202.4374562345756
 30
0.0
 11
411.4999999999969
 21
-751.102721867487
 31
0.0
  0
LINE
  5
287A
330
2E48
100
AcDbEntity
  8
0
 62
     0
100
AcDbLine
 10
-411.5000000000017
 20
-199.4374896991603
 30
0.0
 11
411.4999999999969
 21
-748.1027553320719
 31
0.0
  0
LINE
  5
287B
330
2E48
100
AcDbEntity
  8
0
 62
     0
100
AcDbLine
 10
-411.5000000000017
 20
-196.4375231637441
 30
0.0
 11
411.4999999999969
 21
-745.1027887966549
 31
0.0
  0
LINE
  5
287C
330
2E48
100
AcDbEntity
  8
0
 62
     0
100
AcDbLine
 10
-411.5000000000008
 20
-193.437556628327
 30
0.0
 11
411.4999999999978
 21
-742.1028222612376
 31
0.0
  0
LINE
  5
287D
330
2E48
100
AcDbEntity
  8
0
 62
     0
100
AcDbLine
 10
-411.5000000000008
 20
-190.4375900929117
 30
0.0
 11
411.4999999999978
 21
-739.1028557258232
 31
0.0
  0
LINE
  5
287E
330
2E48
100
AcDbEntity
  8
0
 62
     0
100
AcDbLine
 10
-411.5000000000025
 20
-187.4376235574937
 30
0.0
 11
411.4999999999978
 21
-736.1028891904062
 31
0.0
  0
LINE
  5
287F
330
2E48
100
AcDbEntity
  8
0
 62
     0
100
AcDbLine
 10
-411.5000000000025
 20
-184.4376570220784
 30
0.0
 11
411.4999999999969
 21
-733.1029226549907
 31
0.0
  0
LINE
  5
2880
330
2E48
100
AcDbEntity
  8
0
 62
     0
100
AcDbLine
 10
-411.5000000000025
 20
-181.4376904866622
 30
0.0
 11
411.4999999999969
 21
-730.1029561195738
 31
0.0
  0
LINE
  5
2881
330
2E48
100
AcDbEntity
  8
0
 62
     0
100
AcDbLine
 10
-411.5000000000025
 20
-178.4377239512469
 30
0.0
 11
411.4999999999969
 21
-727.1029895841583
 31
0.0
  0
LINE
  5
2882
330
2E48
100
AcDbEntity
  8
0
 62
     0
100
AcDbLine
 10
-411.5000000000017
 20
-175.4377574158297
 30
0.0
 11
411.4999999999978
 21
-724.1030230487413
 31
0.0
  0
LINE
  5
2883
330
2E48
100
AcDbEntity
  8
0
 62
     0
100
AcDbLine
 10
-411.5000000000017
 20
-172.4377908804143
 30
0.0
 11
411.4999999999978
 21
-721.1030565133261
 31
0.0
  0
LINE
  5
2884
330
2E48
100
AcDbEntity
  8
0
 62
     0
100
AcDbLine
 10
-411.5000000000017
 20
-169.4378243449973
 30
0.0
 11
411.4999999999978
 21
-718.1030899779089
 31
0.0
  0
LINE
  5
2885
330
2E48
100
AcDbEntity
  8
0
 62
     0
100
AcDbLine
 10
-411.5000000000017
 20
-166.437857809583
 30
0.0
 11
411.4999999999978
 21
-715.1031234424936
 31
0.0
  0
LINE
  5
2886
330
2E48
100
AcDbEntity
  8
0
 62
     0
100
AcDbLine
 10
-411.5000000000017
 20
-163.4378912741658
 30
0.0
 11
411.4999999999978
 21
-712.1031569070765
 31
0.0
  0
LINE
  5
2887
330
2E48
100
AcDbEntity
  8
0
 62
     0
100
AcDbLine
 10
-411.5000000000025
 20
-160.4379247387496
 30
0.0
 11
411.4999999999978
 21
-709.1031903716616
 31
0.0
  0
LINE
  5
2888
330
2E48
100
AcDbEntity
  8
0
 62
     0
100
AcDbLine
 10
-411.5000000000017
 20
-157.4379582033325
 30
0.0
 11
411.4999999999978
 21
-706.103223836244
 31
0.0
  0
LINE
  5
2889
330
2E48
100
AcDbEntity
  8
0
 62
     0
100
AcDbLine
 10
-411.5000000000017
 20
-154.4379916679154
 30
0.0
 11
411.4999999999991
 21
-703.1032573008277
 31
0.0
  0
LINE
  5
288A
330
2E48
100
AcDbEntity
  8
0
 62
     0
100
AcDbLine
 10
-411.5000000000017
 20
-151.4380251325001
 30
0.0
 11
411.4999999999969
 21
-700.1032907654115
 31
0.0
  0
LINE
  5
288B
330
2E48
100
AcDbEntity
  8
0
 62
     0
100
AcDbLine
 10
-411.5000000000017
 20
-148.4380585970839
 30
0.0
 11
411.4999999999978
 21
-697.1033242299955
 31
0.0
  0
LINE
  5
288C
330
2E48
100
AcDbEntity
  8
0
 62
     0
100
AcDbLine
 10
-411.5000000000017
 20
-145.4380920616686
 30
0.0
 11
411.4999999999969
 21
-694.1033576945799
 31
0.0
  0
LINE
  5
288D
330
2E48
100
AcDbEntity
  8
0
 62
     0
100
AcDbLine
 10
-411.5000000000017
 20
-142.4381255262515
 30
0.0
 11
411.4999999999969
 21
-691.103391159163
 31
0.0
  0
LINE
  5
288E
330
2E48
100
AcDbEntity
  8
0
 62
     0
100
AcDbLine
 10
-411.5000000000008
 20
-139.4381589908362
 30
0.0
 11
411.4999999999978
 21
-688.1034246237475
 31
0.0
  0
LINE
  5
288F
330
2E48
100
AcDbEntity
  8
0
 62
     0
100
AcDbLine
 10
-411.5000000000008
 20
-136.4381924554191
 30
0.0
 11
411.4999999999978
 21
-685.1034580883305
 31
0.0
  0
LINE
  5
2890
330
2E48
100
AcDbEntity
  8
0
 62
     0
100
AcDbLine
 10
-411.5000000000025
 20
-133.4382259200038
 30
0.0
 11
411.4999999999978
 21
-682.1034915529152
 31
0.0
  0
LINE
  5
2891
330
2E48
100
AcDbEntity
  8
0
 62
     0
100
AcDbLine
 10
-411.5000000000025
 20
-130.4382593845867
 30
0.0
 11
411.4999999999978
 21
-679.1035250174991
 31
0.0
  0
LINE
  5
2892
330
2E48
100
AcDbEntity
  8
0
 62
     0
100
AcDbLine
 10
-411.5000000000025
 20
-127.4382928491714
 30
0.0
 11
411.4999999999969
 21
-676.1035584820829
 31
0.0
  0
LINE
  5
2893
330
2E48
100
AcDbEntity
  8
0
 62
     0
100
AcDbLine
 10
-411.5000000000025
 20
-124.4383263137542
 30
0.0
 11
411.4999999999969
 21
-673.1035919466656
 31
0.0
  0
LINE
  5
2894
330
2E48
100
AcDbEntity
  8
0
 62
     0
100
AcDbLine
 10
-411.5000000000017
 20
-121.4383597783389
 30
0.0
 11
411.4999999999969
 21
-670.1036254112505
 31
0.0
  0
LINE
  5
2895
330
2E48
100
AcDbEntity
  8
0
 62
     0
100
AcDbLine
 10
-411.5000000000017
 20
-118.4383932429227
 30
0.0
 11
411.4999999999978
 21
-667.1036588758343
 31
0.0
  0
LINE
  5
2896
330
2E48
100
AcDbEntity
  8
0
 62
     0
100
AcDbLine
 10
-411.5000000000017
 20
-115.4384267075056
 30
0.0
 11
411.4999999999978
 21
-664.1036923404161
 31
0.0
  0
LINE
  5
2897
330
2E48
100
AcDbEntity
  8
0
 62
     0
100
AcDbLine
 10
-411.5000000000036
 20
-112.4384601720894
 30
0.0
 11
411.4999999999978
 21
-661.1037258050019
 31
0.0
  0
LINE
  5
2898
330
2E48
100
AcDbEntity
  8
0
 62
     0
100
AcDbLine
 10
-411.5000000000017
 20
-109.4384936366732
 30
0.0
 11
411.4999999999978
 21
-658.1037592695848
 31
0.0
  0
LINE
  5
2899
330
2E48
100
AcDbEntity
  8
0
 62
     0
100
AcDbLine
 10
-411.5000000000036
 20
-106.438527101257
 30
0.0
 11
411.4999999999978
 21
-655.1037927341694
 31
0.0
  0
LINE
  5
289A
330
2E48
100
AcDbEntity
  8
0
 62
     0
100
AcDbLine
 10
-411.5000000000025
 20
-103.4385605658399
 30
0.0
 11
411.4999999999991
 21
-652.1038261987524
 31
0.0
  0
LINE
  5
289B
330
2E48
100
AcDbEntity
  8
0
 62
     0
100
AcDbLine
 10
-411.5000000000017
 20
-100.4385940304255
 30
0.0
 11
411.4999999999991
 21
-649.103859663337
 31
0.0
  0
LINE
  5
289C
330
2E48
100
AcDbEntity
  8
0
 62
     0
100
AcDbLine
 10
-411.5000000000017
 20
-97.43862749500841
 30
0.0
 11
411.4999999999978
 21
-646.1038931279199
 31
0.0
  0
LINE
  5
289D
330
2E48
100
AcDbEntity
  8
0
 62
     0
100
AcDbLine
 10
-411.5000000000017
 20
-94.43866095959313
 30
0.0
 11
411.4999999999978
 21
-643.1039265925047
 31
0.0
  0
LINE
  5
289E
330
2E48
100
AcDbEntity
  8
0
 62
     0
100
AcDbLine
 10
-411.5000000000017
 20
-91.43869442417601
 30
0.0
 11
411.4999999999969
 21
-640.1039600570875
 31
0.0
  0
LINE
  5
289F
330
2E48
100
AcDbEntity
  8
0
 62
     0
100
AcDbLine
 10
-411.5000000000017
 20
-88.43872788876067
 30
0.0
 11
411.4999999999969
 21
-637.1039935216721
 31
0.0
  0
LINE
  5
28A0
330
2E48
100
AcDbEntity
  8
0
 62
     0
100
AcDbLine
 10
-411.5000000000025
 20
-85.43876135334354
 30
0.0
 11
411.4999999999978
 21
-634.1040269862551
 31
0.0
  0
LINE
  5
28A1
330
2E48
100
AcDbEntity
  8
0
 62
     0
100
AcDbLine
 10
-411.5000000000008
 20
-82.43879481792919
 30
0.0
 11
411.4999999999978
 21
-631.1040604508407
 31
0.0
  0
LINE
  5
28A2
330
2E48
100
AcDbEntity
  8
0
 62
     0
100
AcDbLine
 10
-411.5000000000025
 20
-79.43882828251116
 30
0.0
 11
411.4999999999978
 21
-628.1040939154236
 31
0.0
  0
LINE
  5
28A3
330
2E48
100
AcDbEntity
  8
0
 62
     0
100
AcDbLine
 10
-407.6582828107246
 20
-79.0
 30
0.0
 11
411.4999999999978
 21
-625.1041273800065
 31
0.0
  0
LINE
  5
28A4
330
2E48
100
AcDbEntity
  8
0
 62
     0
100
AcDbLine
 10
-403.1583215168399
 20
-79.0000000000009
 30
0.0
 11
411.4999999999978
 21
-622.1041608445911
 31
0.0
  0
LINE
  5
28A5
330
2E48
100
AcDbEntity
  8
0
 62
     0
100
AcDbLine
 10
-398.658360222953
 20
-79.0000000000009
 30
0.0
 11
411.4999999999978
 21
-619.104194309174
 31
0.0
  0
LINE
  5
28A6
330
2E48
100
AcDbEntity
  8
0
 62
     0
100
AcDbLine
 10
-394.1583989290684
 20
-79.0000000000009
 30
0.0
 11
411.4999999999978
 21
-616.1042277737585
 31
0.0
  0
LINE
  5
28A7
330
2E48
100
AcDbEntity
  8
0
 62
     0
100
AcDbLine
 10
-389.6584376351839
 20
-79.0
 30
0.0
 11
411.4999999999969
 21
-613.1042612383415
 31
0.0
  0
LINE
  5
28A8
330
2E48
100
AcDbEntity
  8
0
 62
     0
100
AcDbLine
 10
-385.1584763412976
 20
-79.0000000000009
 30
0.0
 11
411.4999999999978
 21
-610.1042947029263
 31
0.0
  0
LINE
  5
28A9
330
2E48
100
AcDbEntity
  8
0
 62
     0
100
AcDbLine
 10
-380.658515047413
 20
-79.0
 30
0.0
 11
411.4999999999978
 21
-607.1043281675092
 31
0.0
  0
LINE
  5
28AA
330
2E48
100
AcDbEntity
  8
0
 62
     0
100
AcDbLine
 10
-376.1585537535265
 20
-79.00000000000182
 30
0.0
 11
411.4999999999978
 21
-604.104361632094
 31
0.0
  0
LINE
  5
28AB
330
2E48
100
AcDbEntity
  8
0
 62
     0
100
AcDbLine
 10
-371.6585924596411
 20
-79.0
 30
0.0
 11
411.4999999999991
 21
-601.1043950966768
 31
0.0
  0
LINE
  5
28AC
330
2E48
100
AcDbEntity
  8
0
 62
     0
100
AcDbLine
 10
-367.1586311657546
 20
-79.00000000000182
 30
0.0
 11
411.4999999999991
 21
-598.1044285612624
 31
0.0
  0
LINE
  5
28AD
330
2E48
100
AcDbEntity
  8
0
 62
     0
100
AcDbLine
 10
-362.6586698718684
 20
-79.00000000000182
 30
0.0
 11
411.4999999999991
 21
-595.1044620258453
 31
0.0
  0
LINE
  5
28AE
330
2E48
100
AcDbEntity
  8
0
 62
     0
100
AcDbLine
 10
-358.1587085779838
 20
-79.00000000000182
 30
0.0
 11
411.4999999999978
 21
-592.1044954904291
 31
0.0
  0
LINE
  5
28AF
330
2E48
100
AcDbEntity
  8
0
 62
     0
100
AcDbLine
 10
-353.6587472840974
 20
-79.00000000000182
 30
0.0
 11
411.4999999999978
 21
-589.1045289550129
 31
0.0
  0
LINE
  5
28B0
330
2E48
100
AcDbEntity
  8
0
 62
     0
100
AcDbLine
 10
-349.1587859902129
 20
-79.0
 30
0.0
 11
411.4999999999969
 21
-586.1045624195947
 31
0.0
  0
LINE
  5
28B1
330
2E48
100
AcDbEntity
  8
0
 62
     0
100
AcDbLine
 10
-344.6588246963256
 20
-79.00000000000182
 30
0.0
 11
411.4999999999978
 21
-583.1045958841805
 31
0.0
  0
LINE
  5
28B2
330
2E48
100
AcDbEntity
  8
0
 62
     0
100
AcDbLine
 10
-340.1588634024411
 20
-79.0000000000009
 30
0.0
 11
411.4999999999978
 21
-580.1046293487632
 31
0.0
  0
LINE
  5
28B3
330
2E48
100
AcDbEntity
  8
0
 62
     0
100
AcDbLine
 10
-335.6589021085565
 20
-79.0000000000009
 30
0.0
 11
411.4999999999978
 21
-577.1046628133481
 31
0.0
  0
LINE
  5
28B4
330
2E48
100
AcDbEntity
  8
0
 62
     0
100
AcDbLine
 10
-331.1589408146701
 20
-79.0000000000009
 30
0.0
 11
411.4999999999978
 21
-574.104696277931
 31
0.0
  0
LINE
  5
28B5
330
2E48
100
AcDbEntity
  8
0
 62
     0
100
AcDbLine
 10
-326.6589795207857
 20
-79.0000000000009
 30
0.0
 11
411.4999999999978
 21
-571.1047297425157
 31
0.0
  0
LINE
  5
28B6
330
2E48
100
AcDbEntity
  8
0
 62
     0
100
AcDbLine
 10
-322.1590182268992
 20
-79.0000000000009
 30
0.0
 11
411.4999999999978
 21
-568.1047632070995
 31
0.0
  0
LINE
  5
28B7
330
2E48
100
AcDbEntity
  8
0
 62
     0
100
AcDbLine
 10
-317.6590569330138
 20
-79.0000000000009
 30
0.0
 11
411.4999999999978
 21
-565.1047966716832
 31
0.0
  0
LINE
  5
28B8
330
2E48
100
AcDbEntity
  8
0
 62
     0
100
AcDbLine
 10
-313.1590956391274
 20
-79.0000000000009
 30
0.0
 11
411.4999999999978
 21
-562.1048301362661
 31
0.0
  0
LINE
  5
28B9
330
2E48
100
AcDbEntity
  8
0
 62
     0
100
AcDbLine
 10
-308.6591343452428
 20
-79.00000000000182
 30
0.0
 11
411.4999999999969
 21
-559.1048636008508
 31
0.0
  0
LINE
  5
28BA
330
2E48
100
AcDbEntity
  8
0
 62
     0
100
AcDbLine
 10
-304.1591730513565
 20
-79.0000000000009
 30
0.0
 11
411.4999999999969
 21
-556.1048970654336
 31
0.0
  0
LINE
  5
28BB
330
2E48
100
AcDbEntity
  8
0
 62
     0
100
AcDbLine
 10
-299.6592117574719
 20
-79.00000000000182
 30
0.0
 11
411.4999999999969
 21
-553.1049305300183
 31
0.0
  0
LINE
  5
28BC
330
2E48
100
AcDbEntity
  8
0
 62
     0
100
AcDbLine
 10
-295.1592504635855
 20
-79.00000000000182
 30
0.0
 11
411.4999999999978
 21
-550.104963994602
 31
0.0
  0
LINE
  5
28BD
330
2E48
100
AcDbEntity
  8
0
 62
     0
100
AcDbLine
 10
-290.6592891696982
 20
-79.0000000000027
 30
0.0
 11
411.4999999999991
 21
-547.104997459187
 31
0.0
  0
LINE
  5
28BE
330
2E48
100
AcDbEntity
  8
0
 62
     0
100
AcDbLine
 10
-286.1593278758137
 20
-79.00000000000182
 30
0.0
 11
411.4999999999991
 21
-544.1050309237698
 31
0.0
  0
LINE
  5
28BF
330
2E48
100
AcDbEntity
  8
0
 62
     0
100
AcDbLine
 10
-281.6593665819291
 20
-79.0
 30
0.0
 11
411.4999999999991
 21
-541.1050643883527
 31
0.0
  0
LINE
  5
28C0
330
2E48
100
AcDbEntity
  8
0
 62
     0
100
AcDbLine
 10
-277.1594052880445
 20
-79.0000000000009
 30
0.0
 11
411.4999999999991
 21
-538.1050978529374
 31
0.0
  0
LINE
  5
28C1
330
2E48
100
AcDbEntity
  8
0
 62
     0
100
AcDbLine
 10
-272.6594439941582
 20
-79.0000000000009
 30
0.0
 11
411.4999999999978
 21
-535.1051313175203
 31
0.0
  0
LINE
  5
28C2
330
2E48
100
AcDbEntity
  8
0
 62
     0
100
AcDbLine
 10
-268.1594827002736
 20
-79.0000000000009
 30
0.0
 11
411.4999999999978
 21
-532.1051647821049
 31
0.0
  0
LINE
  5
28C3
330
2E48
100
AcDbEntity
  8
0
 62
     0
100
AcDbLine
 10
-263.6595214063864
 20
-79.0000000000009
 30
0.0
 11
411.4999999999978
 21
-529.1051982466878
 31
0.0
  0
LINE
  5
28C4
330
2E48
100
AcDbEntity
  8
0
 62
     0
100
AcDbLine
 10
-259.1595601125
 20
-79.00000000000182
 30
0.0
 11
411.4999999999978
 21
-526.1052317112726
 31
0.0
  0
LINE
  5
28C5
330
2E48
100
AcDbEntity
  8
0
 62
     0
100
AcDbLine
 10
-254.6595988186155
 20
-79.0000000000009
 30
0.0
 11
411.4999999999978
 21
-523.1052651758552
 31
0.0
  0
LINE
  5
28C6
330
2E48
100
AcDbEntity
  8
0
 62
     0
100
AcDbLine
 10
-250.1596375247291
 20
-79.0000000000027
 30
0.0
 11
411.4999999999978
 21
-520.1052986404411
 31
0.0
  0
LINE
  5
28C7
330
2E48
100
AcDbEntity
  8
0
 62
     0
100
AcDbLine
 10
-245.6596762308445
 20
-79.0000000000009
 30
0.0
 11
411.4999999999978
 21
-517.105332105024
 31
0.0
  0
LINE
  5
28C8
330
2E48
100
AcDbEntity
  8
0
 62
     0
100
AcDbLine
 10
-241.159714936959
 20
-79.0000000000027
 30
0.0
 11
411.4999999999978
 21
-514.1053655696087
 31
0.0
  0
LINE
  5
28C9
330
2E48
100
AcDbEntity
  8
0
 62
     0
100
AcDbLine
 10
-236.6597536430727
 20
-79.0000000000009
 30
0.0
 11
411.4999999999991
 21
-511.1053990341916
 31
0.0
  0
LINE
  5
28CA
330
2E48
100
AcDbEntity
  8
0
 62
     0
100
AcDbLine
 10
-232.1597923491872
 20
-79.0000000000027
 30
0.0
 11
411.4999999999991
 21
-508.1054324987761
 31
0.0
  0
LINE
  5
28CB
330
2E48
100
AcDbEntity
  8
0
 62
     0
100
AcDbLine
 10
-227.6598310553017
 20
-79.00000000000182
 30
0.0
 11
411.4999999999978
 21
-505.1054659633591
 31
0.0
  0
LINE
  5
28CC
330
2E48
100
AcDbEntity
  8
0
 62
     0
100
AcDbLine
 10
-223.1598697614172
 20
-79.0
 30
0.0
 11
411.4999999999978
 21
-502.105499427942
 31
0.0
  0
LINE
  5
28CD
330
2E48
100
AcDbEntity
  8
0
 62
     0
100
AcDbLine
 10
-218.6599084675308
 20
-79.00000000000182
 30
0.0
 11
411.4999999999969
 21
-499.1055328925265
 31
0.0
  0
LINE
  5
28CE
330
2E48
100
AcDbEntity
  8
0
 62
     0
100
AcDbLine
 10
-214.1599471736454
 20
-79.0
 30
0.0
 11
411.4999999999978
 21
-496.1055663571094
 31
0.0
  0
LINE
  5
28CF
330
2E48
100
AcDbEntity
  8
0
 62
     0
100
AcDbLine
 10
-209.6599858797599
 20
-79.00000000000182
 30
0.0
 11
411.4999999999991
 21
-493.1055998216943
 31
0.0
  0
LINE
  5
28D0
330
2E48
100
AcDbEntity
  8
0
 62
     0
100
AcDbLine
 10
-205.1600245858745
 20
-79.0000000000009
 30
0.0
 11
411.4999999999991
 21
-490.1056332862771
 31
0.0
  0
LINE
  5
28D1
330
2E48
100
AcDbEntity
  8
0
 62
     0
100
AcDbLine
 10
-200.660063291989
 20
-79.00000000000182
 30
0.0
 11
411.4999999999991
 21
-487.1056667508628
 31
0.0
  0
LINE
  5
28D2
330
2E48
100
AcDbEntity
  8
0
 62
     0
100
AcDbLine
 10
-196.1601019981035
 20
-79.0000000000009
 30
0.0
 11
411.4999999999991
 21
-484.1057002154457
 31
0.0
  0
LINE
  5
28D3
330
2E48
100
AcDbEntity
  8
0
 62
     0
100
AcDbLine
 10
-191.6601407042178
 20
-79.0000000000027
 30
0.0
 11
411.4999999999991
 21
-481.1057336800304
 31
0.0
  0
LINE
  5
28D4
330
2E48
100
AcDbEntity
  8
0
 62
     0
100
AcDbLine
 10
-187.1601794103307
 20
-79.00000000000182
 30
0.0
 11
411.4999999999991
 21
-478.1057671446133
 31
0.0
  0
LINE
  5
28D5
330
2E48
100
AcDbEntity
  8
0
 62
     0
100
AcDbLine
 10
-182.6602181164462
 20
-79.0000000000027
 30
0.0
 11
411.4999999999978
 21
-475.1058006091969
 31
0.0
  0
LINE
  5
28D6
330
2E48
100
AcDbEntity
  8
0
 62
     0
100
AcDbLine
 10
-178.1602568225598
 20
-79.00000000000182
 30
0.0
 11
411.4999999999978
 21
-472.1058340737808
 31
0.0
  0
LINE
  5
28D7
330
2E48
100
AcDbEntity
  8
0
 62
     0
100
AcDbLine
 10
-173.6602955286753
 20
-79.0000000000027
 30
0.0
 11
411.4999999999978
 21
-469.1058675383656
 31
0.0
  0
LINE
  5
28D8
330
2E48
100
AcDbEntity
  8
0
 62
     0
100
AcDbLine
 10
-169.1603342347907
 20
-79.0000000000009
 30
0.0
 11
411.4999999999978
 21
-466.1059010029481
 31
0.0
  0
LINE
  5
28D9
330
2E48
100
AcDbEntity
  8
0
 62
     0
100
AcDbLine
 10
-164.6603729409053
 20
-79.0
 30
0.0
 11
411.4999999999978
 21
-463.1059344675311
 31
0.0
  0
LINE
  5
28DA
330
2E48
100
AcDbEntity
  8
0
 62
     0
100
AcDbLine
 10
-160.1604116470188
 20
-79.00000000000182
 30
0.0
 11
411.4999999999991
 21
-460.105967932116
 31
0.0
  0
LINE
  5
28DB
330
2E48
100
AcDbEntity
  8
0
 62
     0
100
AcDbLine
 10
-155.6604503531325
 20
-79.0000000000009
 30
0.0
 11
411.4999999999978
 21
-457.1060013966988
 31
0.0
  0
LINE
  5
28DC
330
2E48
100
AcDbEntity
  8
0
 62
     0
100
AcDbLine
 10
-151.160489059248
 20
-79.00000000000182
 30
0.0
 11
411.4999999999991
 21
-454.1060348612846
 31
0.0
  0
LINE
  5
28DD
330
2E48
100
AcDbEntity
  8
0
 62
     0
100
AcDbLine
 10
-146.6605277653616
 20
-79.00000000000182
 30
0.0
 11
411.4999999999969
 21
-451.1060683258665
 31
0.0
  0
LINE
  5
28DE
330
2E48
100
AcDbEntity
  8
0
 62
     0
100
AcDbLine
 10
-142.160566471477
 20
-79.00000000000182
 30
0.0
 11
411.4999999999978
 21
-448.106101790452
 31
0.0
  0
LINE
  5
28DF
330
2E48
100
AcDbEntity
  8
0
 62
     0
100
AcDbLine
 10
-137.6606051775907
 20
-79.00000000000182
 30
0.0
 11
411.4999999999969
 21
-445.106135255034
 31
0.0
  0
LINE
  5
28E0
330
2E48
100
AcDbEntity
  8
0
 62
     0
100
AcDbLine
 10
-133.1606438837052
 20
-79.00000000000182
 30
0.0
 11
411.4999999999978
 21
-442.1061687196188
 31
0.0
  0
LINE
  5
28E1
330
2E48
100
AcDbEntity
  8
0
 62
     0
100
AcDbLine
 10
-128.6606825898188
 20
-79.00000000000182
 30
0.0
 11
411.4999999999978
 21
-439.1062021842023
 31
0.0
  0
LINE
  5
28E2
330
2E48
100
AcDbEntity
  8
0
 62
     0
100
AcDbLine
 10
-124.1607212959342
 20
-79.0000000000027
 30
0.0
 11
411.4999999999978
 21
-436.1062356487871
 31
0.0
  0
LINE
  5
28E3
330
2E48
100
AcDbEntity
  8
0
 62
     0
100
AcDbLine
 10
-119.6607600020479
 20
-79.00000000000182
 30
0.0
 11
411.4999999999978
 21
-433.1062691133702
 31
0.0
  0
LINE
  5
28E4
330
2E48
100
AcDbEntity
  8
0
 62
     0
100
AcDbLine
 10
-115.1607987081634
 20
-79.0000000000027
 30
0.0
 11
411.4999999999978
 21
-430.1063025779548
 31
0.0
  0
LINE
  5
28E5
330
2E48
100
AcDbEntity
  8
0
 62
     0
100
AcDbLine
 10
-110.6608374142788
 20
-79.0000000000009
 30
0.0
 11
411.4999999999969
 21
-427.1063360425368
 31
0.0
  0
LINE
  5
28E6
330
2E48
100
AcDbEntity
  8
0
 62
     0
100
AcDbLine
 10
-106.1608761203915
 20
-79.0000000000009
 30
0.0
 11
411.4999999999978
 21
-424.1063695071207
 31
0.0
  0
LINE
  5
28E7
330
2E48
100
AcDbEntity
  8
0
 62
     0
100
AcDbLine
 10
-101.6609148265052
 20
-79.0000000000027
 30
0.0
 11
411.4999999999978
 21
-421.1064029717054
 31
0.0
  0
LINE
  5
28E8
330
2E48
100
AcDbEntity
  8
0
 62
     0
100
AcDbLine
 10
-97.16095353261879
 20
-79.00000000000182
 30
0.0
 11
411.4999999999978
 21
-418.1064364362882
 31
0.0
  0
LINE
  5
28E9
330
2E48
100
AcDbEntity
  8
0
 62
     0
100
AcDbLine
 10
195.6999999999997
 20
-271.2401706012606
 30
0.0
 11
198.0397500727194
 21
-272.8000000000001
 31
0.0
  0
LINE
  5
28EA
330
2E48
100
AcDbEntity
  8
0
 62
     0
100
AcDbLine
 10
198.0397500727204
 20
-272.8000000000011
 30
0.0
 11
411.4999999999978
 21
-415.1064699008728
 31
0.0
  0
LINE
  5
28EB
330
2E48
100
AcDbEntity
  8
0
 62
     0
100
AcDbLine
 10
-92.66099223873608
 20
-79.00000000000182
 30
0.0
 11
195.6999999999989
 21
-271.2401706012597
 31
0.0
  0
LINE
  5
28EC
330
2E48
100
AcDbEntity
  8
0
 62
     0
100
AcDbLine
 10
195.6999999999997
 20
-268.2402040658435
 30
0.0
 11
202.5397113666059
 21
-272.8000000000001
 31
0.0
  0
LINE
  5
28ED
330
2E48
100
AcDbEntity
  8
0
 62
     0
100
AcDbLine
 10
202.5397113666068
 20
-272.8000000000011
 30
0.0
 11
411.4999999999978
 21
-412.1065033654558
 31
0.0
  0
LINE
  5
28EE
330
2E48
100
AcDbEntity
  8
0
 62
     0
100
AcDbLine
 10
-88.1610309448497
 20
-79.0000000000009
 30
0.0
 11
195.6999999999989
 21
-268.2402040658425
 31
0.0
  0
LINE
  5
28EF
330
2E48
100
AcDbEntity
  8
0
 62
     0
100
AcDbLine
 10
195.6999999999997
 20
-265.2402375304282
 30
0.0
 11
207.0396726604904
 21
-272.8000000000011
 31
0.0
  0
LINE
  5
28F0
330
2E48
100
AcDbEntity
  8
0
 62
     0
100
AcDbLine
 10
207.0396726604913
 20
-272.800000000002
 30
0.0
 11
411.4999999999978
 21
-409.1065368300414
 31
0.0
  0
LINE
  5
28F1
330
2E48
100
AcDbEntity
  8
0
 62
     0
100
AcDbLine
 10
-83.66106965096333
 20
-79.0000000000027
 30
0.0
 11
195.6999999999989
 21
-265.2402375304273
 31
0.0
  0
LINE
  5
28F2
330
2E48
100
AcDbEntity
  8
0
 62
     0
100
AcDbLine
 10
195.7000000000007
 20
-262.2402709950111
 30
0.0
 11
211.5396339543768
 21
-272.8000000000001
 31
0.0
  0
LINE
  5
28F3
330
2E48
100
AcDbEntity
  8
0
 62
     0
100
AcDbLine
 10
211.5396339543786
 20
-272.8000000000011
 30
0.0
 11
411.4999999999978
 21
-406.1065702946232
 31
0.0
  0
LINE
  5
28F4
330
2E48
100
AcDbEntity
  8
0
 62
     0
100
AcDbLine
 10
-79.16110835707603
 20
-79.0000000000027
 30
0.0
 11
195.6999999999997
 21
-262.2402709950101
 31
0.0
  0
LINE
  5
28F5
330
2E48
100
AcDbEntity
  8
0
 62
     0
100
AcDbLine
 10
195.7000000000007
 20
-259.2403044595967
 30
0.0
 11
216.0395952482631
 21
-272.800000000002
 31
0.0
  0
LINE
  5
28F6
330
2E48
100
AcDbEntity
  8
0
 62
     0
100
AcDbLine
 10
216.0395952482649
 20
-272.8000000000029
 30
0.0
 11
411.4999999999978
 21
-403.1066037592081
 31
0.0
  0
LINE
  5
28F7
330
2E48
100
AcDbEntity
  8
0
 62
     0
100
AcDbLine
 10
-74.66114706319057
 20
-79.00000000000365
 30
0.0
 11
195.6999999999989
 21
-259.2403044595949
 31
0.0
  0
LINE
  5
28F8
330
2E48
100
AcDbEntity
  8
0
 62
     0
100
AcDbLine
 10
195.7000000000007
 20
-256.2403379241787
 30
0.0
 11
220.5395565421476
 21
-272.8000000000001
 31
0.0
  0
LINE
  5
28F9
330
2E48
100
AcDbEntity
  8
0
 62
     0
100
AcDbLine
 10
220.5395565421496
 20
-272.800000000002
 30
0.0
 11
411.4999999999969
 21
-400.1066372237907
 31
0.0
  0
LINE
  5
28FA
330
2E48
100
AcDbEntity
  8
0
 62
     0
100
AcDbLine
 10
-70.16118576930693
 20
-79.00000000000182
 30
0.0
 11
195.6999999999997
 21
-256.2403379241787
 31
0.0
  0
LINE
  5
28FB
330
2E48
100
AcDbEntity
  8
0
 62
     0
100
AcDbLine
 10
195.7000000000007
 20
-253.2403713887634
 30
0.0
 11
225.0395178360341
 21
-272.800000000002
 31
0.0
  0
LINE
  5
28FC
330
2E48
100
AcDbEntity
  8
0
 62
     0
100
AcDbLine
 10
225.0395178360359
 20
-272.8000000000029
 30
0.0
 11
411.4999999999969
 21
-397.1066706883758
 31
0.0
  0
LINE
  5
28FD
330
2E48
100
AcDbEntity
  8
0
 62
     0
100
AcDbLine
 10
-65.66122447542055
 20
-79.00000000000365
 30
0.0
 11
195.6999999999997
 21
-253.2403713887634
 31
0.0
  0
LINE
  5
28FE
330
2E48
100
AcDbEntity
  8
0
 62
     0
100
AcDbLine
 10
195.6999999999997
 20
-250.2404048533463
 30
0.0
 11
229.5394791299204
 21
-272.800000000002
 31
0.0
  0
LINE
  5
28FF
330
2E48
100
AcDbEntity
  8
0
 62
     0
100
AcDbLine
 10
229.5394791299204
 20
-272.800000000002
 30
0.0
 11
411.4999999999969
 21
-394.1067041529596
 31
0.0
  0
LINE
  5
2900
330
2E48
100
AcDbEntity
  8
0
 62
     0
100
AcDbLine
 10
-61.16126318153511
 20
-79.0000000000027
 30
0.0
 11
195.6999999999989
 21
-250.2404048533463
 31
0.0
  0
LINE
  5
2901
330
2E48
100
AcDbEntity
  8
0
 62
     0
100
AcDbLine
 10
195.6999999999997
 20
-247.240438317931
 30
0.0
 11
234.039440423805
 21
-272.800000000002
 31
0.0
  0
LINE
  5
2902
330
2E48
100
AcDbEntity
  8
0
 62
     0
100
AcDbLine
 10
234.039440423805
 20
-272.800000000002
 30
0.0
 11
411.4999999999969
 21
-391.1067376175442
 31
0.0
  0
LINE
  5
2903
330
2E48
100
AcDbEntity
  8
0
 62
     0
100
AcDbLine
 10
-56.66130188765146
 20
-79.0000000000027
 30
0.0
 11
195.6999999999989
 21
-247.240438317931
 31
0.0
  0
LINE
  5
2904
330
2E48
100
AcDbEntity
  8
0
 62
     0
100
AcDbLine
 10
195.7000000000007
 20
-244.2404717825148
 30
0.0
 11
238.5394017176905
 21
-272.8000000000011
 31
0.0
  0
LINE
  5
2905
330
2E48
100
AcDbEntity
  8
0
 62
     0
100
AcDbLine
 10
238.5394017176905
 20
-272.8000000000011
 30
0.0
 11
411.4999999999978
 21
-388.1067710821271
 31
0.0
  0
LINE
  5
2906
330
2E48
100
AcDbEntity
  8
0
 62
     0
100
AcDbLine
 10
-52.16134059376418
 20
-79.00000000000182
 30
0.0
 11
195.6999999999989
 21
-244.2404717825129
 31
0.0
  0
LINE
  5
2907
330
2E48
100
AcDbEntity
  8
0
 62
     0
100
AcDbLine
 10
195.7000000000007
 20
-241.2405052470977
 30
0.0
 11
243.0393630115768
 21
-272.8000000000011
 31
0.0
  0
LINE
  5
2908
330
2E48
100
AcDbEntity
  8
0
 62
     0
100
AcDbLine
 10
243.0393630115768
 20
-272.8000000000011
 30
0.0
 11
411.4999999999978
 21
-385.10680454671
 31
0.0
  0
LINE
  5
2909
330
2E48
100
AcDbEntity
  8
0
 62
     0
100
AcDbLine
 10
-47.66137929987777
 20
-79.00000000000182
 30
0.0
 11
195.6999999999989
 21
-241.2405052470967
 31
0.0
  0
LINE
  5
290A
330
2E48
100
AcDbEntity
  8
0
 62
     0
100
AcDbLine
 10
195.7000000000007
 20
-238.2405387116823
 30
0.0
 11
247.5393243054614
 21
-272.8000000000011
 31
0.0
  0
LINE
  5
290B
330
2E48
100
AcDbEntity
  8
0
 62
     0
100
AcDbLine
 10
247.5393243054614
 20
-272.8000000000011
 30
0.0
 11
411.4999999999978
 21
-382.1068380112948
 31
0.0
  0
LINE
  5
290C
330
2E48
100
AcDbEntity
  8
0
 62
     0
100
AcDbLine
 10
-43.16141800599506
 20
-79.0000000000009
 30
0.0
 11
195.6999999999989
 21
-238.2405387116814
 31
0.0
  0
LINE
  5
290D
330
2E48
100
AcDbEntity
  8
0
 62
     0
100
AcDbLine
 10
195.6999999999997
 20
-235.2405721762652
 30
0.0
 11
252.0392855993478
 21
-272.8000000000011
 31
0.0
  0
LINE
  5
290E
330
2E48
100
AcDbEntity
  8
0
 62
     0
100
AcDbLine
 10
252.0392855993478
 20
-272.8000000000011
 30
0.0
 11
411.4999999999978
 21
-379.1068714758776
 31
0.0
  0
LINE
  5
290F
330
2E48
100
AcDbEntity
  8
0
 62
     0
100
AcDbLine
 10
-38.6614567121087
 20
-79.0000000000009
 30
0.0
 11
195.6999999999989
 21
-235.2405721762643
 31
0.0
  0
LINE
  5
2910
330
2E48
100
AcDbEntity
  8
0
 62
     0
100
AcDbLine
 10
195.6999999999997
 20
-232.24060564085
 30
0.0
 11
256.5392468932323
 21
-272.8000000000011
 31
0.0
  0
LINE
  5
2911
330
2E48
100
AcDbEntity
  8
0
 62
     0
100
AcDbLine
 10
256.5392468932323
 20
-272.8000000000011
 30
0.0
 11
411.4999999999978
 21
-376.1069049404623
 31
0.0
  0
LINE
  5
2912
330
2E48
100
AcDbEntity
  8
0
 62
     0
100
AcDbLine
 10
-34.16149541822233
 20
-79.0000000000027
 30
0.0
 11
195.6999999999989
 21
-232.240605640849
 31
0.0
  0
LINE
  5
2913
330
2E48
100
AcDbEntity
  8
0
 62
     0
100
AcDbLine
 10
195.6999999999989
 20
-229.2406391054319
 30
0.0
 11
261.0392081871187
 21
-272.8000000000011
 31
0.0
  0
LINE
  5
2914
330
2E48
100
AcDbEntity
  8
0
 62
     0
100
AcDbLine
 10
261.0392081871187
 20
-272.8000000000011
 30
0.0
 11
411.4999999999969
 21
-373.1069384050452
 31
0.0
  0
LINE
  5
2915
330
2E48
100
AcDbEntity
  8
0
 62
     0
100
AcDbLine
 10
-29.66153412433687
 20
-79.00000000000182
 30
0.0
 11
195.699999999998
 21
-229.2406391054319
 31
0.0
  0
LINE
  5
2916
330
2E48
100
AcDbEntity
  8
0
 62
     0
100
AcDbLine
 10
195.6999999999997
 20
-226.2406725700174
 30
0.0
 11
265.5391694810059
 21
-272.8000000000029
 31
0.0
  0
LINE
  5
2917
330
2E48
100
AcDbEntity
  8
0
 62
     0
100
AcDbLine
 10
265.5391694810059
 20
-272.8000000000029
 30
0.0
 11
411.4999999999978
 21
-370.1069718696297
 31
0.0
  0
LINE
  5
2918
330
2E48
100
AcDbEntity
  8
0
 62
     0
100
AcDbLine
 10
-25.16157283044959
 20
-79.00000000000365
 30
0.0
 11
195.6999999999989
 21
-226.2406725700166
 31
0.0
  0
LINE
  5
2919
330
2E48
100
AcDbEntity
  8
0
 62
     0
100
AcDbLine
 10
195.6999999999997
 20
-223.2407060346004
 30
0.0
 11
270.0391307748905
 21
-272.8000000000011
 31
0.0
  0
LINE
  5
291A
330
2E48
100
AcDbEntity
  8
0
 62
     0
100
AcDbLine
 10
270.0391307748905
 20
-272.8000000000011
 30
0.0
 11
411.4999999999978
 21
-367.1070053342128
 31
0.0
  0
LINE
  5
291B
330
2E48
100
AcDbEntity
  8
0
 62
     0
100
AcDbLine
 10
-20.66161153656592
 20
-79.0000000000009
 30
0.0
 11
195.6999999999989
 21
-223.2407060345995
 31
0.0
  0
LINE
  5
291C
330
2E48
100
AcDbEntity
  8
0
 62
     0
100
AcDbLine
 10
195.6999999999997
 20
-220.2407394991851
 30
0.0
 11
274.5390920687769
 21
-272.8000000000029
 31
0.0
  0
LINE
  5
291D
330
2E48
100
AcDbEntity
  8
0
 62
     0
100
AcDbLine
 10
274.5390920687769
 20
-272.8000000000029
 30
0.0
 11
411.4999999999978
 21
-364.1070387987975
 31
0.0
  0
LINE
  5
291E
330
2E48
100
AcDbEntity
  8
0
 62
     0
100
AcDbLine
 10
-16.16165024267957
 20
-79.0000000000027
 30
0.0
 11
195.6999999999989
 21
-220.2407394991842
 31
0.0
  0
LINE
  5
291F
330
2E48
100
AcDbEntity
  8
0
 62
     0
100
AcDbLine
 10
195.6999999999997
 20
-217.240772963768
 30
0.0
 11
279.0390533626614
 21
-272.8000000000011
 31
0.0
  0
LINE
  5
2920
330
2E48
100
AcDbEntity
  8
0
 62
     0
100
AcDbLine
 10
279.0390533626614
 20
-272.8000000000011
 30
0.0
 11
411.4999999999978
 21
-361.1070722633813
 31
0.0
  0
LINE
  5
2921
330
2E48
100
AcDbEntity
  8
0
 62
     0
100
AcDbLine
 10
-11.66168894879411
 20
-79.0000000000027
 30
0.0
 11
195.6999999999989
 21
-217.2407729637671
 31
0.0
  0
LINE
  5
2922
330
2E48
100
AcDbEntity
  8
0
 62
     0
100
AcDbLine
 10
195.6999999999997
 20
-214.2408064283527
 30
0.0
 11
283.5390146565478
 21
-272.8000000000029
 31
0.0
  0
LINE
  5
2923
330
2E48
100
AcDbEntity
  8
0
 62
     0
100
AcDbLine
 10
283.5390146565478
 20
-272.8000000000029
 30
0.0
 11
411.4999999999978
 21
-358.107105727966
 31
0.0
  0
LINE
  5
2924
330
2E48
100
AcDbEntity
  8
0
 62
     0
100
AcDbLine
 10
-7.161727654907735
 20
-79.00000000000365
 30
0.0
 11
195.6999999999989
 21
-214.2408064283517
 31
0.0
  0
LINE
  5
2925
330
2E48
100
AcDbEntity
  8
0
 62
     0
100
AcDbLine
 10
195.6999999999997
 20
-211.2408398929356
 30
0.0
 11
288.0389759504333
 21
-272.800000000002
 31
0.0
  0
LINE
  5
2926
330
2E48
100
AcDbEntity
  8
0
 62
     0
100
AcDbLine
 10
288.0389759504333
 20
-272.800000000002
 30
0.0
 11
411.4999999999978
 21
-355.1071391925479
 31
0.0
  0
LINE
  5
2927
330
2E48
100
AcDbEntity
  8
0
 62
     0
100
AcDbLine
 10
-2.661766361023182
 20
-79.00000000000182
 30
0.0
 11
195.6999999999997
 21
-211.2408398929356
 31
0.0
  0
LINE
  5
2928
330
2E48
100
AcDbEntity
  8
0
 62
     0
100
AcDbLine
 10
195.6999999999997
 20
-208.2408733575203
 30
0.0
 11
292.5389372443178
 21
-272.800000000002
 31
0.0
  0
LINE
  5
2929
330
2E48
100
AcDbEntity
  8
0
 62
     0
100
AcDbLine
 10
292.5389372443178
 20
-272.800000000002
 30
0.0
 11
411.4999999999978
 21
-352.1071726571336
 31
0.0
  0
LINE
  5
292A
330
2E48
100
AcDbEntity
  8
0
 62
     0
100
AcDbLine
 10
1.838194932862279
 20
-79.00000000000365
 30
0.0
 11
195.6999999999997
 21
-208.2408733575203
 31
0.0
  0
LINE
  5
292B
330
2E48
100
AcDbEntity
  8
0
 62
     0
100
AcDbLine
 10
195.6999999999997
 20
-205.2409068221032
 30
0.0
 11
297.0388985382024
 21
-272.8000000000011
 31
0.0
  0
LINE
  5
292C
330
2E48
100
AcDbEntity
  8
0
 62
     0
100
AcDbLine
 10
297.0388985382042
 20
-272.800000000002
 30
0.0
 11
411.4999999999978
 21
-349.1072061217165
 31
0.0
  0
LINE
  5
292D
330
2E48
100
AcDbEntity
  8
0
 62
     0
100
AcDbLine
 10
6.33815622674592
 20
-79.0000000000009
 30
0.0
 11
195.6999999999989
 21
-205.2409068221022
 31
0.0
  0
LINE
  5
292E
330
2E48
100
AcDbEntity
  8
0
 62
     0
100
AcDbLine
 10
195.6999999999997
 20
-202.2409402866859
 30
0.0
 11
301.5388598320888
 21
-272.8000000000001
 31
0.0
  0
LINE
  5
292F
330
2E48
100
AcDbEntity
  8
0
 62
     0
100
AcDbLine
 10
301.5388598320888
 20
-272.8000000000001
 30
0.0
 11
411.4999999999969
 21
-346.1072395862993
 31
0.0
  0
LINE
  5
2930
330
2E48
100
AcDbEntity
  8
0
 62
     0
100
AcDbLine
 10
10.83811752063229
 20
-79.0000000000009
 30
0.0
 11
195.6999999999997
 21
-202.2409402866859
 31
0.0
  0
LINE
  5
2931
330
2E48
100
AcDbEntity
  8
0
 62
     0
100
AcDbLine
 10
195.6999999999997
 20
-199.2409737512707
 30
0.0
 11
306.0388211259733
 21
-272.8000000000011
 31
0.0
  0
LINE
  5
2932
330
2E48
100
AcDbEntity
  8
0
 62
     0
100
AcDbLine
 10
306.0388211259751
 20
-272.800000000002
 30
0.0
 11
411.4999999999969
 21
-343.107273050884
 31
0.0
  0
LINE
  5
2933
330
2E48
100
AcDbEntity
  8
0
 62
     0
100
AcDbLine
 10
15.33807881451866
 20
-79.00000000000182
 30
0.0
 11
195.699999999998
 21
-199.2409737512696
 31
0.0
  0
LINE
  5
2934
330
2E48
100
AcDbEntity
  8
0
 62
     0
100
AcDbLine
 10
195.6999999999997
 20
-196.2410072158544
 30
0.0
 11
310.5387824198597
 21
-272.8000000000011
 31
0.0
  0
LINE
  5
2935
330
2E48
100
AcDbEntity
  8
0
 62
     0
100
AcDbLine
 10
310.5387824198615
 20
-272.800000000002
 30
0.0
 11
411.4999999999969
 21
-340.1073065154669
 31
0.0
  0
LINE
  5
2936
330
2E48
100
AcDbEntity
  8
0
 62
     0
100
AcDbLine
 10
19.83804010840413
 20
-79.00000000000182
 30
0.0
 11
195.6999999999989
 21
-196.2410072158536
 31
0.0
  0
LINE
  5
2937
330
2E48
100
AcDbEntity
  8
0
 62
     0
100
AcDbLine
 10
195.7000000000007
 20
-193.2410406804392
 30
0.0
 11
315.038743713747
 21
-272.800000000002
 31
0.0
  0
LINE
  5
2938
330
2E48
100
AcDbEntity
  8
0
 62
     0
100
AcDbLine
 10
315.038743713747
 20
-272.800000000002
 30
0.0
 11
411.4999999999978
 21
-337.1073399800516
 31
0.0
  0
LINE
  5
2939
330
2E48
100
AcDbEntity
  8
0
 62
     0
100
AcDbLine
 10
24.33800140229141
 20
-79.00000000000365
 30
0.0
 11
195.6999999999989
 21
-193.2410406804382
 31
0.0
  0
LINE
  5
293A
330
2E48
100
AcDbEntity
  8
0
 62
     0
100
AcDbLine
 10
195.7000000000007
 20
-190.2410741450221
 30
0.0
 11
319.5387050076315
 21
-272.8000000000011
 31
0.0
  0
LINE
  5
293B
330
2E48
100
AcDbEntity
  8
0
 62
     0
100
AcDbLine
 10
319.5387050076333
 20
-272.800000000002
 30
0.0
 11
411.4999999999978
 21
-334.1073734446345
 31
0.0
  0
LINE
  5
293C
330
2E48
100
AcDbEntity
  8
0
 62
     0
100
AcDbLine
 10
28.83796269617505
 20
-79.0000000000009
 30
0.0
 11
195.6999999999989
 21
-190.2410741450212
 31
0.0
  0
LINE
  5
293D
330
2E48
100
AcDbEntity
  8
0
 62
     0
100
AcDbLine
 10
195.7000000000007
 20
-187.2411076096068
 30
0.0
 11
324.0386663015179
 21
-272.8000000000029
 31
0.0
  0
LINE
  5
293E
330
2E48
100
AcDbEntity
  8
0
 62
     0
100
AcDbLine
 10
324.0386663015188
 20
-272.8000000000039
 30
0.0
 11
411.4999999999978
 21
-331.10740690922
 31
0.0
  0
LINE
  5
293F
330
2E48
100
AcDbEntity
  8
0
 62
     0
100
AcDbLine
 10
33.33792399006052
 20
-79.0000000000027
 30
0.0
 11
195.6999999999989
 21
-187.2411076096059
 31
0.0
  0
LINE
  5
2940
330
2E48
100
AcDbEntity
  8
0
 62
     0
100
AcDbLine
 10
195.6999999999997
 20
-184.2411410741896
 30
0.0
 11
328.5386275954024
 21
-272.8000000000011
 31
0.0
  0
LINE
  5
2941
330
2E48
100
AcDbEntity
  8
0
 62
     0
100
AcDbLine
 10
328.5386275954043
 20
-272.800000000002
 30
0.0
 11
411.4999999999978
 21
-328.1074403738021
 31
0.0
  0
LINE
  5
2942
330
2E48
100
AcDbEntity
  8
0
 62
     0
100
AcDbLine
 10
37.83788528394689
 20
-79.00000000000182
 30
0.0
 11
195.6999999999989
 21
-184.2411410741888
 31
0.0
  0
LINE
  5
2943
330
2E48
100
AcDbEntity
  8
0
 62
     0
100
AcDbLine
 10
195.6999999999989
 20
-181.2411745387734
 30
0.0
 11
333.0385888892888
 21
-272.8000000000029
 31
0.0
  0
LINE
  5
2944
330
2E48
100
AcDbEntity
  8
0
 62
     0
100
AcDbLine
 10
333.0385888892897
 20
-272.8000000000039
 30
0.0
 11
411.4999999999978
 21
-325.1074738383868
 31
0.0
  0
LINE
  5
2945
330
2E48
100
AcDbEntity
  8
0
 62
     0
100
AcDbLine
 10
42.33784657783327
 20
-79.00000000000365
 30
0.0
 11
195.6999999999989
 21
-181.2411745387734
 31
0.0
  0
LINE
  5
2946
330
2E48
100
AcDbEntity
  8
0
 62
     0
100
AcDbLine
 10
195.6999999999989
 20
-178.2412080033573
 30
0.0
 11
337.5385501831734
 21
-272.8000000000011
 31
0.0
  0
LINE
  5
2947
330
2E48
100
AcDbEntity
  8
0
 62
     0
100
AcDbLine
 10
337.5385501831743
 20
-272.800000000002
 30
0.0
 11
411.4999999999969
 21
-322.1075073029697
 31
0.0
  0
LINE
  5
2948
330
2E48
100
AcDbEntity
  8
0
 62
     0
100
AcDbLine
 10
46.8378078717169
 20
-79.00000000000182
 30
0.0
 11
195.6999999999989
 21
-178.2412080033573
 31
0.0
  0
LINE
  5
2949
330
2E48
100
AcDbEntity
  8
0
 62
     0
100
AcDbLine
 10
195.6999999999997
 20
-175.241241467942
 30
0.0
 11
342.0385114770605
 21
-272.8000000000029
 31
0.0
  0
LINE
  5
294A
330
2E48
100
AcDbEntity
  8
0
 62
     0
100
AcDbLine
 10
342.0385114770605
 20
-272.8000000000029
 30
0.0
 11
411.4999999999978
 21
-319.1075407675544
 31
0.0
  0
LINE
  5
294B
330
2E48
100
AcDbEntity
  8
0
 62
     0
100
AcDbLine
 10
51.33776916560329
 20
-79.0000000000027
 30
0.0
 11
195.6999999999989
 21
-175.2412414679411
 31
0.0
  0
LINE
  5
294C
330
2E48
100
AcDbEntity
  8
0
 62
     0
100
AcDbLine
 10
195.6999999999997
 20
-172.2412749325249
 30
0.0
 11
346.5384727709452
 21
-272.8000000000011
 31
0.0
  0
LINE
  5
294D
330
2E48
100
AcDbEntity
  8
0
 62
     0
100
AcDbLine
 10
346.5384727709461
 20
-272.8000000000029
 30
0.0
 11
411.4999999999978
 21
-316.1075742321373
 31
0.0
  0
LINE
  5
294E
330
2E48
100
AcDbEntity
  8
0
 62
     0
100
AcDbLine
 10
55.83773045948965
 20
-79.0000000000027
 30
0.0
 11
195.6999999999989
 21
-172.2412749325249
 31
0.0
  0
LINE
  5
294F
330
2E48
100
AcDbEntity
  8
0
 62
     0
100
AcDbLine
 10
195.6999999999997
 20
-169.2413083971096
 30
0.0
 11
351.0384340648297
 21
-272.800000000002
 31
0.0
  0
LINE
  5
2950
330
2E48
100
AcDbEntity
  8
0
 62
     0
100
AcDbLine
 10
351.0384340648315
 20
-272.8000000000029
 30
0.0
 11
411.4999999999978
 21
-313.1076076967229
 31
0.0
  0
LINE
  5
2951
330
2E48
100
AcDbEntity
  8
0
 62
     0
100
AcDbLine
 10
60.33769175337329
 20
-79.00000000000182
 30
0.0
 11
195.6999999999989
 21
-169.2413083971087
 31
0.0
  0
LINE
  5
2952
330
2E48
100
AcDbEntity
  8
0
 62
     0
100
AcDbLine
 10
195.6999999999997
 20
-166.2413418616924
 30
0.0
 11
355.5383953587161
 21
-272.800000000002
 31
0.0
  0
LINE
  5
2953
330
2E48
100
AcDbEntity
  8
0
 62
     0
100
AcDbLine
 10
355.538395358717
 20
-272.8000000000029
 30
0.0
 11
411.4999999999978
 21
-310.1076411613058
 31
0.0
  0
LINE
  5
2954
330
2E48
100
AcDbEntity
  8
0
 62
     0
100
AcDbLine
 10
64.83765304725875
 20
-79.00000000000182
 30
0.0
 11
195.6999999999989
 21
-166.2413418616916
 31
0.0
  0
LINE
  5
2955
330
2E48
100
AcDbEntity
  8
0
 62
     0
100
AcDbLine
 10
195.6999999999989
 20
-163.2413753262772
 30
0.0
 11
360.0383566526008
 21
-272.800000000002
 31
0.0
  0
LINE
  5
2956
330
2E48
100
AcDbEntity
  8
0
 62
     0
100
AcDbLine
 10
360.0383566526025
 20
-272.8000000000039
 30
0.0
 11
411.4999999999978
 21
-307.1076746258905
 31
0.0
  0
LINE
  5
2957
330
2E48
100
AcDbEntity
  8
0
 62
     0
100
AcDbLine
 10
69.33761434114514
 20
-79.00000000000365
 30
0.0
 11
195.6999999999989
 21
-163.2413753262772
 31
0.0
  0
LINE
  5
2958
330
2E48
100
AcDbEntity
  8
0
 62
     0
100
AcDbLine
 10
195.6999999999989
 20
-160.2414087908601
 30
0.0
 11
364.538317946487
 21
-272.800000000002
 31
0.0
  0
LINE
  5
2959
330
2E48
100
AcDbEntity
  8
0
 62
     0
100
AcDbLine
 10
364.5383179464888
 20
-272.8000000000039
 30
0.0
 11
411.4999999999978
 21
-304.1077080904734
 31
0.0
  0
LINE
  5
295A
330
2E48
100
AcDbEntity
  8
0
 62
     0
100
AcDbLine
 10
73.8375756350315
 20
-79.0000000000027
 30
0.0
 11
195.6999999999989
 21
-160.2414087908601
 31
0.0
  0
LINE
  5
295B
330
2E48
100
AcDbEntity
  8
0
 62
     0
100
AcDbLine
 10
195.6999999999997
 20
-157.2414422554429
 30
0.0
 11
369.0382792403724
 21
-272.8000000000001
 31
0.0
  0
LINE
  5
295C
330
2E48
100
AcDbEntity
  8
0
 62
     0
100
AcDbLine
 10
369.038279240376
 20
-272.8000000000029
 30
0.0
 11
411.4999999999978
 21
-301.1077415550563
 31
0.0
  0
LINE
  5
295D
330
2E48
100
AcDbEntity
  8
0
 62
     0
100
AcDbLine
 10
78.33753692891604
 20
-79.0000000000009
 30
0.0
 11
195.6999999999997
 21
-157.2414422554429
 31
0.0
  0
LINE
  5
295E
330
2E48
100
AcDbEntity
  8
0
 62
     0
100
AcDbLine
 10
195.6999999999997
 20
-154.2414757200276
 30
0.0
 11
373.5382405342589
 21
-272.800000000002
 31
0.0
  0
LINE
  5
295F
330
2E48
100
AcDbEntity
  8
0
 62
     0
100
AcDbLine
 10
373.5382405342608
 20
-272.8000000000039
 30
0.0
 11
411.4999999999978
 21
-298.1077750196409
 31
0.0
  0
LINE
  5
2960
330
2E48
100
AcDbEntity
  8
0
 62
     0
100
AcDbLine
 10
82.83749822280148
 20
-79.00000000000182
 30
0.0
 11
195.6999999999997
 21
-154.2414757200276
 31
0.0
  0
LINE
  5
2961
330
2E48
100
AcDbEntity
  8
0
 62
     0
100
AcDbLine
 10
195.6999999999997
 20
-151.2415091846104
 30
0.0
 11
378.0382018281434
 21
-272.8000000000011
 31
0.0
  0
LINE
  5
2962
330
2E48
100
AcDbEntity
  8
0
 62
     0
100
AcDbLine
 10
378.0382018281471
 20
-272.8000000000029
 30
0.0
 11
411.4999999999969
 21
-295.1078084842238
 31
0.0
  0
LINE
  5
2963
330
2E48
100
AcDbEntity
  8
0
 62
     0
100
AcDbLine
 10
87.33745951668787
 20
-79.00000000000182
 30
0.0
 11
195.6999999999989
 21
-151.2415091846104
 31
0.0
  0
LINE
  5
2964
330
2E48
100
AcDbEntity
  8
0
 62
     0
100
AcDbLine
 10
195.6999999999997
 20
-148.2415426491961
 30
0.0
 11
382.5381631220298
 21
-272.800000000002
 31
0.0
  0
LINE
  5
2965
330
2E48
100
AcDbEntity
  8
0
 62
     0
100
AcDbLine
 10
382.5381631220334
 20
-272.8000000000047
 30
0.0
 11
411.4999999999969
 21
-292.1078419488085
 31
0.0
  0
LINE
  5
2966
330
2E48
100
AcDbEntity
  8
0
 62
     0
100
AcDbLine
 10
91.8374208105742
 20
-79.00000000000365
 30
0.0
 11
195.6999999999989
 21
-148.2415426491952
 31
0.0
  0
LINE
  5
2967
330
2E48
100
AcDbEntity
  8
0
 62
     0
100
AcDbLine
 10
195.6999999999997
 20
-145.241576113779
 30
0.0
 11
387.0381244159144
 21
-272.8000000000011
 31
0.0
  0
LINE
  5
2968
330
2E48
100
AcDbEntity
  8
0
 62
     0
100
AcDbLine
 10
387.038124415918
 20
-272.8000000000039
 30
0.0
 11
411.4999999999969
 21
-289.1078754133914
 31
0.0
  0
LINE
  5
2969
330
2E48
100
AcDbEntity
  8
0
 62
     0
100
AcDbLine
 10
96.33738210445699
 20
-79.0000000000009
 30
0.0
 11
195.699999999998
 21
-145.2415761137781
 31
0.0
  0
LINE
  5
296A
330
2E48
100
AcDbEntity
  8
0
 62
     0
100
AcDbLine
 10
195.6999999999997
 20
-142.2416095783637
 30
0.0
 11
391.5380857097998
 21
-272.8000000000029
 31
0.0
  0
LINE
  5
296B
330
2E48
100
AcDbEntity
  8
0
 62
     0
100
AcDbLine
 10
391.5380857098026
 20
-272.8000000000039
 30
0.0
 11
411.4999999999969
 21
-286.107908877976
 31
0.0
  0
LINE
  5
296C
330
2E48
100
AcDbEntity
  8
0
 62
     0
100
AcDbLine
 10
100.8373433983432
 20
-79.0000000000027
 30
0.0
 11
195.699999999998
 21
-142.2416095783628
 31
0.0
  0
LINE
  5
296D
330
2E48
100
AcDbEntity
  8
0
 62
     0
100
AcDbLine
 10
195.6999999999997
 20
-139.2416430429465
 30
0.0
 11
396.0380470036863
 21
-272.8000000000011
 31
0.0
  0
LINE
  5
296E
330
2E48
100
AcDbEntity
  8
0
 62
     0
100
AcDbLine
 10
396.0380470036879
 20
-272.8000000000029
 30
0.0
 11
411.4999999999978
 21
-283.1079423425599
 31
0.0
  0
LINE
  5
296F
330
2E48
100
AcDbEntity
  8
0
 62
     0
100
AcDbLine
 10
105.3373046922306
 20
-79.0000000000027
 30
0.0
 11
195.6999999999989
 21
-139.2416430429457
 31
0.0
  0
LINE
  5
2970
330
2E48
100
AcDbEntity
  8
0
 62
     0
100
AcDbLine
 10
195.6999999999997
 20
-136.2416765075313
 30
0.0
 11
400.5380082975716
 21
-272.8000000000029
 31
0.0
  0
LINE
  5
2971
330
2E48
100
AcDbEntity
  8
0
 62
     0
100
AcDbLine
 10
400.5380082975744
 20
-272.8000000000039
 30
0.0
 11
411.4999999999978
 21
-280.1079758071446
 31
0.0
  0
LINE
  5
2972
330
2E48
100
AcDbEntity
  8
0
 62
     0
100
AcDbLine
 10
109.837265986117
 20
-79.00000000000365
 30
0.0
 11
195.6999999999989
 21
-136.2416765075304
 31
0.0
  0
LINE
  5
2973
330
2E48
100
AcDbEntity
  8
0
 62
     0
100
AcDbLine
 10
195.6999999999997
 20
-133.2417099721142
 30
0.0
 11
405.0379695914569
 21
-272.8000000000011
 31
0.0
  0
LINE
  5
2974
330
2E48
100
AcDbEntity
  8
0
 62
     0
100
AcDbLine
 10
405.0379695914607
 20
-272.8000000000039
 30
0.0
 11
411.4999999999978
 21
-277.1080092717275
 31
0.0
  0
LINE
  5
2975
330
2E48
100
AcDbEntity
  8
0
 62
     0
100
AcDbLine
 10
114.3372272799997
 20
-79.00000000000182
 30
0.0
 11
195.6999999999989
 21
-133.2417099721133
 31
0.0
  0
LINE
  5
2976
330
2E48
100
AcDbEntity
  8
0
 62
     0
100
AcDbLine
 10
195.6999999999989
 20
-130.2417434366989
 30
0.0
 11
409.5379308853416
 21
-272.800000000002
 31
0.0
  0
LINE
  5
2977
330
2E48
100
AcDbEntity
  8
0
 62
     0
100
AcDbLine
 10
409.5379308853453
 20
-272.8000000000047
 30
0.0
 11
411.4999999999978
 21
-274.1080427363122
 31
0.0
  0
LINE
  5
2978
330
2E48
100
AcDbEntity
  8
0
 62
     0
100
AcDbLine
 10
118.8371885738861
 20
-79.0000000000027
 30
0.0
 11
195.6999999999989
 21
-130.2417434366989
 31
0.0
  0
LINE
  5
2979
330
2E48
100
AcDbEntity
  8
0
 62
     0
100
AcDbLine
 10
195.6999999999989
 20
-127.2417769012818
 30
0.0
 11
411.4999999999969
 21
-271.1080762008942
 31
0.0
  0
LINE
  5
297A
330
2E48
100
AcDbEntity
  8
0
 62
     0
100
AcDbLine
 10
123.3371498677725
 20
-79.0000000000027
 30
0.0
 11
195.699999999998
 21
-127.2417769012809
 31
0.0
  0
LINE
  5
297B
330
2E48
100
AcDbEntity
  8
0
 62
     0
100
AcDbLine
 10
195.6999999999989
 20
-124.2418103658665
 30
0.0
 11
411.4999999999969
 21
-268.1081096654789
 31
0.0
  0
LINE
  5
297C
330
2E48
100
AcDbEntity
  8
0
 62
     0
100
AcDbLine
 10
127.8371111616552
 20
-79.00000000000182
 30
0.0
 11
195.699999999998
 21
-124.2418103658665
 31
0.0
  0
LINE
  5
297D
330
2E48
100
AcDbEntity
  8
0
 62
     0
100
AcDbLine
 10
195.6999999999997
 20
-121.2418438304494
 30
0.0
 11
411.4999999999978
 21
-265.1081431300627
 31
0.0
  0
LINE
  5
297E
330
2E48
100
AcDbEntity
  8
0
 62
     0
100
AcDbLine
 10
132.3370724555425
 20
-79.00000000000182
 30
0.0
 11
195.6999999999989
 21
-121.2418438304494
 31
0.0
  0
LINE
  5
297F
330
2E48
100
AcDbEntity
  8
0
 62
     0
100
AcDbLine
 10
195.6999999999997
 20
-118.2418772950323
 30
0.0
 11
411.4999999999978
 21
-262.1081765946456
 31
0.0
  0
LINE
  5
2980
330
2E48
100
AcDbEntity
  8
0
 62
     0
100
AcDbLine
 10
136.8370337494289
 20
-79.00000000000182
 30
0.0
 11
195.699999999998
 21
-118.2418772950313
 31
0.0
  0
LINE
  5
2981
330
2E48
100
AcDbEntity
  8
0
 62
     0
100
AcDbLine
 10
195.6999999999997
 20
-115.2419107596179
 30
0.0
 11
411.4999999999978
 21
-259.1082100592303
 31
0.0
  0
LINE
  5
2982
330
2E48
100
AcDbEntity
  8
0
 62
     0
100
AcDbLine
 10
141.3369950433143
 20
-79.0000000000027
 30
0.0
 11
195.6999999999989
 21
-115.241910759617
 31
0.0
  0
LINE
  5
2983
330
2E48
100
AcDbEntity
  8
0
 62
     0
100
AcDbLine
 10
195.6999999999989
 20
-112.2419442241998
 30
0.0
 11
411.4999999999969
 21
-256.1082435238132
 31
0.0
  0
LINE
  5
2984
330
2E48
100
AcDbEntity
  8
0
 62
     0
100
AcDbLine
 10
145.8369563372007
 20
-79.00000000000182
 30
0.0
 11
195.6999999999989
 21
-112.2419442241998
 31
0.0
  0
LINE
  5
2985
330
2E48
100
AcDbEntity
  8
0
 62
     0
100
AcDbLine
 10
195.6999999999989
 20
-109.2419776887854
 30
0.0
 11
411.4999999999969
 21
-253.1082769883977
 31
0.0
  0
LINE
  5
2986
330
2E48
100
AcDbEntity
  8
0
 62
     0
100
AcDbLine
 10
150.3369176310853
 20
-79.0000000000027
 30
0.0
 11
195.6999999999989
 21
-109.2419776887846
 31
0.0
  0
LINE
  5
2987
330
2E48
100
AcDbEntity
  8
0
 62
     0
100
AcDbLine
 10
195.6999999999989
 20
-106.2420111533674
 30
0.0
 11
411.4999999999963
 21
-250.1083104529807
 31
0.0
  0
LINE
  5
2988
330
2E48
100
AcDbEntity
  8
0
 62
     0
100
AcDbLine
 10
154.8368789249716
 20
-79.0000000000027
 30
0.0
 11
195.6999999999989
 21
-106.2420111533674
 31
0.0
  0
LINE
  5
2989
330
2E48
100
AcDbEntity
  8
0
 62
     0
100
AcDbLine
 10
195.6999999999997
 20
-103.2420446179521
 30
0.0
 11
411.4999999999969
 21
-247.1083439175654
 31
0.0
  0
LINE
  5
298A
330
2E48
100
AcDbEntity
  8
0
 62
     0
100
AcDbLine
 10
159.3368402188571
 20
-79.0000000000027
 30
0.0
 11
195.6999999999997
 21
-103.2420446179521
 31
0.0
  0
LINE
  5
298B
330
2E48
100
AcDbEntity
  8
0
 62
     0
100
AcDbLine
 10
195.6999999999997
 20
-100.2420780825359
 30
0.0
 11
411.4999999999969
 21
-244.1083773821483
 31
0.0
  0
LINE
  5
298C
330
2E48
100
AcDbEntity
  8
0
 62
     0
100
AcDbLine
 10
163.8368015127435
 20
-79.0000000000027
 30
0.0
 11
195.6999999999989
 21
-100.242078082535
 31
0.0
  0
LINE
  5
298D
330
2E48
100
AcDbEntity
  8
0
 62
     0
100
AcDbLine
 10
195.6999999999997
 20
-97.24211154712065
 30
0.0
 11
411.4999999999969
 21
-241.108410846733
 31
0.0
  0
LINE
  5
298E
330
2E48
100
AcDbEntity
  8
0
 62
     0
100
AcDbLine
 10
168.336762806628
 20
-79.0000000000027
 30
0.0
 11
195.6999999999989
 21
-97.24211154711973
 31
0.0
  0
LINE
  5
298F
330
2E48
100
AcDbEntity
  8
0
 62
     0
100
AcDbLine
 10
195.6999999999997
 20
-94.24214501170354
 30
0.0
 11
411.4999999999969
 21
-238.1084443113159
 31
0.0
  0
LINE
  5
2990
330
2E48
100
AcDbEntity
  8
0
 62
     0
100
AcDbLine
 10
172.8367241005126
 20
-79.00000000000182
 30
0.0
 11
195.699999999998
 21
-94.24214501170263
 31
0.0
  0
LINE
  5
2991
330
2E48
100
AcDbEntity
  8
0
 62
     0
100
AcDbLine
 10
195.6999999999997
 20
-91.24217847628825
 30
0.0
 11
411.4999999999969
 21
-235.1084777759015
 31
0.0
  0
LINE
  5
2992
330
2E48
100
AcDbEntity
  8
0
 62
     0
100
AcDbLine
 10
177.3366853943971
 20
-79.0000000000027
 30
0.0
 11
195.699999999998
 21
-91.24217847628729
 31
0.0
  0
LINE
  5
2993
330
2E48
100
AcDbEntity
  8
0
 62
     0
100
AcDbLine
 10
195.6999999999989
 20
-88.24221194087114
 30
0.0
 11
411.4999999999969
 21
-232.1085112404844
 31
0.0
  0
LINE
  5
2994
330
2E48
100
AcDbEntity
  8
0
 62
     0
100
AcDbLine
 10
181.8366466882835
 20
-79.00000000000182
 30
0.0
 11
195.699999999998
 21
-88.24221194087021
 31
0.0
  0
LINE
  5
2995
330
2E48
100
AcDbEntity
  8
0
 62
     0
100
AcDbLine
 10
195.6999999999989
 20
-85.24224540545491
 30
0.0
 11
411.4999999999978
 21
-229.1085447050682
 31
0.0
  0
LINE
  5
2996
330
2E48
100
AcDbEntity
  8
0
 62
     0
100
AcDbLine
 10
186.3366079821708
 20
-79.00000000000365
 30
0.0
 11
195.6999999999989
 21
-85.24224540545491
 31
0.0
  0
LINE
  5
2997
330
2E48
100
AcDbEntity
  8
0
 62
     0
100
AcDbLine
 10
195.6999999999989
 20
-82.2422788700387
 30
0.0
 11
411.4999999999978
 21
-226.108578169652
 31
0.0
  0
LINE
  5
2998
330
2E48
100
AcDbEntity
  8
0
 62
     0
100
AcDbLine
 10
190.8365692760551
 20
-79.00000000000182
 30
0.0
 11
195.6999999999989
 21
-82.2422788700387
 31
0.0
  0
LINE
  5
2999
330
2E48
100
AcDbEntity
  8
0
 62
     0
100
AcDbLine
 10
195.6999999999989
 20
-79.24231233462156
 30
0.0
 11
411.4999999999969
 21
-223.108611634234
 31
0.0
  0
LINE
  5
299A
330
2E48
100
AcDbEntity
  8
0
 62
     0
100
AcDbLine
 10
195.3365305699417
 20
-79.00000000000182
 30
0.0
 11
195.6999999999989
 21
-79.24231233462156
 31
0.0
  0
LINE
  5
299B
330
2E48
100
AcDbEntity
  8
0
 62
     0
100
AcDbLine
 10
199.8364918638272
 20
-79.0000000000027
 30
0.0
 11
411.4999999999969
 21
-220.1086450988187
 31
0.0
  0
LINE
  5
299C
330
2E48
100
AcDbEntity
  8
0
 62
     0
100
AcDbLine
 10
204.3364531577136
 20
-79.0000000000027
 30
0.0
 11
411.4999999999969
 21
-217.1086785634025
 31
0.0
  0
LINE
  5
299D
330
2E48
100
AcDbEntity
  8
0
 62
     0
100
AcDbLine
 10
208.836414451599
 20
-79.0000000000027
 30
0.0
 11
411.4999999999978
 21
-214.1087120279872
 31
0.0
  0
LINE
  5
299E
330
2E48
100
AcDbEntity
  8
0
 62
     0
100
AcDbLine
 10
213.3363757454854
 20
-79.0000000000027
 30
0.0
 11
411.4999999999978
 21
-211.1087454925701
 31
0.0
  0
LINE
  5
299F
330
2E48
100
AcDbEntity
  8
0
 62
     0
100
AcDbLine
 10
217.8363370393709
 20
-79.00000000000455
 30
0.0
 11
411.4999999999978
 21
-208.1087789571547
 31
0.0
  0
LINE
  5
29A0
330
2E48
100
AcDbEntity
  8
0
 62
     0
100
AcDbLine
 10
222.3362983332554
 20
-79.0000000000027
 30
0.0
 11
411.4999999999978
 21
-205.1088124217376
 31
0.0
  0
LINE
  5
29A1
330
2E48
100
AcDbEntity
  8
0
 62
     0
100
AcDbLine
 10
226.8362596271408
 20
-79.00000000000365
 30
0.0
 11
411.4999999999969
 21
-202.1088458863224
 31
0.0
  0
LINE
  5
29A2
330
2E48
100
AcDbEntity
  8
0
 62
     0
100
AcDbLine
 10
231.3362209210254
 20
-79.00000000000182
 30
0.0
 11
411.4999999999969
 21
-199.1088793509052
 31
0.0
  0
LINE
  5
29A3
330
2E48
100
AcDbEntity
  8
0
 62
     0
100
AcDbLine
 10
235.8361822149127
 20
-79.00000000000365
 30
0.0
 11
411.4999999999969
 21
-196.1089128154899
 31
0.0
  0
LINE
  5
29A4
330
2E48
100
AcDbEntity
  8
0
 62
     0
100
AcDbLine
 10
240.3361435087973
 20
-79.0000000000027
 30
0.0
 11
411.4999999999969
 21
-193.1089462800728
 31
0.0
  0
LINE
  5
29A5
330
2E48
100
AcDbEntity
  8
0
 62
     0
100
AcDbLine
 10
244.8361048026836
 20
-79.00000000000365
 30
0.0
 11
411.4999999999969
 21
-190.1089797446575
 31
0.0
  0
LINE
  5
29A6
330
2E48
100
AcDbEntity
  8
0
 62
     0
100
AcDbLine
 10
249.3360660965691
 20
-79.00000000000365
 30
0.0
 11
411.4999999999969
 21
-187.1090132092413
 31
0.0
  0
LINE
  5
29A7
330
2E48
100
AcDbEntity
  8
0
 62
     0
100
AcDbLine
 10
253.8360273904536
 20
-79.0000000000027
 30
0.0
 11
411.4999999999963
 21
-184.1090466738233
 31
0.0
  0
LINE
  5
29A8
330
2E48
100
AcDbEntity
  8
0
 62
     0
100
AcDbLine
 10
258.33598868434
 20
-79.00000000000365
 30
0.0
 11
411.4999999999963
 21
-181.109080138408
 31
0.0
  0
LINE
  5
29A9
330
2E48
100
AcDbEntity
  8
0
 62
     0
100
AcDbLine
 10
262.8359499782255
 20
-79.0000000000027
 30
0.0
 11
411.4999999999969
 21
-178.1091136029909
 31
0.0
  0
LINE
  5
29AA
330
2E48
100
AcDbEntity
  8
0
 62
     0
100
AcDbLine
 10
267.3359112721119
 20
-79.00000000000365
 30
0.0
 11
411.4999999999963
 21
-175.1091470675756
 31
0.0
  0
LINE
  5
29AB
330
2E48
100
AcDbEntity
  8
0
 62
     0
100
AcDbLine
 10
271.8358725659964
 20
-79.0000000000027
 30
0.0
 11
411.4999999999963
 21
-172.1091805321584
 31
0.0
  0
LINE
  5
29AC
330
2E48
100
AcDbEntity
  8
0
 62
     0
100
AcDbLine
 10
276.3358338598828
 20
-79.00000000000455
 30
0.0
 11
411.4999999999953
 21
-169.1092139967431
 31
0.0
  0
LINE
  5
29AD
330
2E48
100
AcDbEntity
  8
0
 62
     0
100
AcDbLine
 10
280.8357951537673
 20
-79.0000000000027
 30
0.0
 11
411.4999999999953
 21
-166.109247461326
 31
0.0
  0
LINE
  5
29AE
330
2E48
100
AcDbEntity
  8
0
 62
     0
100
AcDbLine
 10
285.3357564476519
 20
-79.00000000000365
 30
0.0
 11
411.4999999999953
 21
-163.1092809259107
 31
0.0
  0
LINE
  5
29AF
330
2E48
100
AcDbEntity
  8
0
 62
     0
100
AcDbLine
 10
289.8357177415391
 20
-79.0000000000027
 30
0.0
 11
411.4999999999963
 21
-160.1093143904936
 31
0.0
  0
LINE
  5
29B0
330
2E48
100
AcDbEntity
  8
0
 62
     0
100
AcDbLine
 10
294.3356790354237
 20
-79.00000000000365
 30
0.0
 11
411.4999999999953
 21
-157.1093478550783
 31
0.0
  0
LINE
  5
29B1
330
2E48
100
AcDbEntity
  8
0
 62
     0
100
AcDbLine
 10
298.8356403293101
 20
-79.00000000000365
 30
0.0
 11
411.4999999999953
 21
-154.1093813196611
 31
0.0
  0
LINE
  5
29B2
330
2E48
100
AcDbEntity
  8
0
 62
     0
100
AcDbLine
 10
303.3356016231946
 20
-79.00000000000365
 30
0.0
 11
411.4999999999945
 21
-151.1094147842459
 31
0.0
  0
LINE
  5
29B3
330
2E48
100
AcDbEntity
  8
0
 62
     0
100
AcDbLine
 10
307.835562917081
 20
-79.00000000000365
 30
0.0
 11
411.4999999999945
 21
-148.1094482488288
 31
0.0
  0
LINE
  5
29B4
330
2E48
100
AcDbEntity
  8
0
 62
     0
100
AcDbLine
 10
312.3355242109655
 20
-79.00000000000182
 30
0.0
 11
411.4999999999945
 21
-145.1094817134117
 31
0.0
  0
LINE
  5
29B5
330
2E48
100
AcDbEntity
  8
0
 62
     0
100
AcDbLine
 10
316.8354855048528
 20
-79.00000000000365
 30
0.0
 11
411.4999999999963
 21
-142.1095151779964
 31
0.0
  0
LINE
  5
29B6
330
2E48
100
AcDbEntity
  8
0
 62
     0
100
AcDbLine
 10
321.3354467987392
 20
-79.00000000000365
 30
0.0
 11
411.4999999999963
 21
-139.1095486425793
 31
0.0
  0
LINE
  5
29B7
330
2E48
100
AcDbEntity
  8
0
 62
     0
100
AcDbLine
 10
325.8354080926238
 20
-79.00000000000365
 30
0.0
 11
411.4999999999963
 21
-136.1095821071649
 31
0.0
  0
LINE
  5
29B8
330
2E48
100
AcDbEntity
  8
0
 62
     0
100
AcDbLine
 10
330.33536938651
 20
-79.00000000000365
 30
0.0
 11
411.4999999999963
 21
-133.1096155717478
 31
0.0
  0
LINE
  5
29B9
330
2E48
100
AcDbEntity
  8
0
 62
     0
100
AcDbLine
 10
334.8353306803947
 20
-79.00000000000365
 30
0.0
 11
411.4999999999953
 21
-130.1096490363325
 31
0.0
  0
LINE
  5
29BA
330
2E48
100
AcDbEntity
  8
0
 62
     0
100
AcDbLine
 10
339.3352919742792
 20
-79.0000000000027
 30
0.0
 11
411.4999999999953
 21
-127.1096825009153
 31
0.0
  0
LINE
  5
29BB
330
2E48
100
AcDbEntity
  8
0
 62
     0
100
AcDbLine
 10
343.8352532681648
 20
-79.00000000000365
 30
0.0
 11
411.4999999999953
 21
-124.1097159654991
 31
0.0
  0
LINE
  5
29BC
330
2E48
100
AcDbEntity
  8
0
 62
     0
100
AcDbLine
 10
348.3352145620511
 20
-79.0000000000027
 30
0.0
 11
411.4999999999953
 21
-121.1097494300829
 31
0.0
  0
LINE
  5
29BD
330
2E48
100
AcDbEntity
  8
0
 62
     0
100
AcDbLine
 10
352.8351758559375
 20
-79.00000000000455
 30
0.0
 11
411.4999999999953
 21
-118.1097828946676
 31
0.0
  0
LINE
  5
29BE
330
2E48
100
AcDbEntity
  8
0
 62
     0
100
AcDbLine
 10
357.335137149822
 20
-79.0000000000027
 30
0.0
 11
411.4999999999953
 21
-115.1098163592505
 31
0.0
  0
LINE
  5
29BF
330
2E48
100
AcDbEntity
  8
0
 62
     0
100
AcDbLine
 10
361.8350984437083
 20
-79.00000000000455
 30
0.0
 11
411.4999999999953
 21
-112.1098498238352
 31
0.0
  0
LINE
  5
29C0
330
2E48
100
AcDbEntity
  8
0
 62
     0
100
AcDbLine
 10
366.3350597375929
 20
-79.00000000000365
 30
0.0
 11
411.4999999999953
 21
-109.1098832884181
 31
0.0
  0
LINE
  5
29C1
330
2E48
100
AcDbEntity
  8
0
 62
     0
100
AcDbLine
 10
370.8350210314801
 20
-79.00000000000455
 30
0.0
 11
411.4999999999963
 21
-106.1099167530037
 31
0.0
  0
LINE
  5
29C2
330
2E48
100
AcDbEntity
  8
0
 62
     0
100
AcDbLine
 10
375.3349823253647
 20
-79.00000000000365
 30
0.0
 11
411.4999999999953
 21
-103.1099502175857
 31
0.0
  0
LINE
  5
29C3
330
2E48
100
AcDbEntity
  8
0
 62
     0
100
AcDbLine
 10
379.8349436192511
 20
-79.00000000000365
 30
0.0
 11
411.4999999999953
 21
-100.1099836821686
 31
0.0
  0
LINE
  5
29C4
330
2E48
100
AcDbEntity
  8
0
 62
     0
100
AcDbLine
 10
384.3349049131375
 20
-79.00000000000455
 30
0.0
 11
411.4999999999945
 21
-97.1100171467533
 31
0.0
  0
LINE
  5
29C5
330
2E48
100
AcDbEntity
  8
0
 62
     0
100
AcDbLine
 10
388.8348662070221
 20
-79.00000000000365
 30
0.0
 11
411.4999999999945
 21
-94.1100506113362
 31
0.0
  0
LINE
  5
29C6
330
2E48
100
AcDbEntity
  8
0
 62
     0
100
AcDbLine
 10
393.3348275009075
 20
-79.00000000000365
 30
0.0
 11
411.4999999999953
 21
-91.11008407592086
 31
0.0
  0
LINE
  5
29C7
330
2E48
100
AcDbEntity
  8
0
 62
     0
100
AcDbLine
 10
397.8347887947921
 20
-79.0000000000027
 30
0.0
 11
411.4999999999953
 21
-88.11011754050467
 31
0.0
  0
LINE
  5
29C8
330
2E48
100
AcDbEntity
  8
0
 62
     0
100
AcDbLine
 10
402.3347500886782
 20
-79.00000000000455
 30
0.0
 11
411.4999999999963
 21
-85.1101510050894
 31
0.0
  0
LINE
  5
29C9
330
2E48
100
AcDbEntity
  8
0
 62
     0
100
AcDbLine
 10
406.8347113825629
 20
-79.0000000000027
 30
0.0
 11
411.4999999999963
 21
-82.11018446967228
 31
0.0
  0
LINE
  5
29CA
330
2E48
100
AcDbEntity
  8
0
 62
     0
100
AcDbLine
 10
411.3346726764492
 20
-79.00000000000455
 30
0.0
 11
411.4999999999963
 21
-79.11021793425698
 31
0.0
  0
ENDBLK
  5
29CB
330
2E48
100
AcDbEntity
  8
0
100
AcDbBlockEnd
  0
ENDSEC
  0
SECTION
  2
ENTITIES
  0
TEXT
  5
953
330
2D74
100
AcDbEntity
  8
OUTLINE
  6
Continuous
 62
     3
100
AcDbText
 10
-418.231467
 20
13.715189
 30
0.0
 40
64.0
  1
 
 41
0.9
100
AcDbText
  0
TEXT
  5
954
330
2D74
100
AcDbEntity
  8
OUTLINE
  6
Continuous
 62
     3
100
AcDbText
 10
-418.231467
 20
13.715189
 30
0.0
 40
64.0
  1
 
 41
0.9
100
AcDbText
  0
TEXT
  5
955
330
2D74
100
AcDbEntity
  8
OUTLINE
  6
Continuous
 62
     3
100
AcDbText
 10
1341.41903
 20
-706.0588199999997
 30
0.0
 40
64.0
  1
 
 41
0.9
100
AcDbText
  0
TEXT
  5
956
330
2D74
100
AcDbEntity
  8
OUTLINE
  6
Continuous
 62
     3
100
AcDbText
 10
1341.41903
 20
-706.0588199999997
 30
0.0
 40
64.0
  1
 
 41
0.9
100
AcDbText
  0
TEXT
  5
957
330
2D74
100
AcDbEntity
  8
OUTLINE
  6
Continuous
 62
     3
100
AcDbText
 10
1341.41903
 20
-706.0588199999997
 30
0.0
 40
64.0
  1
 
 41
0.9
100
AcDbText
  0
TEXT
  5
958
330
2D74
100
AcDbEntity
  8
OUTLINE
  6
Continuous
 62
     3
100
AcDbText
 10
1341.41903
 20
-706.0588199999997
 30
0.0
 40
64.0
  1
 
 41
0.9
100
AcDbText
  0
TEXT
  5
2A1C
330
2D74
100
AcDbEntity
  8
ETC
100
AcDbText
 10
703.1707774738838
 20
640.8783149610516
 30
0.0
 40
64.0
  1
システム部材
 41
0.9
100
AcDbText
  0
TEXT
  5
2A1D
330
2D74
100
AcDbEntity
  8
ETC
100
AcDbText
 10
709.3787754738841
 20
741.7616409610508
 30
0.0
 40
64.0
  1
W-80TAM-A_6
 41
0.9
100
AcDbText
  0
TEXT
  5
2A1E
330
2D74
100
AcDbEntity
  8
ETC
100
AcDbText
 10
709.3787754738841
 20
541.7616409610508
 30
0.0
 40
64.0
  1
W-80TAM-A
 41
0.9
100
AcDbText
  0
CIRCLE
  5
2A1F
330
2D74
100
AcDbEntity
  8
ARRANGE
100
AcDbCircle
 10
0.0
 20
-0.0000000986738087
 30
0.0
 40
40.0
  0
LINE
  5
2A20
330
2D74
100
AcDbEntity
  8
BASIS
100
AcDbLine
 10
0.0
 20
25.0
 30
0.0
 11
0.0
 21
-815.0
 31
0.0
  0
POINT
  5
2A21
330
2D74
100
AcDbEntity
  8
ARRANGE
100
AcDbPoint
 10
0.0
 20
0.0
 30
0.0
 39
50.0
  0
LINE
  5
2A22
330
2D74
100
AcDbEntity
  8
DETAIL
100
AcDbLine
 10
-411.5
 20
-769.0
 30
0.0
 11
-411.5
 21
-79.0
 31
0.0
  0
LINE
  5
2A23
330
2D74
100
AcDbEntity
  8
DETAIL
100
AcDbLine
 10
411.4999999999977
 20
-769.0
 30
0.0
 11
411.5
 21
-79.0
 31
0.0
  0
LINE
  5
2A24
330
2D74
100
AcDbEntity
  8
DETAIL
100
AcDbLine
 10
-437.0
 20
-790.0
 30
0.0
 11
-437.0
 21
-1.000000000000909
 31
0.0
  0
LINE
  5
2A25
330
2D74
100
AcDbEntity
  8
DETAIL
100
AcDbLine
 10
437.0
 20
-790.0
 30
0.0
 11
437.0
 21
-1.000000000000909
 31
0.0
  0
LINE
  5
2A26
330
2D74
100
AcDbEntity
  8
DETAIL
100
AcDbLine
 10
-411.5
 20
-79.0
 30
0.0
 11
411.5
 21
-79.0
 31
0.0
  0
LINE
  5
2A27
330
2D74
100
AcDbEntity
  8
DETAIL
100
AcDbLine
 10
-437.0
 20
-38.0
 30
0.0
 11
437.0
 21
-38.0
 31
0.0
  0
LINE
  5
2A28
330
2D74
100
AcDbEntity
  8
DETAIL
100
AcDbLine
 10
-475.0
 20
-1.0
 30
0.0
 11
475.0
 21
-1.0
 31
0.0
  0
LINE
  5
2A29
330
2D74
100
AcDbEntity
  8
DETAIL
100
AcDbLine
 10
-475.0
 20
0.0
 30
0.0
 11
475.0
 21
0.0
 31
0.0
  0
LINE
  5
2A2A
330
2D74
100
AcDbEntity
  8
DETAIL
100
AcDbLine
 10
-437.0
 20
-190.0
 30
0.0
 11
-437.0
 21
-1.0
 31
0.0
  0
LINE
  5
2A2B
330
2D74
100
AcDbEntity
  8
DETAIL
100
AcDbLine
 10
-475.0
 20
-1.0
 30
0.0
 11
-475.0
 21
0.0
 31
0.0
  0
LINE
  5
2A2C
330
2D74
100
AcDbEntity
  8
NOTE
100
AcDbLine
 10
-450.0
 20
12.5
 30
0.0
 11
-450.0
 21
-12.5
 31
0.0
  0
LINE
  5
2A2D
330
2D74
100
AcDbEntity
  8
NOTE
100
AcDbLine
 10
449.9999999999982
 20
-12.5
 30
0.0
 11
449.9999999999982
 21
12.5
 31
0.0
  0
LINE
  5
2A2E
330
2D74
100
AcDbEntity
  8
DETAIL
100
AcDbLine
 10
475.0
 20
0.0
 30
0.0
 11
475.0
 21
-1.0
 31
0.0
  0
LINE
  5
2A2F
330
2D74
100
AcDbEntity
  8
DETAIL
100
AcDbLine
 10
-411.5
 20
-769.0
 30
0.0
 11
411.5
 21
-769.0
 31
0.0
  0
LINE
  5
2A30
330
2D74
100
AcDbEntity
  8
DETAIL
100
AcDbLine
 10
-437.0
 20
-790.0
 30
0.0
 11
437.0
 21
-790.0
 31
0.0
  0
LINE
  5
2A31
330
2D74
100
AcDbEntity
  8
DETAIL
100
AcDbLine
 10
163.0
 20
-790.0
 30
0.0
 11
381.0
 21
-790.0
 31
0.0
  0
LINE
  5
2A32
330
2D74
100
AcDbEntity
  8
DETAIL
100
AcDbLine
 10
-437.0
 20
-58.0
 30
0.0
 11
437.0
 21
-58.0
 31
0.0
  0
INSERT
  5
2A33
330
2D74
100
AcDbEntity
  8
0
100
AcDbBlockReference
  2
*U66
 10
0.0
 20
0.0
 30
0.0
1001
ACAD
1000
DSTYLE
1002
{
1070
    41
1040
12.0
1070
    42
1040
20.0
1070
    43
1040
200.0
1070
    44
1040
20.0
1070
    73
1070
     0
1070
    74
1070
     0
1070
    77
1070
     1
1070
    78
1070
     8
1070
   140
1040
64.0
1070
   147
1040
50.0
1070
   172
1070
     1
1070
   174
1070
     1
1070
   275
1070
     0
1070
   284
1070
     0
1070
   285
1070
     0
1070
   286
1070
     0
1070
   341
1005
0
1070
   342
1005
0
1002
}
  0
INSERT
  5
2A34
330
2D74
100
AcDbEntity
  8
0
100
AcDbBlockReference
  2
*U67
 10
0.0
 20
0.0
 30
0.0
  0
LINE
  5
2A35
330
2D74
100
AcDbEntity
  8
NOTE
100
AcDbLine
 39
50.0
 10
-462.5
 20
0.0
 30
0.0
 11
-437.5
 21
0.0
 31
0.0
  0
LINE
  5
2A36
330
2D74
100
AcDbEntity
  8
NOTE
100
AcDbLine
 39
50.0
 10
437.4999999999982
 20
0.0
 30
0.0
 11
462.4999999999982
 21
0.0
 31
0.0
  0
LINE
  5
2A37
330
2D74
100
AcDbEntity
  8
OUTLINE
100
AcDbLine
 39
50.0
 10
-475.0
 20
0.0
 30
0.0
 11
475.0
 21
0.0
 31
0.0
  0
LINE
  5
2A38
330
2D74
100
AcDbEntity
  8
OUTLINE
100
AcDbLine
 10
-437.0
 20
-790.0
 30
0.0
 11
-437.0
 21
-1.000000000000909
 31
0.0
  0
LINE
  5
2A39
330
2D74
100
AcDbEntity
  8
OUTLINE
100
AcDbLine
 10
437.0
 20
-790.0
 30
0.0
 11
437.0
 21
-1.000000000000909
 31
0.0
  0
LINE
  5
2A3A
330
2D74
100
AcDbEntity
  8
OUTLINE
100
AcDbLine
 10
-437.0
 20
-38.0
 30
0.0
 11
437.0
 21
-38.0
 31
0.0
  0
LINE
  5
2A3B
330
2D74
100
AcDbEntity
  8
OUTLINE
100
AcDbLine
 10
-475.0
 20
-1.0
 30
0.0
 11
475.0
 21
-1.0
 31
0.0
  0
LINE
  5
2A3C
330
2D74
100
AcDbEntity
  8
OUTLINE
100
AcDbLine
 10
-437.0
 20
-190.0
 30
0.0
 11
-437.0
 21
-1.0
 31
0.0
  0
LINE
  5
2A3D
330
2D74
100
AcDbEntity
  8
OUTLINE
100
AcDbLine
 10
-475.0
 20
-1.0
 30
0.0
 11
-475.0
 21
0.0
 31
0.0
  0
LINE
  5
2A3E
330
2D74
100
AcDbEntity
  8
OUTLINE
100
AcDbLine
 10
475.0
 20
0.0
 30
0.0
 11
475.0
 21
-1.0
 31
0.0
  0
LINE
  5
2A3F
330
2D74
100
AcDbEntity
  8
OUTLINE
100
AcDbLine
 10
-437.0
 20
-790.0
 30
0.0
 11
437.0
 21
-790.0
 31
0.0
  0
LINE
  5
2A40
330
2D74
100
AcDbEntity
  8
OUTLINE
100
AcDbLine
 10
163.0
 20
-790.0
 30
0.0
 11
381.0
 21
-790.0
 31
0.0
  0
LINE
  5
2A41
330
2D74
100
AcDbEntity
  8
OUTLINE
100
AcDbLine
 10
-437.0
 20
-58.0
 30
0.0
 11
437.0
 21
-58.0
 31
0.0
  0
INSERT
  5
2A42
330
2D74
100
AcDbEntity
  8
DETAIL
100
AcDbBlockReference
  2
*X68
 10
0.0
 20
0.0
 30
0.0
1001
ACADANNOTATIVE
1000
AnnotativeData
1002
{
1070
     1
1070
     0
1002
}
1001
ACAD
1000
HATCH
1002
{
1070
    19
1000
LINE
1040
19.969
1040
0.5880014249968896
1000
R14_HATCH_DATA
1000
8BCE
1011
1.0
1021
0.0
1031
0.0
1011
0.0
1021
1.0
1031
0.0
1011
0.0
1021
0.0
1031
1.0
1040
0.0
1010
0.0
1020
0.0
1030
1.0
1000
LINE
1070
     0
1070
     0
1071
        2
1071
        7
1070
     0
1070
     1
1071
        6
1040
411.5
1040
-272.7999999999993
1040
195.7000000000007
1040
-272.8000000000001
1040
195.6999999999989
1040
-79.0000000000009
1040
-411.5
1040
-79.0
1040
-411.5
1040
-769.0
1040
411.5
1040
-769.0
1071
        0
1071
       23
1070
     0
1070
     1
1071
        4
1040
411.4999999999978
1040
-79.0
1040
195.7000000000007
1040
-79.0000000000009
1040
195.7000000000025
1040
-272.7999999999993
1040
411.5
1040
-272.8000000000011
1071
        0
1070
     0
1070
     1
1040
0.5880014249968896
1040
19.969
1070
     0
1070
     1
1040
0.5880014249968896
1040
14365.34330158045
1040
6494.174240754803
1040
-1.384598579568018
1040
2.076903172775084
1070
     0
1040
3.496551852423428
1071
        2
1040
-45.15003399978193
1040
-281.2074989198427
1040
0.0
1040
342.0833088850486
1040
-197.7214214842233
1040
0.0
1002
}
  0
INSERT
  5
2A43
330
2D74
100
AcDbEntity
  8
DETAIL
100
AcDbBlockReference
  2
*X69
 10
0.0
 20
0.0
 30
0.0
1001
ACADANNOTATIVE
1000
AnnotativeData
1002
{
1070
     1
1070
     0
1002
}
1001
ACAD
1000
HATCH
1002
{
1070
    19
1000
LINE
1040
19.969
1040
5.695183882182695
1000
R14_HATCH_DATA
1000
8BD4
1011
1.0
1021
0.0
1031
0.0
1011
0.0
1021
1.0
1031
0.0
1011
0.0
1021
0.0
1031
1.0
1040
0.0
1010
0.0
1020
0.0
1030
1.0
1000
LINE
1070
     0
1070
     0
1071
        2
1071
        7
1070
     0
1070
     1
1071
        6
1040
195.7000000000007
1040
-79.0
1040
-411.5
1040
-78.99999999999909
1040
-411.5
1040
-769.0
1040
411.5
1040
-769.0
1040
411.5
1040
-272.8000000000001
1040
195.7000000000007
1040
-272.7999999999993
1071
        0
1071
       23
1070
     0
1070
     1
1071
        4
1040
195.7000000000007
1040
-79.0000000000009
1040
195.7000000000025
1040
-272.7999999999993
1040
411.5
1040
-272.8000000000011
1040
411.4999999999978
1040
-79.0000000000009
1071
        0
1070
     0
1070
     1
1040
5.695183882182695
1040
19.969
1070
     0
1070
     1
1040
5.695183882182695
1040
14365.34330158045
1040
6494.174240754803
1040
1.384598579568018
1040
2.076903172775084
1070
     0
1040
2.251578873441232
1071
        2
1040
-67.52454840403697
1040
-264.8425960173025
1040
0.0
1040
307.0780182326852
1040
-124.3693230282433
1040
0.0
1002
}
  0
LINE
  5
2A44
330
2D74
100
AcDbEntity
  8
DETAIL
100
AcDbLine
 10
-411.5
 20
-769.0
 30
0.0
 11
-411.5
 21
-79.0
 31
0.0
  0
LINE
  5
2A45
330
2D74
100
AcDbEntity
  8
DETAIL
100
AcDbLine
 10
411.4999999999977
 20
-769.0
 30
0.0
 11
411.5
 21
-79.0
 31
0.0
  0
LINE
  5
2A46
330
2D74
100
AcDbEntity
  8
DETAIL
100
AcDbLine
 10
-411.5
 20
-79.0
 30
0.0
 11
411.5
 21
-79.0
 31
0.0
  0
LINE
  5
2A47
330
2D74
100
AcDbEntity
  8
DETAIL
100
AcDbLine
 10
-411.5
 20
-769.0
 30
0.0
 11
411.5
 21
-769.0
 31
0.0
  0
LINE
  5
2A48
330
2D74
100
AcDbEntity
  8
SIZE
100
AcDbLine
 10
475.0
 20
20.0
 30
0.0
 11
475.0
 21
383.6920227499204
 31
0.0
  0
LINE
  5
2A49
330
2D74
100
AcDbEntity
  8
SIZE
100
AcDbLine
 10
-475.0
 20
20.0
 30
0.0
 11
-475.0
 21
383.6920227499204
 31
0.0
  0
LINE
  5
2A4A
330
2D74
100
AcDbEntity
  8
SIZE
100
AcDbLine
 10
463.0
 20
363.6920227499203
 30
0.0
 11
-463.0
 21
363.6920227499203
 31
0.0
  0
INSERT
  5
2A4B
330
2D74
100
AcDbEntity
  8
SIZE
100
AcDbBlockReference
  2
_DOTBLANK
 10
475.0
 20
363.6920227499203
 30
0.0
 41
12.0
 42
12.0
 43
12.0
  0
INSERT
  5
2A4C
330
2D74
100
AcDbEntity
  8
SIZE
100
AcDbBlockReference
  2
_DOTBLANK
 10
-475.0
 20
363.6920227499203
 30
0.0
 41
12.0
 42
12.0
 43
12.0
 50
180.0
  0
LINE
  5
2A4D
330
2D74
100
AcDbEntity
  8
SIZE
100
AcDbLine
 10
449.9999999999982
 20
32.5
 30
0.0
 11
449.9999999999982
 21
245.4072788520753
 31
0.0
  0
LINE
  5
2A4E
330
2D74
100
AcDbEntity
  8
SIZE
100
AcDbLine
 10
-450.0
 20
32.5
 30
0.0
 11
-450.0
 21
245.4072788520753
 31
0.0
  0
LINE
  5
2A4F
330
2D74
100
AcDbEntity
  8
SIZE
100
AcDbLine
 10
437.9999999999982
 20
225.4072788520752
 30
0.0
 11
-438.0
 21
225.4072788520752
 31
0.0
  0
INSERT
  5
2A50
330
2D74
100
AcDbEntity
  8
SIZE
100
AcDbBlockReference
  2
_DOTBLANK
 10
449.9999999999982
 20
225.4072788520752
 30
0.0
 41
12.0
 42
12.0
 43
12.0
  0
INSERT
  5
2A51
330
2D74
100
AcDbEntity
  8
SIZE
100
AcDbBlockReference
  2
_DOTBLANK
 10
-450.0
 20
225.4072788520752
 30
0.0
 41
12.0
 42
12.0
 43
12.0
 50
180.0
  0
LINE
  5
2A52
330
2D74
100
AcDbEntity
  8
SIZE
100
AcDbLine
 10
-457.0
 20
-790.0
 30
0.0
 11
-812.1152426731555
 21
-790.0
 31
0.0
  0
LINE
  5
2A53
330
2D74
100
AcDbEntity
  8
SIZE
100
AcDbLine
 10
-495.0
 20
0.0
 30
0.0
 11
-812.1152426731555
 21
0.0
 31
0.0
  0
LINE
  5
2A54
330
2D74
100
AcDbEntity
  8
SIZE
100
AcDbLine
 10
-792.1152426731555
 20
-778.0
 30
0.0
 11
-792.1152426731548
 21
-12.0
 31
0.0
  0
INSERT
  5
2A55
330
2D74
100
AcDbEntity
  8
SIZE
100
AcDbBlockReference
  2
_DOTBLANK
 10
-792.1152426731555
 20
-790.0
 30
0.0
 41
12.0
 42
12.0
 43
12.0
 50
270.0
  0
INSERT
  5
2A56
330
2D74
100
AcDbEntity
  8
SIZE
100
AcDbBlockReference
  2
_DOTBLANK
 10
-792.1152426731548
 20
0.0
 30
0.0
 41
12.0
 42
12.0
 43
12.0
 50
90.0
  0
LINE
  5
2A57
330
2D74
100
AcDbEntity
  8
SIZE
100
AcDbLine
 10
437.0
 20
-810.0
 30
0.0
 11
437.0
 21
-1075.822995541721
 31
0.0
  0
LINE
  5
2A58
330
2D74
100
AcDbEntity
  8
SIZE
100
AcDbLine
 10
-437.0
 20
-810.0
 30
0.0
 11
-437.0
 21
-1075.822995541721
 31
0.0
  0
LINE
  5
2A59
330
2D74
100
AcDbEntity
  8
SIZE
100
AcDbLine
 10
425.0
 20
-1055.822995541721
 30
0.0
 11
-425.0
 21
-1055.822995541721
 31
0.0
  0
INSERT
  5
2A5A
330
2D74
100
AcDbEntity
  8
SIZE
100
AcDbBlockReference
  2
_DOTBLANK
 10
437.0
 20
-1055.822995541721
 30
0.0
 41
12.0
 42
12.0
 43
12.0
  0
INSERT
  5
2A5B
330
2D74
100
AcDbEntity
  8
SIZE
100
AcDbBlockReference
  2
_DOTBLANK
 10
-437.0
 20
-1055.822995541721
 30
0.0
 41
12.0
 42
12.0
 43
12.0
 50
180.0
  0
TEXT
  5
2A5C
330
2D74
100
AcDbEntity
  8
SIZE
100
AcDbText
 10
-75.42857142857155
 20
-1045.822995541721
 30
0.0
 40
64.0
  1
874
 41
0.9
100
AcDbText
  0
TEXT
  5
2A5D
330
2D74
100
AcDbEntity
  8
SIZE
100
AcDbText
 10
-802.1152426731548
 20
-468.5571428571427
 30
0.0
 40
64.0
  1
790
 50
90.0
 41
0.9
100
AcDbText
  0
TEXT
  5
2A5E
330
2D74
100
AcDbEntity
  8
SIZE
100
AcDbText
 10
-73.37318084211165
 20
235.4072788520753
 30
0.0
 40
64.0
  1
900
 41
0.9
100
AcDbText
  0
TEXT
  5
2A5F
330
2D74
100
AcDbEntity
  8
SIZE
100
AcDbText
 10
-75.29736118102937
 20
373.6920227499203
 30
0.0
 40
64.0
  1
950
 41
0.9
100
AcDbText
  0
ENDSEC
  0
SECTION
  2
OBJECTS
  0
DICTIONARY
  5
2D0C
330
0
100
AcDbDictionary
281
     1
  3
ACAD_2007HEADERVARS_RT
350
2F55
  3
ACAD_COLOR
350
2D6A
  3
ACAD_GROUP
350
2D0D
  3
ACAD_LAYOUT
350
2D69
  3
ACAD_MATERIAL
350
2D10
  3
ACAD_MLEADERSTYLE
350
2D6D
  3
ACAD_MLINESTYLE
350
2D66
  3
ACAD_PLOTSETTINGS
350
2D68
  3
ACAD_PLOTSTYLENAME
350
2D0E
  3
ACAD_SCALELIST
350
2D3A
  3
ACAD_TABLESTYLE
350
2D6B
  3
ACAD_VISUALSTYLE
350
2D29
  3
ACDB_RECOMPOSE_DATA
350
2F53
  3
AcDbVariableDictionary
350
2F4A
  3
AcmDictionary
350
2EFD
  3
AMG
350
2E4A
  3
DWGPROPS
350
2F54
  3
MAPISURF_MODULE
350
2ECA
  0
DICTIONARY
  5
2F25
330
2D5C
100
AcDbDictionary
280
     1
281
     1
  3
ADSK_XREC_LAYER_RECONCILED
360
2F26
  0
DICTIONARY
  5
2F27
330
2D8B
100
AcDbDictionary
280
     1
281
     1
  3
ADSK_XREC_LAYER_RECONCILED
360
2F28
  0
DICTIONARY
  5
2F29
330
2D8C
100
AcDbDictionary
280
     1
281
     1
  3
ADSK_XREC_LAYER_RECONCILED
360
2F2A
  0
DICTIONARY
  5
2F2B
330
2D8D
100
AcDbDictionary
280
     1
281
     1
  3
ADSK_XREC_LAYER_RECONCILED
360
2F2C
  0
DICTIONARY
  5
2F2D
330
2D8E
100
AcDbDictionary
280
     1
281
     1
  3
ADSK_XREC_LAYER_RECONCILED
360
2F2E
  0
DICTIONARY
  5
2F2F
330
2D8F
100
AcDbDictionary
280
     1
281
     1
  3
ADSK_XREC_LAYER_RECONCILED
360
2F30
  0
DICTIONARY
  5
2F31
330
2D91
100
AcDbDictionary
280
     1
281
     1
  3
ADSK_XREC_LAYER_RECONCILED
360
2F32
  0
DICTIONARY
  5
2F33
330
2D92
100
AcDbDictionary
280
     1
281
     1
  3
ADSK_XREC_LAYER_RECONCILED
360
2F34
  0
DICTIONARY
  5
2F35
330
2D93
100
AcDbDictionary
280
     1
281
     1
  3
ADSK_XREC_LAYER_RECONCILED
360
2F36
  0
DICTIONARY
  5
2F37
330
2D94
100
AcDbDictionary
280
     1
281
     1
  3
ADSK_XREC_LAYER_RECONCILED
360
2F38
  0
DICTIONARY
  5
2F39
330
2D95
100
AcDbDictionary
280
     1
281
     1
  3
ADSK_XREC_LAYER_RECONCILED
360
2F3A
  0
DICTIONARY
  5
2F3B
330
2D74
100
AcDbDictionary
280
     1
281
     1
  3
ACAD_INDEX
360
2F3C
  0
DICTIONARY
  5
2F55
102
{ACAD_REACTORS
330
2D0C
102
}
330
2D0C
100
AcDbDictionary
281
     1
  3
DIMARCSYM
350
2F56
  3
DIMLTEX1
350
2F58
  3
DIMLTEX2
350
2F59
  3
DIMLTYPE
350
2F57
  0
DICTIONARY
  5
2D6A
102
{ACAD_REACTORS
330
2D0C
102
}
330
2D0C
100
AcDbDictionary
281
     1
  0
DICTIONARY
  5
2D0D
102
{ACAD_REACTORS
330
2D0C
102
}
330
2D0C
100
AcDbDictionary
281
     1
  0
DICTIONARY
  5
2D69
102
{ACAD_REACTORS
330
2D0C
102
}
330
2D0C
100
AcDbDictionary
281
     1
  3
Model
350
2D77
  3
レイアウト1
350
2D73
  0
DICTIONARY
  5
2D10
102
{ACAD_REACTORS
330
2D0C
102
}
330
2D0C
100
AcDbDictionary
281
     1
  3
ByBlock
350
2D19
  3
ByLayer
350
2D11
  3
Global
350
2D21
  0
DICTIONARY
  5
2D6D
102
{ACAD_REACTORS
330
2D0C
102
}
330
2D0C
100
AcDbDictionary
281
     1
  3
Standard
350
2D6E
  0
DICTIONARY
  5
2D66
102
{ACAD_REACTORS
330
2D0C
102
}
330
2D0C
100
AcDbDictionary
281
     1
  3
Standard
350
2D67
  0
DICTIONARY
  5
2D68
102
{ACAD_REACTORS
330
2D0C
102
}
330
2D0C
100
AcDbDictionary
281
     1
  0
ACDBDICTIONARYWDFLT
  5
2D0E
102
{ACAD_REACTORS
330
2D0C
102
}
330
2D0C
100
AcDbDictionary
281
     1
  3
Normal
350
2D0F
100
AcDbDictionaryWithDefault
340
2D0F
  0
DICTIONARY
  5
2D3A
102
{ACAD_REACTORS
330
2D0C
102
}
330
2D0C
100
AcDbDictionary
281
     1
  3
A0
350
2D3B
  3
A1
350
2D3C
  3
A2
350
2D3D
  3
A3
350
2D3E
  3
A4
350
2D3F
  3
A5
350
2D40
  3
A6
350
2D41
  3
A7
350
2D42
  3
A8
350
2D43
  3
A9
350
2D44
  3
B0
350
2D45
  3
B1
350
2D46
  3
B2
350
2D47
  3
B3
350
2D48
  3
B4
350
2D49
  3
B5
350
2D4A
  3
B6
350
2D4B
  3
B7
350
2D4C
  3
B8
350
2D4D
  3
B9
350
2D4E
  3
C0
350
2D4F
  3
C1
350
2D50
  3
C2
350
2D51
  3
C3
350
2D52
  3
C4
350
2D53
  3
C5
350
2D54
  3
C6
350
2D55
  3
C7
350
2D56
  3
C8
350
2D57
  3
C9
350
2D58
  3
D0
350
2D59
  3
D1
350
2D5A
  3
D2
350
2D5B
  0
DICTIONARY
  5
2D6B
102
{ACAD_REACTORS
330
2D0C
102
}
330
2D0C
100
AcDbDictionary
281
     1
  3
Standard
350
2D6C
  0
DICTIONARY
  5
2D29
102
{ACAD_REACTORS
330
2D0C
102
}
330
2D0C
100
AcDbDictionary
281
     1
  3
2dWireframe
350
2D2F
  3
3D Hidden
350
2D31
  3
3dWireframe
350
2D30
  3
Basic
350
2D2E
  3
Brighten
350
2D35
  3
ColorChange
350
2D39
  3
Conceptual
350
2D32
  3
Dim
350
2D34
  3
Facepattern
350
2D38
  3
Flat
350
2D2A
  3
FlatWithEdges
350
2D2B
  3
Gouraud
350
2D2C
  3
GouraudWithEdges
350
2D2D
  3
Linepattern
350
2D37
  3
Realistic
350
2D33
  3
Thicken
350
2D36
  0
XRECORD
  5
2F53
102
{ACAD_REACTORS
330
2D0C
102
}
330
2D0C
100
AcDbXrecord
280
     1
 90
        1
330
2D6C
  0
DICTIONARY
  5
2F4A
102
{ACAD_REACTORS
330
2D0C
102
}
330
2D0C
100
AcDbDictionary
281
     1
  3
CANNOSCALE
350
2F4D
  3
CMLEADERSTYLE
350
2F4C
  3
CTABLESTYLE
350
2F4B
  3
DIMASSOC
350
2F50
  3
INDEXCTL
350
2F4F
  3
SORTENTS
350
2F4E
  0
DICTIONARY
  5
2EFD
102
{ACAD_REACTORS
330
2D0C
102
}
330
2D0C
100
AcDbDictionary
281
     1
  3
AcmStdDictionary
350
2F0B
  0
DICTIONARY
  5
2E4A
102
{ACAD_REACTORS
330
2D0C
102
}
330
2D0C
100
AcDbDictionary
281
     1
  3
AcMgSettings
350
2E4B
  0
XRECORD
  5
2F54
102
{ACAD_REACTORS
330
2D0C
102
}
330
2D0C
100
AcDbXrecord
280
     1
  1
DWGPROPS COOKIE
  2

  3

  4

  6

  7

  8
A090053
  9

300
AmdtFileType=84
301
=
302
=
303
=
304
=
305
=
306
=
307
=
308
=
309
=
 40
1.041085069444444
 41
2452321.396199653
 42
2456210.799996759
  1

 90
        1
  0
XRECORD
  5
2F26
102
{ACAD_REACTORS
330
2F25
102
}
330
2F25
100
AcDbXrecord
280
     1
290
     1
  0
XRECORD
  5
2F28
102
{ACAD_REACTORS
330
2F27
102
}
330
2F27
100
AcDbXrecord
280
     1
290
     1
  0
XRECORD
  5
2F2A
102
{ACAD_REACTORS
330
2F29
102
}
330
2F29
100
AcDbXrecord
280
     1
290
     1
  0
XRECORD
  5
2F2C
102
{ACAD_REACTORS
330
2F2B
102
}
330
2F2B
100
AcDbXrecord
280
     1
290
     1
  0
XRECORD
  5
2F2E
102
{ACAD_REACTORS
330
2F2D
102
}
330
2F2D
100
AcDbXrecord
280
     1
290
     1
  0
XRECORD
  5
2F30
102
{ACAD_REACTORS
330
2F2F
102
}
330
2F2F
100
AcDbXrecord
280
     1
290
     1
  0
XRECORD
  5
2F32
102
{ACAD_REACTORS
330
2F31
102
}
330
2F31
100
AcDbXrecord
280
     1
290
     1
  0
XRECORD
  5
2F34
102
{ACAD_REACTORS
330
2F33
102
}
330
2F33
100
AcDbXrecord
280
     1
290
     1
  0
XRECORD
  5
2F36
102
{ACAD_REACTORS
330
2F35
102
}
330
2F35
100
AcDbXrecord
280
     1
290
     1
  0
XRECORD
  5
2F38
102
{ACAD_REACTORS
330
2F37
102
}
330
2F37
100
AcDbXrecord
280
     1
290
     1
  0
XRECORD
  5
2F3A
102
{ACAD_REACTORS
330
2F39
102
}
330
2F39
100
AcDbXrecord
280
     1
290
     1
  0
DICTIONARY
  5
2F3C
102
{ACAD_REACTORS
330
2F3B
102
}
330
2F3B
100
AcDbDictionary
281
     1
  3
*A1
350
2F3D
  0
XRECORD
  5
2F56
102
{ACAD_REACTORS
330
2F55
102
}
330
2F55
100
AcDbXrecord
280
     1
 70
     1
  0
XRECORD
  5
2F58
102
{ACAD_REACTORS
330
2F55
102
}
330
2F55
100
AcDbXrecord
280
     1
340
2D62
  0
XRECORD
  5
2F59
102
{ACAD_REACTORS
330
2F55
102
}
330
2F55
100
AcDbXrecord
280
     1
340
2D62
  0
XRECORD
  5
2F57
102
{ACAD_REACTORS
330
2F55
102
}
330
2F55
100
AcDbXrecord
280
     1
340
2D62
  0
LAYOUT
  5
2D77
102
{ACAD_XDICTIONARY
360
2F60
102
}
102
{ACAD_REACTORS
330
2D69
102
}
330
2D69
100
AcDbPlotSettings
  1

  2
自動 EPSON LP-9600S (W2450527 上)
  4

  6

 40
0.0
 41
0.0
 42
0.0
 43
0.0
 44
0.0
 45
0.0
 46
0.0
 47
0.0
 48
0.0
 49
0.0
140
0.0
141
0.0
142
1.0
143
1.0
 70
  1712
 72
     0
 73
     0
 74
     0
  7

 75
     0
147
1.0
148
0.0
149
0.0
100
AcDbLayout
  1
Model
 70
     1
 71
     0
 10
0.0
 20
0.0
 11
12.0
 21
9.0
 12
0.0
 22
0.0
 32
0.0
 14
0.0
 24
0.0
 34
0.0
 15
0.0
 25
0.0
 35
0.0
146
0.0
 13
0.0
 23
0.0
 33
0.0
 16
1.0
 26
0.0
 36
0.0
 17
0.0
 27
1.0
 37
0.0
 76
     0
330
2D74
331
2D78
  0
LAYOUT
  5
2D73
102
{ACAD_XDICTIONARY
360
2F5E
102
}
102
{ACAD_REACTORS
330
2D69
102
}
330
2D69
100
AcDbPlotSettings
  1

  2
自動 EPSON LP-9600S (W2450527 上)
  4

  6

 40
0.0
 41
0.0
 42
0.0
 43
0.0
 44
0.0
 45
0.0
 46
0.0
 47
0.0
 48
0.0
 49
0.0
140
0.0
141
0.0
142
1.0
143
1.0
 70
   688
 72
     0
 73
     0
 74
     5
  7

 75
    16
147
1.0
148
0.0
149
0.0
100
AcDbLayout
  1
レイアウト1
 70
     1
 71
     1
 10
0.0
 20
0.0
 11
12.0
 21
9.0
 12
0.0
 22
0.0
 32
0.0
 14
1.000000000000000E+20
 24
1.000000000000000E+20
 34
1.000000000000000E+20
 15
-1.000000000000000E+20
 25
-1.000000000000000E+20
 35
-1.000000000000000E+20
146
0.0
 13
0.0
 23
0.0
 33
0.0
 16
1.0
 26
0.0
 36
0.0
 17
0.0
 27
1.0
 37
0.0
 76
     0
330
2D70
  0
MATERIAL
  5
2D19
102
{ACAD_XDICTIONARY
360
2D1A
102
}
102
{ACAD_REACTORS
330
2D10
102
}
330
2D10
100
AcDbMaterial
  1
ByBlock
 72
     0
 43
0.0208333333333333
 43
0.0
 43
0.0
 43
0.0
 43
0.0
 43
0.0208333333333333
 43
0.0
 43
0.0
 43
0.0
 43
0.0
 43
1.0
 43
0.0
 43
0.0
 43
0.0
 43
0.0
 43
1.0
 77
     0
 47
0.0208333333333333
 47
0.0
 47
0.0
 47
0.0
 47
0.0
 47
0.0208333333333333
 47
0.0
 47
0.0
 47
0.0
 47
0.0
 47
1.0
 47
0.0
 47
0.0
 47
0.0
 47
0.0
 47
1.0
171
     0
 49
0.0208333333333333
 49
0.0
 49
0.0
 49
0.0
 49
0.0
 49
0.0208333333333333
 49
0.0
 49
0.0
 49
0.0
 49
0.0
 49
1.0
 49
0.0
 49
0.0
 49
0.0
 49
0.0
 49
1.0
175
     0
142
0.0208333333333333
142
0.0
142
0.0
142
0.0
142
0.0
142
0.0208333333333333
142
0.0
142
0.0
142
0.0
142
0.0
142
1.0
142
0.0
142
0.0
142
0.0
142
0.0
142
1.0
179
     0
144
0.0208333333333333
144
0.0
144
0.0
144
0.0
144
0.0
144
0.0208333333333333
144
0.0
144
0.0
144
0.0
144
0.0
144
1.0
144
0.0
144
0.0
144
0.0
144
0.0
144
1.0
147
0.0208333333333333
147
0.0
147
0.0
147
0.0
147
0.0
147
0.0208333333333333
147
0.0
147
0.0
147
0.0
147
0.0
147
1.0
147
0.0
147
0.0
147
0.0
147
0.0
147
1.0
  0
MATERIAL
  5
2D11
102
{ACAD_XDICTIONARY
360
2D12
102
}
102
{ACAD_REACTORS
330
2D10
102
}
330
2D10
100
AcDbMaterial
  1
ByLayer
 72
     0
 43
0.0208333333333333
 43
0.0
 43
0.0
 43
0.0
 43
0.0
 43
0.0208333333333333
 43
0.0
 43
0.0
 43
0.0
 43
0.0
 43
1.0
 43
0.0
 43
0.0
 43
0.0
 43
0.0
 43
1.0
 77
     0
 47
0.0208333333333333
 47
0.0
 47
0.0
 47
0.0
 47
0.0
 47
0.0208333333333333
 47
0.0
 47
0.0
 47
0.0
 47
0.0
 47
1.0
 47
0.0
 47
0.0
 47
0.0
 47
0.0
 47
1.0
171
     0
 49
0.0208333333333333
 49
0.0
 49
0.0
 49
0.0
 49
0.0
 49
0.0208333333333333
 49
0.0
 49
0.0
 49
0.0
 49
0.0
 49
1.0
 49
0.0
 49
0.0
 49
0.0
 49
0.0
 49
1.0
175
     0
142
0.0208333333333333
142
0.0
142
0.0
142
0.0
142
0.0
142
0.0208333333333333
142
0.0
142
0.0
142
0.0
142
0.0
142
1.0
142
0.0
142
0.0
142
0.0
142
0.0
142
1.0
179
     0
144
0.0208333333333333
144
0.0
144
0.0
144
0.0
144
0.0
144
0.0208333333333333
144
0.0
144
0.0
144
0.0
144
0.0
144
1.0
144
0.0
144
0.0
144
0.0
144
0.0
144
1.0
147
0.0208333333333333
147
0.0
147
0.0
147
0.0
147
0.0
147
0.0208333333333333
147
0.0
147
0.0
147
0.0
147
0.0
147
1.0
147
0.0
147
0.0
147
0.0
147
0.0
147
1.0
  0
MATERIAL
  5
2D21
102
{ACAD_XDICTIONARY
360
2D22
102
}
102
{ACAD_REACTORS
330
2D10
102
}
330
2D10
100
AcDbMaterial
  1
Global
 72
     0
 43
0.0208333333333333
 43
0.0
 43
0.0
 43
0.0
 43
0.0
 43
0.0208333333333333
 43
0.0
 43
0.0
 43
0.0
 43
0.0
 43
1.0
 43
0.0
 43
0.0
 43
0.0
 43
0.0
 43
1.0
 77
     0
 47
0.0208333333333333
 47
0.0
 47
0.0
 47
0.0
 47
0.0
 47
0.0208333333333333
 47
0.0
 47
0.0
 47
0.0
 47
0.0
 47
1.0
 47
0.0
 47
0.0
 47
0.0
 47
0.0
 47
1.0
171
     0
 49
0.0208333333333333
 49
0.0
 49
0.0
 49
0.0
 49
0.0
 49
0.0208333333333333
 49
0.0
 49
0.0
 49
0.0
 49
0.0
 49
1.0
 49
0.0
 49
0.0
 49
0.0
 49
0.0
 49
1.0
175
     0
142
0.0208333333333333
142
0.0
142
0.0
142
0.0
142
0.0
142
0.0208333333333333
142
0.0
142
0.0
142
0.0
142
0.0
142
1.0
142
0.0
142
0.0
142
0.0
142
0.0
142
1.0
179
     0
144
0.0208333333333333
144
0.0
144
0.0
144
0.0
144
0.0
144
0.0208333333333333
144
0.0
144
0.0
144
0.0
144
0.0
144
1.0
144
0.0
144
0.0
144
0.0
144
0.0
144
1.0
147
0.0208333333333333
147
0.0
147
0.0
147
0.0
147
0.0
147
0.0208333333333333
147
0.0
147
0.0
147
0.0
147
0.0
147
1.0
147
0.0
147
0.0
147
0.0
147
0.0
147
1.0
  0
MLEADERSTYLE
  5
2D6E
102
{ACAD_REACTORS
330
2D6D
102
}
330
2D6D
100
AcDbMLeaderStyle
170
     2
171
     1
172
     0
 90
        2
 40
0.0
 41
0.0
173
     1
 91
-1056964608
340
2D62
 92
       -2
290
     1
 42
0.09
291
     1
 43
0.36
  3
Standard
 44
0.18
300

342
2D5D
174
     1
178
     6
175
     1
176
     0
 93
-1056964608
 45
0.18
292
     0
297
     0
 46
0.18
 94
-1056964608
 47
1.0
 49
1.0
140
1.0
293
     1
141
0.0
294
     1
177
     0
142
1.0
295
     0
296
     0
143
0.125
1001
ACAD_MLEADERVER
1070
     2
  0
MLINESTYLE
  5
2D67
102
{ACAD_REACTORS
330
2D66
102
}
330
2D66
100
AcDbMlineStyle
  2
STANDARD
 70
     0
  3

 62
   256
 51
90.0
 52
90.0
 71
     2
 49
0.5
 62
   256
  6
BYLAYER
 49
-0.5
 62
   256
  6
BYLAYER
  0
ACDBPLACEHOLDER
  5
2D0F
102
{ACAD_REACTORS
330
2D0E
102
}
330
2D0E
  0
SCALE
  5
2D3B
102
{ACAD_REACTORS
330
2D3A
102
}
330
2D3A
100
AcDbScale
 70
     0
300
1:1
140
1.0
141
1.0
290
     1
  0
SCALE
  5
2D3C
102
{ACAD_REACTORS
330
2D3A
102
}
330
2D3A
100
AcDbScale
 70
     0
300
1:2
140
1.0
141
2.0
290
     0
  0
SCALE
  5
2D3D
102
{ACAD_REACTORS
330
2D3A
102
}
330
2D3A
100
AcDbScale
 70
     0
300
1:4
140
1.0
141
4.0
290
     0
  0
SCALE
  5
2D3E
102
{ACAD_REACTORS
330
2D3A
102
}
330
2D3A
100
AcDbScale
 70
     0
300
1:5
140
1.0
141
5.0
290
     0
  0
SCALE
  5
2D3F
102
{ACAD_REACTORS
330
2D3A
102
}
330
2D3A
100
AcDbScale
 70
     0
300
1:8
140
1.0
141
8.0
290
     0
  0
SCALE
  5
2D40
102
{ACAD_REACTORS
330
2D3A
102
}
330
2D3A
100
AcDbScale
 70
     0
300
1:10
140
1.0
141
10.0
290
     0
  0
SCALE
  5
2D41
102
{ACAD_REACTORS
330
2D3A
102
}
330
2D3A
100
AcDbScale
 70
     0
300
1:16
140
1.0
141
16.0
290
     0
  0
SCALE
  5
2D42
102
{ACAD_REACTORS
330
2D3A
102
}
330
2D3A
100
AcDbScale
 70
     0
300
1:20
140
1.0
141
20.0
290
     0
  0
SCALE
  5
2D43
102
{ACAD_REACTORS
330
2D3A
102
}
330
2D3A
100
AcDbScale
 70
     0
300
1:30
140
1.0
141
30.0
290
     0
  0
SCALE
  5
2D44
102
{ACAD_REACTORS
330
2D3A
102
}
330
2D3A
100
AcDbScale
 70
     0
300
1:40
140
1.0
141
40.0
290
     0
  0
SCALE
  5
2D45
102
{ACAD_REACTORS
330
2D3A
102
}
330
2D3A
100
AcDbScale
 70
     0
300
1:50
140
1.0
141
50.0
290
     0
  0
SCALE
  5
2D46
102
{ACAD_REACTORS
330
2D3A
102
}
330
2D3A
100
AcDbScale
 70
     0
300
1:100
140
1.0
141
100.0
290
     0
  0
SCALE
  5
2D47
102
{ACAD_REACTORS
330
2D3A
102
}
330
2D3A
100
AcDbScale
 70
     0
300
2:1
140
2.0
141
1.0
290
     0
  0
SCALE
  5
2D48
102
{ACAD_REACTORS
330
2D3A
102
}
330
2D3A
100
AcDbScale
 70
     0
300
4:1
140
4.0
141
1.0
290
     0
  0
SCALE
  5
2D49
102
{ACAD_REACTORS
330
2D3A
102
}
330
2D3A
100
AcDbScale
 70
     0
300
8:1
140
8.0
141
1.0
290
     0
  0
SCALE
  5
2D4A
102
{ACAD_REACTORS
330
2D3A
102
}
330
2D3A
100
AcDbScale
 70
     0
300
10:1
140
10.0
141
1.0
290
     0
  0
SCALE
  5
2D4B
102
{ACAD_REACTORS
330
2D3A
102
}
330
2D3A
100
AcDbScale
 70
     0
300
100:1
140
100.0
141
1.0
290
     0
  0
SCALE
  5
2D4C
102
{ACAD_REACTORS
330
2D3A
102
}
330
2D3A
100
AcDbScale
 70
     0
300
1/128" = 1'-0"
140
0.0078125
141
12.0
290
     0
  0
SCALE
  5
2D4D
102
{ACAD_REACTORS
330
2D3A
102
}
330
2D3A
100
AcDbScale
 70
     0
300
1/64" = 1'-0"
140
0.015625
141
12.0
290
     0
  0
SCALE
  5
2D4E
102
{ACAD_REACTORS
330
2D3A
102
}
330
2D3A
100
AcDbScale
 70
     0
300
1/32" = 1'-0"
140
0.03125
141
12.0
290
     0
  0
SCALE
  5
2D4F
102
{ACAD_REACTORS
330
2D3A
102
}
330
2D3A
100
AcDbScale
 70
     0
300
1/16" = 1'-0"
140
0.0625
141
12.0
290
     0
  0
SCALE
  5
2D50
102
{ACAD_REACTORS
330
2D3A
102
}
330
2D3A
100
AcDbScale
 70
     0
300
3/32" = 1'-0"
140
0.09375
141
12.0
290
     0
  0
SCALE
  5
2D51
102
{ACAD_REACTORS
330
2D3A
102
}
330
2D3A
100
AcDbScale
 70
     0
300
1/8" = 1'-0"
140
0.125
141
12.0
290
     0
  0
SCALE
  5
2D52
102
{ACAD_REACTORS
330
2D3A
102
}
330
2D3A
100
AcDbScale
 70
     0
300
3/16" = 1'-0"
140
0.1875
141
12.0
290
     0
  0
SCALE
  5
2D53
102
{ACAD_REACTORS
330
2D3A
102
}
330
2D3A
100
AcDbScale
 70
     0
300
1/4" = 1'-0"
140
0.25
141
12.0
290
     0
  0
SCALE
  5
2D54
102
{ACAD_REACTORS
330
2D3A
102
}
330
2D3A
100
AcDbScale
 70
     0
300
3/8" = 1'-0"
140
0.375
141
12.0
290
     0
  0
SCALE
  5
2D55
102
{ACAD_REACTORS
330
2D3A
102
}
330
2D3A
100
AcDbScale
 70
     0
300
1/2" = 1'-0"
140
0.5
141
12.0
290
     0
  0
SCALE
  5
2D56
102
{ACAD_REACTORS
330
2D3A
102
}
330
2D3A
100
AcDbScale
 70
     0
300
3/4" = 1'-0"
140
0.75
141
12.0
290
     0
  0
SCALE
  5
2D57
102
{ACAD_REACTORS
330
2D3A
102
}
330
2D3A
100
AcDbScale
 70
     0
300
1" = 1'-0"
140
1.0
141
12.0
290
     0
  0
SCALE
  5
2D58
102
{ACAD_REACTORS
330
2D3A
102
}
330
2D3A
100
AcDbScale
 70
     0
300
1-1/2" = 1'-0"
140
1.5
141
12.0
290
     0
  0
SCALE
  5
2D59
102
{ACAD_REACTORS
330
2D3A
102
}
330
2D3A
100
AcDbScale
 70
     0
300
3" = 1'-0"
140
3.0
141
12.0
290
     0
  0
SCALE
  5
2D5A
102
{ACAD_REACTORS
330
2D3A
102
}
330
2D3A
100
AcDbScale
 70
     0
300
6" = 1'-0"
140
6.0
141
12.0
290
     0
  0
SCALE
  5
2D5B
102
{ACAD_REACTORS
330
2D3A
102
}
330
2D3A
100
AcDbScale
 70
     0
300
1'-0" = 1'-0"
140
12.0
141
12.0
290
     0
  0
TABLESTYLE
  5
2D6C
102
{ACAD_XDICTIONARY
360
2F51
102
}
102
{ACAD_REACTORS
330
2D6B
102
}
330
2D6B
100
AcDbTableStyle
  3
Standard
 70
     0
 71
     0
 40
0.06
 41
0.06
280
     0
281
     0
  7
STANDARD
140
0.18
170
     2
 62
     0
 63
     7
283
     0
274
    -2
284
     1
 64
     0
275
    -2
285
     1
 65
     0
276
    -2
286
     1
 66
     0
277
    -2
287
     1
 67
     0
278
    -2
288
     1
 68
     0
279
    -2
289
     1
 69
     0
  7
STANDARD
140
0.25
170
     5
 62
     0
 63
     7
283
     0
274
    -2
284
     1
 64
     0
275
    -2
285
     1
 65
     0
276
    -2
286
     1
 66
     0
277
    -2
287
     1
 67
     0
278
    -2
288
     1
 68
     0
279
    -2
289
     1
 69
     0
  7
STANDARD
140
0.18
170
     5
 62
     0
 63
     7
283
     0
274
    -2
284
     1
 64
     0
275
    -2
285
     1
 65
     0
276
    -2
286
     1
 66
     0
277
    -2
287
     1
 67
     0
278
    -2
288
     1
 68
     0
279
    -2
289
     1
 69
     0
  0
VISUALSTYLE
  5
2D2F
102
{ACAD_REACTORS
330
2D29
102
}
330
2D29
100
AcDbVisualStyle
  2
2dWireframe
 70
     4
 71
     0
 72
     2
 73
     0
 90
        0
 40
-0.6
 41
-30.0
 62
     5
 63
     7
 74
     1
 91
        4
 64
     7
 65
   257
 75
     1
175
     1
 42
1.0
 92
        0
 66
   257
 43
1.0
 76
     1
 77
     6
 78
     2
 67
     7
 79
     5
170
     0
171
     0
290
     0
174
     0
 93
        1
 44
0.0
173
     0
291
     0
 45
0.0
1001
ACAD
1000
AcDbSavedByObjectVersion
1070
     0
  0
VISUALSTYLE
  5
2D31
102
{ACAD_REACTORS
330
2D29
102
}
330
2D29
100
AcDbVisualStyle
  2
3D Hidden
 70
     6
 71
     1
 72
     2
 73
     2
 90
        0
 40
-0.6
 41
-30.0
 62
     5
 63
     7
 74
     2
 91
        2
 64
     7
 65
   257
 75
     2
175
     1
 42
40.0
 92
        0
 66
   257
 43
1.0
 76
     1
 77
     6
 78
     2
 67
     7
 79
     3
170
     0
171
     0
290
     0
174
     0
 93
        1
 44
0.0
173
     0
291
     0
 45
0.0
1001
ACAD
1000
AcDbSavedByObjectVersion
1070
     0
  0
VISUALSTYLE
  5
2D30
102
{ACAD_REACTORS
330
2D29
102
}
330
2D29
100
AcDbVisualStyle
  2
3dWireframe
 70
     5
 71
     0
 72
     2
 73
     0
 90
        0
 40
-0.6
 41
-30.0
 62
     5
 63
     7
 74
     1
 91
        4
 64
     7
 65
   257
 75
     1
175
     1
 42
1.0
 92
        0
 66
   257
 43
1.0
 76
     1
 77
     6
 78
     2
 67
     7
 79
     5
170
     0
171
     0
290
     0
174
     0
 93
        1
 44
0.0
173
     0
291
     0
 45
0.0
1001
ACAD
1000
AcDbSavedByObjectVersion
1070
     0
  0
VISUALSTYLE
  5
2D2E
102
{ACAD_REACTORS
330
2D29
102
}
330
2D29
100
AcDbVisualStyle
  2
Basic
 70
     7
 71
     1
 72
     0
 73
     1
 90
        0
 40
-0.6
 41
-30.0
 62
     5
 63
     7
 74
     0
 91
        4
 64
     7
 65
   257
 75
     1
175
     1
 42
1.0
 92
        8
 66
     7
 43
1.0
 76
     1
 77
     6
 78
     2
 67
     7
 79
     5
170
     0
171
     0
290
     0
174
     0
 93
        1
 44
0.0
173
     0
291
     1
 45
0.0
1001
ACAD
1000
AcDbSavedByObjectVersion
1070
     0
  0
VISUALSTYLE
  5
2D35
102
{ACAD_REACTORS
330
2D29
102
}
330
2D29
100
AcDbVisualStyle
  2
Brighten
 70
    12
 71
     2
 72
     2
 73
     0
 90
        0
 40
-0.6
 41
-30.0
 62
     5
 63
     7
 74
     1
 91
        4
 64
     7
 65
   257
 75
     1
175
     1
 42
1.0
 92
        8
 66
     7
 43
1.0
 76
     1
 77
     6
 78
     2
 67
     7
 79
     5
170
     0
171
     0
290
     0
174
     0
 93
        1
 44
50.0
173
     0
291
     1
 45
0.0
1001
ACAD
1000
AcDbSavedByObjectVersion
1070
     0
  0
VISUALSTYLE
  5
2D39
102
{ACAD_REACTORS
330
2D29
102
}
330
2D29
100
AcDbVisualStyle
  2
ColorChange
 70
    16
 71
     2
 72
     2
 73
     3
 90
        0
 40
-0.6
 41
-30.0
 62
     5
 63
     8
 74
     1
 91
        4
 64
     7
 65
   257
 75
     1
175
     1
 42
1.0
 92
        8
 66
     8
 43
1.0
 76
     1
 77
     6
 78
     2
 67
     7
 79
     5
170
     0
171
     0
290
     0
174
     0
 93
        1
 44
0.0
173
     0
291
     1
 45
0.0
1001
ACAD
1000
AcDbSavedByObjectVersion
1070
     0
  0
VISUALSTYLE
  5
2D32
102
{ACAD_REACTORS
330
2D29
102
}
330
2D29
100
AcDbVisualStyle
  2
Conceptual
 70
     9
 71
     3
 72
     2
 73
     0
 90
        0
 40
-0.6
 41
-30.0
 62
     5
 63
     7
 74
     2
 91
        2
 64
     7
 65
   257
 75
     1
175
     1
 42
40.0
 92
        8
 66
     7
 43
1.0
 76
     1
 77
     6
 78
     2
 67
     7
 79
     3
170
     0
171
     0
290
     0
174
     0
 93
        1
 44
0.0
173
     0
291
     0
 45
0.0
1001
ACAD
1000
AcDbSavedByObjectVersion
1070
     0
  0
VISUALSTYLE
  5
2D34
102
{ACAD_REACTORS
330
2D29
102
}
330
2D29
100
AcDbVisualStyle
  2
Dim
 70
    11
 71
     2
 72
     2
 73
     0
 90
        0
 40
-0.6
 41
-30.0
 62
     5
 63
     7
 74
     1
 91
        4
 64
     7
 65
   257
 75
     1
175
     1
 42
1.0
 92
        8
 66
     7
 43
1.0
 76
     1
 77
     6
 78
     2
 67
     7
 79
     5
170
     0
171
     0
290
     0
174
     0
 93
        1
 44
-50.0
173
     0
291
     1
 45
0.0
1001
ACAD
1000
AcDbSavedByObjectVersion
1070
     0
  0
VISUALSTYLE
  5
2D38
102
{ACAD_REACTORS
330
2D29
102
}
330
2D29
100
AcDbVisualStyle
  2
Facepattern
 70
    15
 71
     2
 72
     2
 73
     0
 90
        0
 40
-0.6
 41
-30.0
 62
     5
 63
     7
 74
     1
 91
        4
 64
     7
 65
   257
 75
     1
175
     1
 42
1.0
 92
        8
 66
     7
 43
1.0
 76
     1
 77
     6
 78
     2
 67
     7
 79
     5
170
     0
171
     0
290
     0
174
     0
 93
        1
 44
0.0
173
     0
291
     1
 45
0.0
1001
ACAD
1000
AcDbSavedByObjectVersion
1070
     0
  0
VISUALSTYLE
  5
2D2A
102
{ACAD_REACTORS
330
2D29
102
}
330
2D29
100
AcDbVisualStyle
  2
Flat
 70
     0
 71
     2
 72
     1
 73
     1
 90
        2
 40
-0.6
 41
30.0
 62
     5
 63
     7
 74
     0
 91
        4
 64
     7
 65
   257
 75
     1
175
     1
 42
1.0
 92
        8
 66
     7
 43
1.0
 76
     1
 77
     6
 78
     2
 67
     7
 79
     5
170
     0
171
     0
290
     0
174
     0
 93
       13
 44
0.0
173
     0
291
     1
 45
0.0
1001
ACAD
1000
AcDbSavedByObjectVersion
1070
     0
  0
VISUALSTYLE
  5
2D2B
102
{ACAD_REACTORS
330
2D29
102
}
330
2D29
100
AcDbVisualStyle
  2
FlatWithEdges
 70
     1
 71
     2
 72
     1
 73
     1
 90
        2
 40
-0.6
 41
30.0
 62
     5
 63
     7
 74
     1
 91
        4
 64
     7
 65
   257
 75
     1
175
     1
 42
1.0
 92
        0
 66
   257
 43
1.0
 76
     1
 77
     6
 78
     2
 67
     7
 79
     5
170
     0
171
     0
290
     0
174
     0
 93
       13
 44
0.0
173
     0
291
     1
 45
0.0
1001
ACAD
1000
AcDbSavedByObjectVersion
1070
     0
  0
VISUALSTYLE
  5
2D2C
102
{ACAD_REACTORS
330
2D29
102
}
330
2D29
100
AcDbVisualStyle
  2
Gouraud
 70
     2
 71
     2
 72
     2
 73
     1
 90
        2
 40
-0.6
 41
30.0
 62
     5
 63
     7
 74
     0
 91
        4
 64
     7
 65
   257
 75
     1
175
     1
 42
1.0
 92
        0
 66
     7
 43
1.0
 76
     1
 77
     6
 78
     2
 67
     7
 79
     5
170
     0
171
     0
290
     0
174
     0
 93
       13
 44
0.0
173
     0
291
     1
 45
0.0
1001
ACAD
1000
AcDbSavedByObjectVersion
1070
     0
  0
VISUALSTYLE
  5
2D2D
102
{ACAD_REACTORS
330
2D29
102
}
330
2D29
100
AcDbVisualStyle
  2
GouraudWithEdges
 70
     3
 71
     2
 72
     2
 73
     1
 90
        2
 40
-0.6
 41
30.0
 62
     5
 63
     7
 74
     1
 91
        4
 64
     7
 65
   257
 75
     1
175
     1
 42
1.0
 92
        0
 66
   257
 43
1.0
 76
     1
 77
     6
 78
     2
 67
     7
 79
     5
170
     0
171
     0
290
     0
174
     0
 93
       13
 44
0.0
173
     0
291
     1
 45
0.0
1001
ACAD
1000
AcDbSavedByObjectVersion
1070
     0
  0
VISUALSTYLE
  5
2D37
102
{ACAD_REACTORS
330
2D29
102
}
330
2D29
100
AcDbVisualStyle
  2
Linepattern
 70
    14
 71
     2
 72
     2
 73
     0
 90
        0
 40
-0.6
 41
-30.0
 62
     5
 63
     7
 74
     1
 91
        4
 64
     7
 65
   257
 75
     7
175
     7
 42
1.0
 92
        8
 66
     7
 43
1.0
 76
     1
 77
     6
 78
     2
 67
     7
 79
     5
170
     0
171
     0
290
     0
174
     0
 93
        1
 44
0.0
173
     0
291
     1
 45
0.0
1001
ACAD
1000
AcDbSavedByObjectVersion
1070
     0
  0
VISUALSTYLE
  5
2D33
102
{ACAD_REACTORS
330
2D29
102
}
330
2D29
100
AcDbVisualStyle
  2
Realistic
 70
     8
 71
     2
 72
     2
 73
     0
 90
        0
 40
-0.6
 41
-30.0
 62
     5
 63
     7
 74
     1
 91
        0
 64
     7
 65
   257
 75
     1
175
     1
 42
1.0
 92
        8
 66
     8
 43
1.0
 76
     1
 77
     6
 78
     2
 67
     7
 79
     5
170
     0
171
     0
290
     0
174
     0
 93
       13
 44
0.0
173
     0
291
     0
 45
0.0
1001
ACAD
1000
AcDbSavedByObjectVersion
1070
     0
  0
VISUALSTYLE
  5
2D36
102
{ACAD_REACTORS
330
2D29
102
}
330
2D29
100
AcDbVisualStyle
  2
Thicken
 70
    13
 71
     2
 72
     2
 73
     0
 90
        0
 40
-0.6
 41
-30.0
 62
     5
 63
     7
 74
     1
 91
        4
 64
     7
 65
   257
 75
     1
175
     1
 42
1.0
 92
       12
 66
     7
 43
1.0
 76
     1
 77
     6
 78
     2
 67
     7
 79
     5
170
     0
171
     0
290
     0
174
     0
 93
        1
 44
0.0
173
     0
291
     1
 45
0.0
1001
ACAD
1000
AcDbSavedByObjectVersion
1070
     0
  0
DICTIONARYVAR
  5
2F4D
102
{ACAD_REACTORS
330
2F4A
102
}
330
2F4A
100
DictionaryVariables
280
     0
  1
1:1
  0
DICTIONARYVAR
  5
2F4C
102
{ACAD_REACTORS
330
2F4A
102
}
330
2F4A
100
DictionaryVariables
280
     0
  1
STANDARD
  0
DICTIONARYVAR
  5
2F4B
102
{ACAD_REACTORS
330
2F4A
102
}
330
2F4A
100
DictionaryVariables
280
     0
  1
STANDARD
  0
DICTIONARYVAR
  5
2F50
102
{ACAD_REACTORS
330
2F4A
102
}
330
2F4A
100
DictionaryVariables
280
     0
  1
1
  0
DICTIONARYVAR
  5
2F4F
102
{ACAD_REACTORS
330
2F4A
102
}
330
2F4A
100
DictionaryVariables
280
     0
  1
1
  0
DICTIONARYVAR
  5
2F4E
102
{ACAD_REACTORS
330
2F4A
102
}
330
2F4A
100
DictionaryVariables
280
     0
  1
127
  0
DICTIONARY
  5
2F0B
102
{ACAD_REACTORS
330
2EFD
102
}
330
2EFD
100
AcDbDictionary
281
     1
  0
DICTIONARY
  5
2E4B
102
{ACAD_REACTORS
330
2E4A
102
}
330
2E4A
100
AcDbDictionary
281
     1
  3
DWGSETTINGS
350
2E4C
  3
TRANSSETTINGS
350
2E4D
  0
LAYER_INDEX
  5
2F3D
102
{ACAD_REACTORS
330
2F3C
102
}
330
2F3C
100
AcDbIndex
 40
2456210.799996759
100
AcDbLayerIndex
  8
0
360
2F3E
 90
        2
  8
OUTLINE
360
2F3F
 90
       17
  8
SIZE
360
2F40
 90
       24
  8
BASIS
360
2F41
 90
        1
  8
DETAIL
360
2F42
 90
       21
  8
ARRANGE
360
2F43
 90
        2
  8
DEFPOINTS
360
2F44
 90
        0
  8
ETC
360
2F45
 90
        3
  8
FIX
360
2F46
 90
        0
  8
NOTE
360
2F47
 90
        4
  8
SERVICESPACE
360
2F48
 90
        0
  8
SYMBOLLINE
360
2F49
 90
        0
  0
DICTIONARY
  5
2F60
330
2D77
100
AcDbDictionary
280
     1
281
     1
  3
ACAD_XREC_ROUNDTRIP
360
2F61
  0
DICTIONARY
  5
2F5E
330
2D73
100
AcDbDictionary
280
     1
281
     1
  3
ACAD_XREC_ROUNDTRIP
360
2F5F
  0
DICTIONARY
  5
2D1A
330
2D19
100
AcDbDictionary
280
     1
281
     1
  3
ACAD_XREC_ROUNDTRIP
360
2F5B
  3
BUMPTILE
360
2D1C
  3
DIFFUSETILE
360
2D1B
  3
OPACITYTILE
360
2D1F
  3
REFLECTIONTILE
360
2D1E
  3
REFRACTIONTILE
360
2D20
  3
SPECULARTILE
360
2D1D
  0
DICTIONARY
  5
2D12
330
2D11
100
AcDbDictionary
280
     1
281
     1
  3
ACAD_XREC_ROUNDTRIP
360
2F5A
  3
BUMPTILE
360
2D14
  3
DIFFUSETILE
360
2D13
  3
OPACITYTILE
360
2D17
  3
REFLECTIONTILE
360
2D16
  3
REFRACTIONTILE
360
2D18
  3
SPECULARTILE
360
2D15
  0
DICTIONARY
  5
2D22
330
2D21
100
AcDbDictionary
280
     1
281
     1
  3
ACAD_XREC_ROUNDTRIP
360
2F5C
  3
BUMPTILE
360
2D24
  3
DIFFUSETILE
360
2D23
  3
OPACITYTILE
360
2D27
  3
REFLECTIONTILE
360
2D26
  3
REFRACTIONTILE
360
2D28
  3
SPECULARTILE
360
2D25
  0
DICTIONARY
  5
2F51
330
2D6C
100
AcDbDictionary
280
     1
281
     1
  3
ACAD_ROUNDTRIP_2008_TABLESTYLE_CELLSTYLEMAP
360
2F52
  3
ACAD_XREC_ROUNDTRIP
360
2F5D
  0
IDBUFFER
  5
2F3E
330
0
100
AcDbIdBuffer
330
2A33
330
2A34
  0
IDBUFFER
  5
2F3F
330
0
100
AcDbIdBuffer
330
2A41
330
953
330
954
330
955
330
956
330
957
330
958
330
2A37
330
2A38
330
2A39
330
2A3A
330
2A3B
330
2A3C
330
2A3D
330
2A3E
330
2A3F
330
2A40
  0
IDBUFFER
  5
2F40
330
0
100
AcDbIdBuffer
330
2A58
330
2A59
330
2A5A
330
2A5B
330
2A5C
330
2A5D
330
2A5E
330
2A5F
330
2A48
330
2A49
330
2A4A
330
2A4B
330
2A4C
330
2A4D
330
2A4E
330
2A4F
330
2A50
330
2A51
330
2A52
330
2A53
330
2A54
330
2A55
330
2A56
330
2A57
  0
IDBUFFER
  5
2F41
330
0
100
AcDbIdBuffer
330
2A20
  0
IDBUFFER
  5
2F42
330
0
100
AcDbIdBuffer
330
2A43
330
2A44
330
2A45
330
2A46
330
2A47
330
2A22
330
2A23
330
2A24
330
2A25
330
2A26
330
2A27
330
2A28
330
2A29
330
2A2A
330
2A2B
330
2A2E
330
2A2F
330
2A30
330
2A31
330
2A32
330
2A42
  0
IDBUFFER
  5
2F43
330
0
100
AcDbIdBuffer
330
2A1F
330
2A21
  0
IDBUFFER
  5
2F44
330
0
100
AcDbIdBuffer
  0
IDBUFFER
  5
2F45
330
0
100
AcDbIdBuffer
330
2A1C
330
2A1D
330
2A1E
  0
IDBUFFER
  5
2F46
330
0
100
AcDbIdBuffer
  0
IDBUFFER
  5
2F47
330
0
100
AcDbIdBuffer
330
2A2C
330
2A2D
330
2A35
330
2A36
  0
IDBUFFER
  5
2F48
330
0
100
AcDbIdBuffer
  0
IDBUFFER
  5
2F49
330
0
100
AcDbIdBuffer
  0
XRECORD
  5
2F61
102
{ACAD_REACTORS
330
2F60
102
}
330
2F60
100
AcDbXrecord
280
     1
102
SHADEPLOT
 70
     0
102
SHADEPLOTRESLEVEL
 70
     2
102
SHADEPLOTCUSTOMDPI
 70
   300
  0
XRECORD
  5
2F5F
102
{ACAD_REACTORS
330
2F5E
102
}
330
2F5E
100
AcDbXrecord
280
     1
102
SHADEPLOT
 70
     0
102
SHADEPLOTRESLEVEL
 70
     2
102
SHADEPLOTCUSTOMDPI
 70
   300
  0
XRECORD
  5
2F5B
102
{ACAD_REACTORS
330
2D1A
102
}
330
2D1A
100
AcDbXrecord
280
     1
102
MATERIAL
148
0.0
149
0.0
149
0.0
 93
        0
 94
      127
282
     0
 72
     0
 77
     0
171
     0
175
     0
179
     0
273
     0
  0
XRECORD
  5
2D1C
102
{ACAD_REACTORS
330
2D1A
102
}
330
2D1A
100
AcDbXrecord
280
     1
270
     1
271
     1
  0
XRECORD
  5
2D1B
102
{ACAD_REACTORS
330
2D1A
102
}
330
2D1A
100
AcDbXrecord
280
     1
270
     1
271
     1
  0
XRECORD
  5
2D1F
102
{ACAD_REACTORS
330
2D1A
102
}
330
2D1A
100
AcDbXrecord
280
     1
270
     1
271
     1
  0
XRECORD
  5
2D1E
102
{ACAD_REACTORS
330
2D1A
102
}
330
2D1A
100
AcDbXrecord
280
     1
270
     1
271
     1
  0
XRECORD
  5
2D20
102
{ACAD_REACTORS
330
2D1A
102
}
330
2D1A
100
AcDbXrecord
280
     1
270
     1
271
     1
  0
XRECORD
  5
2D1D
102
{ACAD_REACTORS
330
2D1A
102
}
330
2D1A
100
AcDbXrecord
280
     1
270
     1
271
     1
  0
XRECORD
  5
2F5A
102
{ACAD_REACTORS
330
2D12
102
}
330
2D12
100
AcDbXrecord
280
     1
102
MATERIAL
148
0.0
149
0.0
149
0.0
 93
        0
 94
      127
282
     0
 72
     0
 77
     0
171
     0
175
     0
179
     0
273
     0
  0
XRECORD
  5
2D14
102
{ACAD_REACTORS
330
2D12
102
}
330
2D12
100
AcDbXrecord
280
     1
270
     1
271
     1
  0
XRECORD
  5
2D13
102
{ACAD_REACTORS
330
2D12
102
}
330
2D12
100
AcDbXrecord
280
     1
270
     1
271
     1
  0
XRECORD
  5
2D17
102
{ACAD_REACTORS
330
2D12
102
}
330
2D12
100
AcDbXrecord
280
     1
270
     1
271
     1
  0
XRECORD
  5
2D16
102
{ACAD_REACTORS
330
2D12
102
}
330
2D12
100
AcDbXrecord
280
     1
270
     1
271
     1
  0
XRECORD
  5
2D18
102
{ACAD_REACTORS
330
2D12
102
}
330
2D12
100
AcDbXrecord
280
     1
270
     1
271
     1
  0
XRECORD
  5
2D15
102
{ACAD_REACTORS
330
2D12
102
}
330
2D12
100
AcDbXrecord
280
     1
270
     1
271
     1
  0
XRECORD
  5
2F5C
102
{ACAD_REACTORS
330
2D22
102
}
330
2D22
100
AcDbXrecord
280
     1
102
MATERIAL
148
0.0
149
0.0
149
0.0
 93
        0
 94
      127
282
     0
 72
     0
 77
     0
171
     0
175
     0
179
     0
273
     0
  0
XRECORD
  5
2D24
102
{ACAD_REACTORS
330
2D22
102
}
330
2D22
100
AcDbXrecord
280
     1
270
     1
271
     1
  0
XRECORD
  5
2D23
102
{ACAD_REACTORS
330
2D22
102
}
330
2D22
100
AcDbXrecord
280
     1
270
     1
271
     1
  0
XRECORD
  5
2D27
102
{ACAD_REACTORS
330
2D22
102
}
330
2D22
100
AcDbXrecord
280
     1
270
     1
271
     1
  0
XRECORD
  5
2D26
102
{ACAD_REACTORS
330
2D22
102
}
330
2D22
100
AcDbXrecord
280
     1
270
     1
271
     1
  0
XRECORD
  5
2D28
102
{ACAD_REACTORS
330
2D22
102
}
330
2D22
100
AcDbXrecord
280
     1
270
     1
271
     1
  0
XRECORD
  5
2D25
102
{ACAD_REACTORS
330
2D22
102
}
330
2D22
100
AcDbXrecord
280
     1
270
     1
271
     1
  0
CELLSTYLEMAP
  5
2F52
102
{ACAD_REACTORS
330
2F51
102
}
330
2F51
100
AcDbCellStyleMap
 90
        3
300
CELLSTYLE
  1
TABLEFORMAT_BEGIN
 90
        5
170
     1
 91
        0
 92
    32768
 62
   257
 93
        1
300
CONTENTFORMAT
  1
CONTENTFORMAT_BEGIN
 90
        0
 91
        0
 92
      512
 93
        0
300

 40
0.0
140
1.0
 94
        5
 62
     0
340
2D5D
144
0.25
309
CONTENTFORMAT_END
171
     0
 94
        0
309
TABLEFORMAT_END
  1
CELLSTYLE_BEGIN
 90
        1
 91
        1
300
_TITLE
309
CELLSTYLE_END
300
CELLSTYLE
  1
TABLEFORMAT_BEGIN
 90
        5
170
     1
 91
        0
 92
        0
 62
   257
 93
        1
300
CONTENTFORMAT
  1
CONTENTFORMAT_BEGIN
 90
        0
 91
        0
 92
      512
 93
        0
300

 40
0.0
140
1.0
 94
        5
 62
     0
340
2D5D
144
0.18
309
CONTENTFORMAT_END
171
     0
 94
        0
309
TABLEFORMAT_END
  1
CELLSTYLE_BEGIN
 90
        2
 91
        1
300
_HEADER
309
CELLSTYLE_END
300
CELLSTYLE
  1
TABLEFORMAT_BEGIN
 90
        5
170
     1
 91
        0
 92
        0
 62
   257
 93
        1
300
CONTENTFORMAT
  1
CONTENTFORMAT_BEGIN
 90
        0
 91
        0
 92
      512
 93
        0
300

 40
0.0
140
1.0
 94
        2
 62
     0
340
2D5D
144
0.18
309
CONTENTFORMAT_END
171
     0
 94
        0
309
TABLEFORMAT_END
  1
CELLSTYLE_BEGIN
 90
        3
 91
        2
300
_DATA
309
CELLSTYLE_END
  0
XRECORD
  5
2F5D
102
{ACAD_REACTORS
330
2F51
102
}
330
2F51
100
AcDbXrecord
280
     1
102
ACAD_ROUNDTRIP_PRE2007_TABLESTYLE
 90
      512
 91
        0
  1

 92
      512
 93
        0
  2

 94
      512
 95
        0
  3

  0
ENDSEC
  0
EOF
