  0
SECTION
  2
HEADER
  9
$ACADVER
  1
AC1015
  9
$ACADMAINTVER
 70
    20
  9
$DWGCODEPAGE
  3
ANSI_932
  9
$INSBASE
 10
0.0
 20
0.0
 30
0.0
  9
$EXTMIN
 10
-1282.595114703139
 20
-1352.864089238022
 30
0.0
  9
$EXTMAX
 10
1727.998359419431
 20
454.0795551764758
 30
50.0
  9
$LIMMIN
 10
-2970.0
 20
-2100.0
  9
$LIMMAX
 10
2970.0
 20
2100.0
  9
$ORTHOMODE
 70
     1
  9
$REGENMODE
 70
     0
  9
$FILLMODE
 70
     1
  9
$QTEXTMODE
 70
     0
  9
$MIRRTEXT
 70
     0
  9
$LTSCALE
 40
20.0
  9
$ATTMODE
 70
     1
  9
$TEXTSIZE
 40
64.0
  9
$TRACEWID
 40
0.05
  9
$TEXTSTYLE
  7
STANDARD
  9
$CLAYER
  8
0
  9
$CELTYPE
  6
ByLayer
  9
$CECOLOR
 62
   256
  9
$CELTSCALE
 40
1.0
  9
$DISPSILH
 70
     0
  9
$DIMSCALE
 40
1.0
  9
$DIMASZ
 40
0.12
  9
$DIMEXO
 40
0.05
  9
$DIMDLI
 40
0.5
  9
$DIMRND
 40
0.0
  9
$DIMDLE
 40
0.0
  9
$DIMEXE
 40
0.1
  9
$DIMTP
 40
0.1
  9
$DIMTM
 40
0.1
  9
$DIMTXT
 40
0.12
  9
$DIMCEN
 40
0.0
  9
$DIMTSZ
 40
0.0
  9
$DIMTOL
 70
     0
  9
$DIMLIM
 70
     0
  9
$DIMTIH
 70
     1
  9
$DIMTOH
 70
     1
  9
$DIMSE1
 70
     0
  9
$DIMSE2
 70
     0
  9
$DIMTAD
 70
     0
  9
$DIMZIN
 70
     7
  9
$DIMBLK
  1

  9
$DIMASO
 70
     1
  9
$DIMSHO
 70
     0
  9
$DIMPOST
  1

  9
$DIMAPOST
  1
mm
  9
$DIMALT
 70
     0
  9
$DIMALTD
 70
     2
  9
$DIMALTF
 40
25.4
  9
$DIMLFAC
 40
1.0
  9
$DIMTOFL
 70
     0
  9
$DIMTVP
 40
0.0
  9
$DIMTIX
 70
     0
  9
$DIMSOXD
 70
     0
  9
$DIMSAH
 70
     0
  9
$DIMBLK1
  1

  9
$DIMBLK2
  1

  9
$DIMSTYLE
  2
AM_ANSI
  9
$DIMCLRD
 70
   256
  9
$DIMCLRE
 70
   256
  9
$DIMCLRT
 70
     2
  9
$DIMTFAC
 40
0.71
  9
$DIMGAP
 40
0.06
  9
$DIMJUST
 70
     0
  9
$DIMSD1
 70
     0
  9
$DIMSD2
 70
     0
  9
$DIMTOLJ
 70
     1
  9
$DIMTZIN
 70
     7
  9
$DIMALTZ
 70
     0
  9
$DIMALTTZ
 70
     0
  9
$DIMUPT
 70
     0
  9
$DIMDEC
 70
     4
  9
$DIMTDEC
 70
     4
  9
$DIMALTU
 70
     2
  9
$DIMALTTD
 70
     4
  9
$DIMTXSTY
  7
STANDARD
  9
$DIMAUNIT
 70
     0
  9
$DIMADEC
 70
     0
  9
$DIMALTRND
 40
0.0
  9
$DIMAZIN
 70
     2
  9
$DIMDSEP
 70
    46
  9
$DIMATFIT
 70
     3
  9
$DIMFRAC
 70
     0
  9
$DIMLDRBLK
  1

  9
$DIMLUNIT
 70
     2
  9
$DIMLWD
 70
    -1
  9
$DIMLWE
 70
    -1
  9
$DIMTMOVE
 70
     0
  9
$LUNITS
 70
     2
  9
$LUPREC
 70
     4
  9
$SKETCHINC
 40
0.1
  9
$FILLETRAD
 40
4.0
  9
$AUNITS
 70
     1
  9
$AUPREC
 70
     3
  9
$MENU
  1
ACAD
  9
$ELEVATION
 40
0.0
  9
$PELEVATION
 40
0.0
  9
$THICKNESS
 40
50.0
  9
$LIMCHECK
 70
     0
  9
$CHAMFERA
 40
0.0
  9
$CHAMFERB
 40
0.0
  9
$CHAMFERC
 40
0.0
  9
$CHAMFERD
 40
0.0
  9
$SKPOLY
 70
     0
  9
$TDCREATE
 40
2452321.396199653
  9
$TDUCREATE
 40
2452321.021199653
  9
$TDUPDATE
 40
2456211.494521401
  9
$TDUUPDATE
 40
2456211.119521400
  9
$TDINDWG
 40
1.0418839236
  9
$TDUSRTIMER
 40
1.0418776157
  9
$USRTIMER
 70
     1
  9
$ANGBASE
 50
0.0
  9
$ANGDIR
 70
     0
  9
$PDMODE
 70
     3
  9
$PDSIZE
 40
-2.0
  9
$PLINEWID
 40
0.0
  9
$SPLFRAME
 70
     0
  9
$SPLINETYPE
 70
     6
  9
$SPLINESEGS
 70
     8
  9
$HANDSEED
  5
320C
  9
$SURFTAB1
 70
     6
  9
$SURFTAB2
 70
     6
  9
$SURFTYPE
 70
     6
  9
$SURFU
 70
     6
  9
$SURFV
 70
     6
  9
$UCSBASE
  2

  9
$UCSNAME
  2

  9
$UCSORG
 10
0.0
 20
0.0
 30
0.0
  9
$UCSXDIR
 10
1.0
 20
0.0
 30
0.0
  9
$UCSYDIR
 10
0.0
 20
1.0
 30
0.0
  9
$UCSORTHOREF
  2

  9
$UCSORTHOVIEW
 70
     0
  9
$UCSORGTOP
 10
0.0
 20
0.0
 30
0.0
  9
$UCSORGBOTTOM
 10
0.0
 20
0.0
 30
0.0
  9
$UCSORGLEFT
 10
0.0
 20
0.0
 30
0.0
  9
$UCSORGRIGHT
 10
0.0
 20
0.0
 30
0.0
  9
$UCSORGFRONT
 10
0.0
 20
0.0
 30
0.0
  9
$UCSORGBACK
 10
0.0
 20
0.0
 30
0.0
  9
$PUCSBASE
  2

  9
$PUCSNAME
  2

  9
$PUCSORG
 10
0.0
 20
0.0
 30
0.0
  9
$PUCSXDIR
 10
1.0
 20
0.0
 30
0.0
  9
$PUCSYDIR
 10
0.0
 20
1.0
 30
0.0
  9
$PUCSORTHOREF
  2

  9
$PUCSORTHOVIEW
 70
     0
  9
$PUCSORGTOP
 10
0.0
 20
0.0
 30
0.0
  9
$PUCSORGBOTTOM
 10
0.0
 20
0.0
 30
0.0
  9
$PUCSORGLEFT
 10
0.0
 20
0.0
 30
0.0
  9
$PUCSORGRIGHT
 10
0.0
 20
0.0
 30
0.0
  9
$PUCSORGFRONT
 10
0.0
 20
0.0
 30
0.0
  9
$PUCSORGBACK
 10
0.0
 20
0.0
 30
0.0
  9
$USERI1
 70
     0
  9
$USERI2
 70
     0
  9
$USERI3
 70
     0
  9
$USERI4
 70
     0
  9
$USERI5
 70
     0
  9
$USERR1
 40
20.0
  9
$USERR2
 40
0.0
  9
$USERR3
 40
0.0
  9
$USERR4
 40
0.0
  9
$USERR5
 40
0.0
  9
$WORLDVIEW
 70
     1
  9
$SHADEDGE
 70
     3
  9
$SHADEDIF
 70
    70
  9
$TILEMODE
 70
     1
  9
$MAXACTVP
 70
    64
  9
$PINSBASE
 10
0.0
 20
0.0
 30
0.0
  9
$PLIMCHECK
 70
     0
  9
$PEXTMIN
 10
1.000000000000000E+20
 20
1.000000000000000E+20
 30
1.000000000000000E+20
  9
$PEXTMAX
 10
-1.000000000000000E+20
 20
-1.000000000000000E+20
 30
-1.000000000000000E+20
  9
$PLIMMIN
 10
0.0
 20
0.0
  9
$PLIMMAX
 10
12.0
 20
9.0
  9
$UNITMODE
 70
     0
  9
$VISRETAIN
 70
     1
  9
$PLINEGEN
 70
     0
  9
$PSLTSCALE
 70
     1
  9
$TREEDEPTH
 70
  3020
  9
$CMLSTYLE
  2
Standard
  9
$CMLJUST
 70
     0
  9
$CMLSCALE
 40
1.0
  9
$PROXYGRAPHICS
 70
     1
  9
$MEASUREMENT
 70
     0
  9
$CELWEIGHT
370
    -1
  9
$ENDCAPS
280
     0
  9
$JOINSTYLE
280
     0
  9
$LWDISPLAY
290
     0
  9
$INSUNITS
 70
     0
  9
$HYPERLINKBASE
  1

  9
$STYLESHEET
  1

  9
$XEDIT
290
     1
  9
$CEPSNTYPE
380
     0
  9
$PSTYLEMODE
290
     1
  9
$FINGERPRINTGUID
  2
{9668E2E0-B83C-4415-B590-0EA9D1EBD015}
  9
$VERSIONGUID
  2
{8568C0CD-A69F-4909-85CB-797979184D5F}
  9
$EXTNAMES
290
     1
  9
$PSVPSCALE
 40
0.0
  9
$OLESTARTUP
290
     0
  0
ENDSEC
  0
SECTION
  2
CLASSES
  0
CLASS
  1
ACDBDICTIONARYWDFLT
  2
AcDbDictionaryWithDefault
  3
ObjectDBX Classes
 90
        0
280
     0
281
     0
  0
CLASS
  1
MATERIAL
  2
AcDbMaterial
  3
ObjectDBX Classes
 90
     1153
280
     0
281
     0
  0
CLASS
  1
VISUALSTYLE
  2
AcDbVisualStyle
  3
ObjectDBX Classes
 90
     4095
280
     0
281
     0
  0
CLASS
  1
SCALE
  2
AcDbScale
  3
ObjectDBX Classes
 90
     1153
280
     0
281
     0
  0
CLASS
  1
TABLESTYLE
  2
AcDbTableStyle
  3
ObjectDBX Classes
 90
     4095
280
     0
281
     0
  0
CLASS
  1
MLEADERSTYLE
  2
AcDbMLeaderStyle
  3
ACDB_MLEADERSTYLE_CLASS
 90
     4095
280
     0
281
     0
  0
CLASS
  1
AMGSETTINGSOBJ
  2
AmgSettingsObj
  3
"AcadM|Product Description: AutoCAD Mechanical|Company: Autodesk, Inc."
 90
     1024
280
     0
281
     0
  0
CLASS
  1
ACME_DOCUMENT
  2
AcMeDbDoc
  3
AcMeServices
 90
     1024
280
     0
281
     0
  0
CLASS
  1
ACMESCOPE
  2
AcMeScope
  3
AcMeServices
 90
     1024
280
     0
281
     0
  0
CLASS
  1
ACMECOMMANDHISTORY
  2
AcMeCommandHistory
  3
AcMeServices
 90
     1024
280
     0
281
     0
  0
CLASS
  1
ACIMSYSVARMAN
  2
AcImSysVarManager
  3
AcMeServices
 90
     1024
280
     0
281
     0
  0
CLASS
  1
ACIMREALSYSVAR
  2
AcImRealSysVar
  3
AcMeServices
 90
     1024
280
     0
281
     0
  0
CLASS
  1
ACIMINTSYSVAR
  2
AcImIntSysVar
  3
AcMeServices
 90
     1024
280
     0
281
     0
  0
CLASS
  1
ACMEDRAWINGMAN
  2
AcMeDrawingMan
  3
AcMeServices
 90
     1024
280
     0
281
     0
  0
CLASS
  1
ACMEVIEW
  2
AcMeView
  3
AcMeServices
 90
     1024
280
     0
281
     0
  0
CLASS
  1
ACDBENTITYCACHE
  2
AcMeEntityCache
  3
AcMeServices
 90
     1024
280
     0
281
     0
  0
CLASS
  1
GSMANAGER
  2
AcMeGSManager
  3
AcMeServices
 90
     1024
280
     0
281
     0
  0
CLASS
  1
AMDTINTERNALREACTOR
  2
AmdtInternalReactor
  3
AcMeServices
 90
     1024
280
     0
281
     0
  0
CLASS
  1
ACMESTATEMGR
  2
AcMeStateMgr
  3
AcMeServices
 90
     1024
280
     0
281
     0
  0
CLASS
  1
ACGREFMASTER
  2
AcGrefMaster
  3
AcAttribServices
 90
     1024
280
     0
281
     0
  0
CLASS
  1
AM_DRAWING_MGR
  2
AcDmDwgMgr
  3
AcMechDwgViewMgmt
 90
     1024
280
     0
281
     0
  0
CLASS
  1
AM_DWG_DOCUMENT
  2
AcDmDwgDocument
  3
AcMechDwgViewMgmt
 90
     1024
280
     0
281
     0
  0
CLASS
  1
AM_DWG_SHEET
  2
AcDmSheet
  3
AcMechDwgViewMgmt
 90
     1024
280
     0
281
     0
  0
CLASS
  1
AM_VIEWDIMPARMAP
  2
AcDmViewDimParMap
  3
AcMechDwgViewMgmt
 90
     1024
280
     0
281
     0
  0
CLASS
  1
AM_DWGMGR_NAME
  2
AcDmDwgMgrName
  3
AcMechDwgViewMgmt
 90
     1024
280
     0
281
     0
  0
CLASS
  1
ACME_DATABASE
  2
AcMeDbDatabase
  3
AcMeServices
 90
     1024
280
     0
281
     0
  0
CLASS
  1
ACRFINSADJUSTERMGR
  2
AcRfInsAdjusterMgr
  3
AcMeServices
 90
     1024
280
     0
281
     0
  0
CLASS
  1
ACGREFACADMASTER
  2
AcGrefacadMaster
  3
AcGrefServices
 90
     1024
280
     0
281
     0
  0
CLASS
  1
AMDTMENUSTATEMGR
  2
AmdtMenuStateMgr
  3
McadcomServices
 90
     1024
280
     0
281
     0
  0
CLASS
  1
AMDTMCOMMENUSTATE
  2
AmdtMcomMenuState
  3
McadcomServices
 90
     1024
280
     0
281
     0
  0
CLASS
  1
AMIMASTER
  2
AmiMaster
  3
AmiServices
 90
     1024
280
     0
281
     0
  0
CLASS
  1
ASAPP
  2
AcAsAppObject
  3
AutoSurfServices
 90
     1024
280
     0
281
     0
  0
CLASS
  1
IM_STATIC_MAN
  2
AcImStaticVarManager
  3
AcMeServices
 90
     1024
280
     0
281
     0
  0
CLASS
  1
ACIMSTRSYSVAR
  2
AcImStrSysVar
  3
AcMeServices
 90
     1024
280
     0
281
     0
  0
CLASS
  1
ACIMDBLSTATICVAR
  2
AcImDblStaticVar
  3
AcMeServices
 90
     1024
280
     0
281
     0
  0
CLASS
  1
ACIMSTRSTATICVAR
  2
AcImStrStaticVar
  3
AcMeServices
 90
     1024
280
     0
281
     0
  0
CLASS
  1
ACIMINTSTATICVAR
  2
AcImIntStaticVar
  3
AcMeServices
 90
     1024
280
     0
281
     0
  0
CLASS
  1
ACASGREFMASTER
  2
AcAsGrefMaster
  3
AutoSurfResolverServices
 90
     1024
280
     0
281
     0
  0
CLASS
  1
ACADGREFMODULE
  2
AcAdGrefModule
  3
AdGrefServices
 90
     1024
280
     0
281
     0
  0
CLASS
  1
AMDTMAPISURFMOUDULE
  2
AmdtMApiSurfModule
  3
MApiSurfServices
 90
     1024
280
     0
281
     0
  0
CLASS
  1
MAPIAMMOUDLE
  2
MApiAmModule
  3
MApiAmServices
 90
     1024
280
     0
281
     0
  0
CLASS
  1
AMDTADMENUSTATE
  2
AmdtAdMenuState
  3
DesignerServices
 90
     1024
280
     0
281
     0
  0
CLASS
  1
ADAPPL
  2
AcAdAppl
  3
DesignerServices
 90
     1024
280
     0
281
     0
  0
CLASS
  1
DEPMGR
  2
AcAdDepMgr
  3
DesignerServices
 90
     1024
280
     0
281
     0
  0
CLASS
  1
PARAMMGR
  2
AcAdParamMgr
  3
DesignerServices
 90
     1024
280
     0
281
     0
  0
CLASS
  1
PARAMSCOPE
  2
AcAdParamScope
  3
DesignerServices
 90
     1024
280
     0
281
     0
  0
CLASS
  1
NAMEDAPPL
  2
AcAdNamedAppl
  3
DesignerServices
 90
     1024
280
     0
281
     0
  0
CLASS
  1
AMDTDMMENUSTATE
  2
AmdtDmMenuState
  3
AcMechDwgViewMgmt
 90
     1024
280
     0
281
     0
  0
CLASS
  1
MAPIADMODULE
  2
MApiAdModule
  3
MApiAdServices
 90
     1024
280
     0
281
     0
  0
CLASS
  1
AMDTAMMENUSTATE
  2
AmdtAmMenuState
  3
DesignerAssemblies
 90
     1024
280
     0
281
     0
  0
CLASS
  1
ACAMPROJECT
  2
AcAmProject
  3
DesignerAssemblies
 90
     1024
280
     0
281
     0
  0
CLASS
  1
ACAMGRCOMPDEF
  2
AcAmGrCompDef
  3
DesignerAssemblies
 90
     1024
280
     0
281
     0
  0
CLASS
  1
ACCMCONTEXT
  2
AcCmContext
  3
DesignerAssemblies
 90
     1024
280
     0
281
     0
  0
CLASS
  1
ACAMCOMPDEF
  2
AcAmCompDef
  3
DesignerAssemblies
 90
     1024
280
     0
281
     0
  0
CLASS
  1
ACAMCOMPDEFMGR
  2
AcAmCompDefMgr
  3
DesignerAssemblies
 90
     1024
280
     0
281
     0
  0
CLASS
  1
AMCONTEXTMGR
  2
AcAmContextMgr
  3
DesignerAssemblies
 90
     1024
280
     0
281
     0
  0
CLASS
  1
ACAMCONTEXTMODELER
  2
AcAmContextModeler
  3
DesignerAssemblies
 90
     1024
280
     0
281
     0
  0
CLASS
  1
ACMDATADICTIONARY
  2
AcmDataDictionary
  3
"AcmSymBB|Product Description: AutoCAD Mechanical|Company: Autodesk, Inc."
 90
     1024
280
     0
281
     0
  0
CLASS
  1
ACMDATAENTRYBLOCK
  2
AcmDataEntryBlock
  3
AcmSymBB|Product Description: AutoCAD Mechanical|Company: Autodesk, Inc.
 90
     1024
280
     0
281
     0
  0
CLASS
  1
ACRFATTGENMGR
  2
AcRfAttGeneralMgr
  3
AcAttribServices
 90
     1024
280
     0
281
     0
  0
CLASS
  1
ACRFOBJATTMGR
  2
AcRfObjAttGroupMgr
  3
AcAttribServices
 90
     1024
280
     0
281
     0
  0
CLASS
  1
ACRFMCADAPIATTHOLDER
  2
AcRfMCADAPIAttHolder
  3
AcAttribServices
 90
     1024
280
     0
281
     0
  0
CLASS
  1
AMDTSYSATTR
  2
AmdtSystemAttribute
  3
AcAttribServices
 90
     1024
280
     0
281
     0
  0
CLASS
  1
CATALOGSTATE
  2
AcAmCatalogState
  3
DesignerAssemblies
 90
     1024
280
     0
281
     0
  0
CLASS
  1
ACAMGRCOMPDEFSET
  2
AcAmGrCompDefSet
  3
DesignerAssemblies
 90
     1024
280
     0
281
     0
  0
CLASS
  1
AMDTBROWSERDBTAB
  2
AmdtBrowserDbTab
  3
McadcomServices
 90
     1024
280
     0
281
     0
  0
CLASS
  1
CBROWSERAPPOBJECT
  2
CBrowserAppObject
  3
McadcomServices
 90
     1024
280
     0
281
     0
  0
CLASS
  1
DM_PLACEHOLDER
  2
AcDmSelsetPlaceholder
  3
AcMechDwgViewMgmt
 90
     1024
280
     0
281
     0
  0
CLASS
  1
ACMSTANDARDANSI
  2
AcmStandardANSI
  3
"Amdt_StdImp|Product Description: AutoCAD Mechanical|Company: Autodesk, Inc."
 90
     1024
280
     0
281
     0
  0
CLASS
  1
ACMSURFSTANDARDANSI
  2
AcmSurfTextStdANSI
  3
"Amdt_StdImp|Product Description: AutoCAD Mechanical|Company: Autodesk, Inc."
 90
     1024
280
     0
281
     0
  0
CLASS
  1
ACMFCFSTANDARDANSI
  2
AcmFCFStdANSI
  3
"Amdt_StdImp|Product Description: AutoCAD Mechanical|Company: Autodesk, Inc."
 90
     1024
280
     0
281
     0
  0
CLASS
  1
ACMWELDSTANDARDANSI
  2
AcmWeldingStdANSI
  3
"Amdt_StdImp|Product Description: AutoCAD Mechanical|Company: Autodesk, Inc."
 90
     1024
280
     0
281
     0
  0
CLASS
  1
ACMIDSTANDARDANSI
  2
AcmIdStdANSI
  3
"Amdt_StdImp|Product Description: AutoCAD Mechanical|Company: Autodesk, Inc."
 90
     1024
280
     0
281
     0
  0
CLASS
  1
ACMDATUMSTANDARDANSI
  2
AcmDatumStdANSI
  3
"Amdt_StdImp|Product Description: AutoCAD Mechanical|Company: Autodesk, Inc."
 90
     1024
280
     0
281
     0
  0
CLASS
  1
ACMBOMSTANDARDANSI
  2
AcmBOMStdANSI
  3
"Amdt_StdImp|Product Description: AutoCAD Mechanical|Company: Autodesk, Inc."
 90
     1024
280
     0
281
     0
  0
CLASS
  1
ACMDETAILSTANDARDANSI
  2
AmdtDetailSymStdANSI
  3
"Amdt_StdImp|Product Description: AutoCAD Mechanical|Company: Autodesk, Inc."
 90
     1024
280
     0
281
     0
  0
CLASS
  1
ACMSECTIONSTANDARDANSI
  2
AmdtSectionSymStdANSI
  3
"Amdt_StdImp|Product Description: AutoCAD Mechanical|Company: Autodesk, Inc."
 90
     1024
280
     0
281
     0
  0
CLASS
  1
ACMCENTERLINESTANDARDANSI
  2
AmdtCenterLineStdANSI
  3
"Amdt_StdImp|Product Description: AutoCAD Mechanical|Company: Autodesk, Inc."
 90
     1024
280
     0
281
     0
  0
CLASS
  1
ACMTHREADLINESTANDARDANSI
  2
AmdtThreadLineStdANSI
  3
"Amdt_StdImp|Product Description: AutoCAD Mechanical|Company: Autodesk, Inc."
 90
     1024
280
     0
281
     0
  0
CLASS
  1
ACMNOTESTANDARDANSI
  2
AmdtNoteStdANSI
  3
"Amdt_StdImp|Product Description: AutoCAD Mechanical|Company: Autodesk, Inc."
 90
     1024
280
     0
281
     0
  0
CLASS
  1
ACMTAPERSTANDARDANSI
  2
AcmTaperStdANSI
  3
"Amdt_StdImp|Product Description: AutoCAD Mechanical|Company: Autodesk, Inc."
 90
     1024
280
     0
281
     0
  0
CLASS
  1
ACMANOOTATIONVIEWSTANDARDANSI
  2
AmdtAnViewStdANSI
  3
"Amdt_StdImp|Product Description: AutoCAD Mechanical|Company: Autodesk, Inc."
 90
     1024
280
     0
281
     0
  0
CLASS
  1
ACAMGLAYSTD
  2
AcAmgLayStd
  3
"AmgLay|Product Description: AutoCAD Mechanical|Company: Autodesk, Inc."
 90
     1024
280
     0
281
     0
  0
CLASS
  1
ACAMGDIMSTD
  2
AcAmgDimStd
  3
"AmgDim|Product Description: AutoCAD Mechanical|Company: Autodesk, Inc."
 90
     1024
280
     0
281
     0
  0
CLASS
  1
ACAMGHOLECHARTSTDANSI
  2
AcAmgHoleChartStdANSI
  3
AmgDim|Product Description: AutoCAD Mechanical|Company: Autodesk, Inc.
 90
     1024
280
     0
281
     0
  0
CLASS
  1
AMGOBJPROPCFG
  2
AmgObjPropCfg
  3
"AmgLay|Product Description: AutoCAD Mechanical|Company: Autodesk, Inc."
 90
     1025
280
     0
281
     0
  0
CLASS
  1
ACAMGTITLESTD
  2
AcAmgTitleStd
  3
"AmgTitle|Product Description: AutoCAD Mechanical|Company: Autodesk, Inc."
 90
     4095
280
     0
281
     0
  0
CLASS
  1
AMDTNOTETEMPLATEDB
  2
AmdtNoteTemplateDB
  3
AcmSymBB|Product Description: AutoCAD Mechanical|Company: Autodesk, Inc.
 90
     1024
280
     0
281
     0
  0
CLASS
  1
LAYER_INDEX
  2
AcDbLayerIndex
  3
ObjectDBX Classes
 90
        0
280
     0
281
     0
  0
CLASS
  1
IDBUFFER
  2
AcDbIdBuffer
  3
ObjectDBX Classes
 90
        0
280
     0
281
     0
  0
CLASS
  1
DICTIONARYVAR
  2
AcDbDictionaryVar
  3
ObjectDBX Classes
 90
        0
280
     0
281
     0
  0
CLASS
  1
CELLSTYLEMAP
  2
AcDbCellStyleMap
  3
ObjectDBX Classes
 90
     1152
280
     0
281
     0
  0
CLASS
  1
ACDBPLACEHOLDER
  2
AcDbPlaceHolder
  3
ObjectDBX Classes
 90
        0
280
     0
281
     0
  0
CLASS
  1
LAYOUT
  2
AcDbLayout
  3
ObjectDBX Classes
 90
        0
280
     0
281
     0
  0
ENDSEC
  0
SECTION
  2
TABLES
  0
TABLE
  2
VPORT
  5
2FA8
330
0
100
AcDbSymbolTable
 70
     1
  0
VPORT
  5
3018
330
2FA8
100
AcDbSymbolTableRecord
100
AcDbViewportTableRecord
  2
*ACTIVE
 70
     0
 10
0.0
 20
0.0
 11
1.0
 21
1.0
 12
0.0
 22
0.0
 13
0.0
 23
0.0
 14
1.0
 24
1.0
 15
0.0
 25
0.0
 16
0.0
 26
0.0
 36
1.0
 17
196.682753316921
 27
-449.2492583222327
 37
0.0
 40
1819.180023108835
 41
1.712555066079295
 42
50.0
 43
0.0
 44
0.0
 50
0.0
 51
0.0
 71
     0
 72
   100
 73
     1
 74
     0
 75
     0
 76
     0
 77
     0
 78
     0
281
     0
 65
     0
110
0.0
120
0.0
130
0.0
111
1.0
121
0.0
131
0.0
112
0.0
122
1.0
132
0.0
 79
     0
146
0.0
  0
ENDTAB
  0
TABLE
  2
LTYPE
  5
2FA5
330
0
100
AcDbSymbolTable
 70
    19
  0
LTYPE
  5
3002
330
2FA5
100
AcDbSymbolTableRecord
100
AcDbLinetypeTableRecord
  2
ByBlock
 70
     0
  3

 72
    65
 73
     0
 40
0.0
  0
LTYPE
  5
3003
330
2FA5
100
AcDbSymbolTableRecord
100
AcDbLinetypeTableRecord
  2
ByLayer
 70
     0
  3

 72
    65
 73
     0
 40
0.0
  0
LTYPE
  5
3004
330
2FA5
100
AcDbSymbolTableRecord
100
AcDbLinetypeTableRecord
  2
CONTINUOUS
 70
     0
  3
実線
 72
    65
 73
     0
 40
0.0
  0
LTYPE
  5
3019
330
2FA5
100
AcDbSymbolTableRecord
100
AcDbLinetypeTableRecord
  2
DASHDOT
 70
     0
  3
____ _ ____ _ ____ _ ____ _ ____ _ ____ _ ____
 72
    65
 73
     4
 40
5.5
 49
4.0
 74
     0
 49
-0.6
 74
     0
 49
0.3
 74
     0
 49
-0.6
 74
     0
  0
LTYPE
  5
301A
330
2FA5
100
AcDbSymbolTableRecord
100
AcDbLinetypeTableRecord
  2
HIDDEN
 70
     0
  3
Hidden __ __ __ __ __ __ __ __ __ __ __ __ __ _
 72
    65
 73
     2
 40
0.375
 49
0.25
 74
     0
 49
-0.125
 74
     0
  0
LTYPE
  5
301B
330
2FA5
100
AcDbSymbolTableRecord
100
AcDbLinetypeTableRecord
  2
PHANTOM2
 70
     0
  3
Phantom (.5x) ___ _ _ ___ _ _ ___ _ _ ___ _ _
 72
    65
 73
     6
 40
1.25
 49
0.625
 74
     0
 49
-0.125
 74
     0
 49
0.125
 74
     0
 49
-0.125
 74
     0
 49
0.125
 74
     0
 49
-0.125
 74
     0
  0
LTYPE
  5
301C
330
2FA5
100
AcDbSymbolTableRecord
100
AcDbLinetypeTableRecord
  2
CENTER
 70
     0
  3
Center ____ _ ____ _ ____ _ ____ _ ____ _ ____
 72
    65
 73
     4
 40
2.0
 49
1.25
 74
     0
 49
-0.25
 74
     0
 49
0.25
 74
     0
 49
-0.25
 74
     0
  0
LTYPE
  5
301D
330
2FA5
100
AcDbSymbolTableRecord
100
AcDbLinetypeTableRecord
  2
ASULTYPE
 70
     0
  3
実線
 72
    65
 73
     2
 40
3.0
 49
2.5
 74
     0
 49
0.5
 74
     0
  0
LTYPE
  5
301E
330
2FA5
100
AcDbSymbolTableRecord
100
AcDbLinetypeTableRecord
  2
ASVLTYPE
 70
     0
  3
__ __ __ __ __ __ __ __ __ __ __ __ __ __ __ __ __ __ __ __ __
 72
    65
 73
     2
 40
0.75
 49
0.5
 74
     0
 49
-0.25
 74
     0
  0
LTYPE
  5
301F
330
2FA5
100
AcDbSymbolTableRecord
100
AcDbLinetypeTableRecord
  2
AM_ISO02W050
 70
     0
  3
__ __ __ __ __ __ __ __ __ __ __ __ __ __ __
 72
    65
 73
     2
 40
7.5
 49
6.0
 74
     0
 49
-1.5
 74
     0
  0
LTYPE
  5
3020
330
2FA5
100
AcDbSymbolTableRecord
100
AcDbLinetypeTableRecord
  2
AM_ISO08W050
 70
     0
  3
____ . ____ . ____ . ____ . ____ . ____ . ____
 72
    65
 73
     4
 40
18.0
 49
12.0
 74
     0
 49
-1.5
 74
     0
 49
3.0
 74
     0
 49
-1.5
 74
     0
  0
LTYPE
  5
3021
330
2FA5
100
AcDbSymbolTableRecord
100
AcDbLinetypeTableRecord
  2
AM_ISO09W050
 70
     0
  3
_____ . . _____ . . _____ . . ____ .. ____
 72
    65
 73
     6
 40
22.5
 49
12.0
 74
     0
 49
-1.5
 74
     0
 49
3.0
 74
     0
 49
-1.5
 74
     0
 49
3.0
 74
     0
 49
-1.5
 74
     0
  0
LTYPE
  5
3022
330
2FA5
100
AcDbSymbolTableRecord
100
AcDbLinetypeTableRecord
  2
AMCONSTR
 70
     0
  3
_______________________
 72
    65
 73
     2
 40
9999.0
 49
9999.0
 74
     0
 49
0.0
 74
     0
  0
LTYPE
  5
3023
330
2FA5
100
AcDbSymbolTableRecord
100
AcDbLinetypeTableRecord
  2
AM_ISO08W050X2
 70
     0
  3
__ . __ . __ . __ . __ . __
 72
    65
 73
     4
 40
9.0
 49
6.0
 74
     0
 49
-0.75
 74
     0
 49
1.5
 74
     0
 49
-0.75
 74
     0
  0
LTYPE
  5
3024
330
2FA5
100
AcDbSymbolTableRecord
100
AcDbLinetypeTableRecord
  2
AM_ISO02W050X2
 70
     0
  3
 _ _ _ _ _ _ _ _ _ _ _ _
 72
    65
 73
     2
 40
3.75
 49
3.0
 74
     0
 49
-0.75
 74
     0
  0
LTYPE
  5
3025
330
2FA5
100
AcDbSymbolTableRecord
100
AcDbLinetypeTableRecord
  2
AMZIGZAG
 70
     0
  3
/\/-/\/-/\/-/\/-/\/-/\/
 72
    65
 73
     2
 40
11.0001
 49
0.0001
 74
     0
 49
-11.0
 74
     0
  0
LTYPE
  5
3026
330
2FA5
100
AcDbSymbolTableRecord
100
AcDbLinetypeTableRecord
  2
CENTER2
 70
     0
  3
Center (.5x) ___ _ ___ _ ___ _ ___ _ ___ _ ___
 72
    65
 73
     4
 40
1.125
 49
0.75
 74
     0
 49
-0.125
 74
     0
 49
0.125
 74
     0
 49
-0.125
 74
     0
  0
LTYPE
  5
3027
330
2FA5
100
AcDbSymbolTableRecord
100
AcDbLinetypeTableRecord
  2
HIDDEN2
 70
     0
  3
Hidden (.5x) _ _ _ _ _ _ _ _ _ _ _ _ _ _ _ _ _
 72
    65
 73
     2
 40
0.1875
 49
0.125
 74
     0
 49
-0.0625
 74
     0
  0
LTYPE
  5
3028
330
2FA5
100
AcDbSymbolTableRecord
100
AcDbLinetypeTableRecord
  2
AMZIGZAG2
 70
     0
  3
/\/-/\/-/\/-/\/-/\/-/\/
 72
    65
 73
     2
 40
0.4401
 49
0.0001
 74
     0
 49
-0.4400000000000003
 74
     0
  0
LTYPE
  5
3029
330
2FA5
100
AcDbSymbolTableRecord
100
AcDbLinetypeTableRecord
  2
ACANSTGB
 70
     0
  3
__ . . __ . .
 72
    65
 73
     6
 40
0.35433070866
 49
0.15748031496
 74
     0
 49
-0.03937007874
 74
     0
 49
0.03937007874
 74
     0
 49
-0.03937007874
 74
     0
 49
0.03937007874
 74
     0
 49
-0.03937007874
 74
     0
  0
LTYPE
  5
302A
330
2FA5
100
AcDbSymbolTableRecord
100
AcDbLinetypeTableRecord
  2
ACANSTGL
 70
     0
  3
_ _ _ _ _
 72
    65
 73
     2
 40
0.11811023622
 49
0.07874015748
 74
     0
 49
-0.03937007874
 74
     0
  0
ENDTAB
  0
TABLE
  2
LAYER
  5
2FA2
330
0
100
AcDbSymbolTable
 70
    12
  0
LAYER
  5
2FFC
102
{ACAD_XDICTIONARY
360
31CB
102
}
330
2FA2
100
AcDbSymbolTableRecord
100
AcDbLayerTableRecord
  2
0
 70
     0
 62
     7
  6
CONTINUOUS
370
    -3
390
2FAF
  0
LAYER
  5
302B
102
{ACAD_XDICTIONARY
360
31CD
102
}
330
2FA2
100
AcDbSymbolTableRecord
100
AcDbLayerTableRecord
  2
OUTLINE
 70
     0
 62
     3
  6
CONTINUOUS
370
    -3
390
2FAF
  0
LAYER
  5
302C
102
{ACAD_XDICTIONARY
360
31CF
102
}
330
2FA2
100
AcDbSymbolTableRecord
100
AcDbLayerTableRecord
  2
SIZE
 70
     0
 62
    30
  6
CONTINUOUS
370
    -3
390
2FAF
  0
LAYER
  5
302D
102
{ACAD_XDICTIONARY
360
31D1
102
}
330
2FA2
100
AcDbSymbolTableRecord
100
AcDbLayerTableRecord
  2
BASIS
 70
     0
 62
     6
  6
DASHDOT
370
    -3
390
2FAF
  0
LAYER
  5
302E
102
{ACAD_XDICTIONARY
360
31D3
102
}
330
2FA2
100
AcDbSymbolTableRecord
100
AcDbLayerTableRecord
  2
DETAIL
 70
     0
 62
     5
  6
CONTINUOUS
370
    -3
390
2FAF
  0
LAYER
  5
302F
102
{ACAD_XDICTIONARY
360
31D5
102
}
330
2FA2
100
AcDbSymbolTableRecord
100
AcDbLayerTableRecord
  2
ARRANGE
 70
     0
 62
     1
  6
CONTINUOUS
370
    -3
390
2FAF
  0
LAYER
  5
3030
330
2FA2
100
AcDbSymbolTableRecord
100
AcDbLayerTableRecord
  2
DEFPOINTS
 70
     0
 62
     7
  6
CONTINUOUS
290
     0
370
    -3
390
2FAF
  0
LAYER
  5
3031
102
{ACAD_XDICTIONARY
360
31D7
102
}
330
2FA2
100
AcDbSymbolTableRecord
100
AcDbLayerTableRecord
  2
ETC
 70
     0
 62
    61
  6
CONTINUOUS
370
    -3
390
2FAF
  0
LAYER
  5
3032
102
{ACAD_XDICTIONARY
360
31D9
102
}
330
2FA2
100
AcDbSymbolTableRecord
100
AcDbLayerTableRecord
  2
FIX
 70
     0
 62
    11
  6
CONTINUOUS
370
    -3
390
2FAF
  0
LAYER
  5
3033
102
{ACAD_XDICTIONARY
360
31DB
102
}
330
2FA2
100
AcDbSymbolTableRecord
100
AcDbLayerTableRecord
  2
NOTE
 70
     0
 62
     4
  6
CONTINUOUS
370
    -3
390
2FAF
  0
LAYER
  5
3034
102
{ACAD_XDICTIONARY
360
31DD
102
}
330
2FA2
100
AcDbSymbolTableRecord
100
AcDbLayerTableRecord
  2
SERVICESPACE
 70
     0
 62
     2
  6
DASHDOT
370
    -3
390
2FAF
  0
LAYER
  5
3035
102
{ACAD_XDICTIONARY
360
31DF
102
}
330
2FA2
100
AcDbSymbolTableRecord
100
AcDbLayerTableRecord
  2
SYMBOLLINE
 70
     0
 62
    15
  6
CONTINUOUS
370
    -3
390
2FAF
  0
ENDTAB
  0
TABLE
  2
STYLE
  5
2FA3
330
0
100
AcDbSymbolTable
 70
     5
  0
STYLE
  5
2FFD
330
2FA3
100
AcDbSymbolTableRecord
100
AcDbTextStyleTableRecord
  2
STANDARD
 70
     0
 40
64.0
 41
0.9
 50
0.0
 71
     0
 42
64.0
  3
SIMPLEX.shx
  4
BIGFONT.shx
  0
STYLE
  5
3001
330
2FA3
100
AcDbSymbolTableRecord
100
AcDbTextStyleTableRecord
  2
ANNOTATIVE
 70
     0
 40
0.0
 41
1.0
 50
0.0
 71
     0
 42
0.2
  3
txt
  4

1001
ACADANNOTATIVE
1000
AnnotativeData
1002
{
1070
     1
1070
     1
1002
}
  0
STYLE
  5
3036
330
2FA3
100
AcDbSymbolTableRecord
100
AcDbTextStyleTableRecord
  2

 70
     1
 40
0.0
 41
1.0
 50
0.0
 71
     0
 42
64.0
  3
genltshp.shx
  4

  0
STYLE
  5
3037
330
2FA3
100
AcDbSymbolTableRecord
100
AcDbTextStyleTableRecord
  2
ACANSTS
 70
     0
 40
1.0
 41
1.0
 50
0.0
 71
     0
 42
64.0
  3
romans.shx
  4
extfont.shx
  0
STYLE
  5
3038
330
2FA3
100
AcDbSymbolTableRecord
100
AcDbTextStyleTableRecord
  2
ACANSGDT
 70
     0
 40
0.0
 41
1.0
 50
0.0
 71
     0
 42
64.0
  3
amgdt.shx
  4

  0
ENDTAB
  0
TABLE
  2
VIEW
  5
2FA6
330
0
100
AcDbSymbolTable
 70
     1
  0
VIEW
  5
3039
330
2FA6
100
AcDbSymbolTableRecord
100
AcDbViewTableRecord
  2
ALL
 70
     0
 40
4282.619807999997
 10
0.0
 20
41.30990399999999
 41
5940.0
 11
0.0
 21
0.0
 31
1.0
 12
0.0
 22
0.0
 32
0.0
 42
50.0
 43
0.0
 44
0.0
 50
0.0
 71
     0
281
     0
 72
     1
110
0.0
120
0.0
130
0.0
111
1.0
121
0.0
131
0.0
112
0.0
122
1.0
132
0.0
 79
     0
146
0.0
  0
ENDTAB
  0
TABLE
  2
UCS
  5
2FA7
330
0
100
AcDbSymbolTable
 70
     0
  0
ENDTAB
  0
TABLE
  2
APPID
  5
2FA9
330
0
100
AcDbSymbolTable
 70
    31
  0
APPID
  5
2FFE
330
2FA9
100
AcDbSymbolTableRecord
100
AcDbRegAppTableRecord
  2
ACAD
 70
     0
  0
APPID
  5
3005
330
2FA9
100
AcDbSymbolTableRecord
100
AcDbRegAppTableRecord
  2
ACADANNOTATIVE
 70
     0
  0
APPID
  5
300F
330
2FA9
100
AcDbSymbolTableRecord
100
AcDbRegAppTableRecord
  2
ACAD_MLEADERVER
 70
     0
  0
APPID
  5
303A
330
2FA9
100
AcDbSymbolTableRecord
100
AcDbRegAppTableRecord
  2
GENIUS_GENDIM_13
 70
     0
  0
APPID
  5
303B
330
2FA9
100
AcDbSymbolTableRecord
100
AcDbRegAppTableRecord
  2
GENIUS_GENDTOL_13
 70
     0
  0
APPID
  5
303C
330
2FA9
100
AcDbSymbolTableRecord
100
AcDbRegAppTableRecord
  2
GENIUS_GE3DTOL_13
 70
     0
  0
APPID
  5
303D
330
2FA9
100
AcDbSymbolTableRecord
100
AcDbRegAppTableRecord
  2
MCAD_NO_VIS
 70
     0
  0
APPID
  5
303E
330
2FA9
100
AcDbSymbolTableRecord
100
AcDbRegAppTableRecord
  2
ACAD_TEMP_GRAPHIC
 70
     0
  0
APPID
  5
303F
330
2FA9
100
AcDbSymbolTableRecord
100
AcDbRegAppTableRecord
  2
AD_DRAW
 70
     0
  0
APPID
  5
3040
330
2FA9
100
AcDbSymbolTableRecord
100
AcDbRegAppTableRecord
  2
ACATTRIBSERVICES
 70
     0
  0
APPID
  5
3041
330
2FA9
100
AcDbSymbolTableRecord
100
AcDbRegAppTableRecord
  2
ASURF_PCURVE_APPNAME
 70
     0
  0
APPID
  5
3042
330
2FA9
100
AcDbSymbolTableRecord
100
AcDbRegAppTableRecord
  2
AMG_3D2D_5_0
 70
     0
  0
APPID
  5
3043
330
2FA9
100
AcDbSymbolTableRecord
100
AcDbRegAppTableRecord
  2
DESIGNERASSEMBLIES
 70
     0
  0
APPID
  5
3044
330
2FA9
100
AcDbSymbolTableRecord
100
AcDbRegAppTableRecord
  2
ACADM_DIM_EDIT
 70
     0
  0
APPID
  5
3045
330
2FA9
100
AcDbSymbolTableRecord
100
AcDbRegAppTableRecord
  2
AMDT_DM_ADJ
 70
     0
  0
APPID
  5
3046
330
2FA9
100
AcDbSymbolTableRecord
100
AcDbRegAppTableRecord
  2
ACAD_DSTYLE_DIMARC_LENGTH_
 70
     0
  0
APPID
  5
3047
330
2FA9
100
AcDbSymbolTableRecord
100
AcDbRegAppTableRecord
  2
ACAD_DSTYLE_DIMJOGGED_JOGA
 70
     0
  0
APPID
  5
3048
330
2FA9
100
AcDbSymbolTableRecord
100
AcDbRegAppTableRecord
  2
ACAD_PSEXT
 70
     0
  0
APPID
  5
3049
330
2FA9
100
AcDbSymbolTableRecord
100
AcDbRegAppTableRecord
  2
ACAD_EXEMPT_FROM_CAD_STANDARDS
 70
     0
  0
APPID
  5
304A
330
2FA9
100
AcDbSymbolTableRecord
100
AcDbRegAppTableRecord
  2
ACAD_DSTYLE_DIMJAG
 70
     0
  0
APPID
  5
304B
330
2FA9
100
AcDbSymbolTableRecord
100
AcDbRegAppTableRecord
  2
ACAD_DSTYLE_DIMTALN
 70
     0
  0
APPID
  5
304C
330
2FA9
100
AcDbSymbolTableRecord
100
AcDbRegAppTableRecord
  2
AMG_3D2D_5_00
 70
     0
  0
APPID
  5
304D
330
2FA9
100
AcDbSymbolTableRecord
100
AcDbRegAppTableRecord
  2
AMG_3D2D_5_01
 70
     0
  0
APPID
  5
304E
330
2FA9
100
AcDbSymbolTableRecord
100
AcDbRegAppTableRecord
  2
AMG_3D2D_5_02
 70
     0
  0
APPID
  5
304F
330
2FA9
100
AcDbSymbolTableRecord
100
AcDbRegAppTableRecord
  2
AMG_3D2D_5_03
 70
     0
  0
APPID
  5
3050
330
2FA9
100
AcDbSymbolTableRecord
100
AcDbRegAppTableRecord
  2
AMG_3D2D_5_04
 70
     0
  0
APPID
  5
3172
330
2FA9
100
AcDbSymbolTableRecord
100
AcDbRegAppTableRecord
  2
AMG_3D2D_5.0
 70
     0
  0
APPID
  5
3208
330
2FA9
100
AcDbSymbolTableRecord
100
AcDbRegAppTableRecord
  2
ACAD_DSTYLE_DIMARC_LENGTH_SYMBOL
 70
     0
  0
APPID
  5
3209
330
2FA9
100
AcDbSymbolTableRecord
100
AcDbRegAppTableRecord
  2
ACAD_DSTYLE_DIM_LINETYPE
 70
     0
  0
APPID
  5
320A
330
2FA9
100
AcDbSymbolTableRecord
100
AcDbRegAppTableRecord
  2
ACAD_DSTYLE_DIM_EXT1_LINETYPE
 70
     0
  0
APPID
  5
320B
330
2FA9
100
AcDbSymbolTableRecord
100
AcDbRegAppTableRecord
  2
ACAD_DSTYLE_DIM_EXT2_LINETYPE
 70
     0
  0
ENDTAB
  0
TABLE
  2
DIMSTYLE
  5
2FAA
330
0
100
AcDbSymbolTable
 70
    10
100
AcDbDimStyleTable
 71
     1
340
3051
  0
DIMSTYLE
105
2FFF
330
2FAA
100
AcDbSymbolTableRecord
100
AcDbDimStyleTableRecord
  2
STANDARD
 70
     0
 41
12.0
 42
20.0
 44
20.0
 77
     1
 78
     8
140
64.0
141
0.0
147
10.0
275
     1
279
     2
284
     7
285
     7
286
     7
340
2FFD
  0
DIMSTYLE
105
3000
330
2FAA
100
AcDbSymbolTableRecord
100
AcDbDimStyleTableRecord
  2
ANNOTATIVE
 70
     0
275
     1
279
     2
284
     7
285
     7
286
     7
340
2FFD
1001
ACADANNOTATIVE
1000
AnnotativeData
1002
{
1070
     1
1070
     1
1002
}
  0
DIMSTYLE
105
3051
330
2FAA
100
AcDbSymbolTableRecord
100
AcDbDimStyleTableRecord
  2
AM_ANSI
 70
     0
  4
mm
 41
0.12
 42
0.05
 43
0.5
 44
0.1
 47
0.1
 48
0.1
 78
     7
 79
     2
140
0.12
141
0.0
146
0.71
147
0.06
176
   256
177
   256
178
     2
274
     4
284
     7
340
2FFD
371
    -1
372
    -1
1001
ACAD_DSTYLE_DIMARC_LENGTH_SYMBOL
1070
   379
1070
     1
1001
ACAD_DSTYLE_DIM_LINETYPE
1070
   380
1005
3002
1001
ACAD_DSTYLE_DIM_EXT1_LINETYPE
1070
   381
1005
3002
1001
ACAD_DSTYLE_DIM_EXT2_LINETYPE
1070
   382
1005
3002
  0
DIMSTYLE
105
3052
330
2FAA
100
AcDbSymbolTableRecord
100
AcDbDimStyleTableRecord
  2
AM_ANSI$3
 70
     0
  4
mm
 41
0.12
 42
0.05
 43
0.5
 44
0.1
 47
0.1
 48
0.1
 78
     7
 79
     2
140
0.12
141
0.0
146
0.71
147
0.06
176
   256
177
   256
178
     2
274
     4
284
     7
288
     1
289
     0
340
2FFD
371
    -1
372
    -1
1001
ACAD_DSTYLE_DIMARC_LENGTH_SYMBOL
1070
   379
1070
     1
1001
ACAD_DSTYLE_DIM_LINETYPE
1070
   380
1005
3002
1001
ACAD_DSTYLE_DIM_EXT1_LINETYPE
1070
   381
1005
3002
1001
ACAD_DSTYLE_DIM_EXT2_LINETYPE
1070
   382
1005
3002
  0
DIMSTYLE
105
3053
330
2FAA
100
AcDbSymbolTableRecord
100
AcDbDimStyleTableRecord
  2
AM_ANSI$4
 70
     0
  4
mm
 41
0.12
 42
0.05
 43
0.5
 44
0.1
 47
0.1
 48
0.1
 78
     7
 79
     2
140
0.12
141
0.0
146
0.71
147
0.06
176
   256
177
   256
178
     2
274
     4
284
     7
340
2FFD
371
    -1
372
    -1
1001
ACAD_DSTYLE_DIMARC_LENGTH_SYMBOL
1070
   379
1070
     1
1001
ACAD_DSTYLE_DIM_LINETYPE
1070
   380
1005
3002
1001
ACAD_DSTYLE_DIM_EXT1_LINETYPE
1070
   381
1005
3002
1001
ACAD_DSTYLE_DIM_EXT2_LINETYPE
1070
   382
1005
3002
  0
DIMSTYLE
105
3054
330
2FAA
100
AcDbSymbolTableRecord
100
AcDbDimStyleTableRecord
  2
AM_ANSI$7
 70
     0
  4
mm
 41
0.12
 42
0.05
 43
0.5
 44
0.1
 47
0.1
 48
0.1
 78
     7
 79
     2
140
0.12
141
0.0
146
0.71
147
0.06
176
   256
177
   256
178
     2
274
     4
284
     7
340
2FFD
371
    -1
372
    -1
1001
ACAD_DSTYLE_DIMARC_LENGTH_SYMBOL
1070
   379
1070
     1
1001
ACAD_DSTYLE_DIM_LINETYPE
1070
   380
1005
3002
1001
ACAD_DSTYLE_DIM_EXT1_LINETYPE
1070
   381
1005
3002
1001
ACAD_DSTYLE_DIM_EXT2_LINETYPE
1070
   382
1005
3002
  0
DIMSTYLE
105
3055
330
2FAA
100
AcDbSymbolTableRecord
100
AcDbDimStyleTableRecord
  2
AM_ANSI$SF
 70
     0
  4
mm
 41
0.12
 42
0.05
 43
0.5
 44
0.1
 47
0.1
 48
0.1
 75
     1
 76
     1
 78
     7
 79
     2
140
0.12
141
0.0
146
0.71
147
0.06
176
   256
177
   256
178
     2
274
     4
284
     7
340
2FFD
371
    -1
372
    -1
1001
ACAD_DSTYLE_DIMARC_LENGTH_SYMBOL
1070
   379
1070
     1
1001
ACAD_DSTYLE_DIM_LINETYPE
1070
   380
1005
3002
1001
ACAD_DSTYLE_DIM_EXT1_LINETYPE
1070
   381
1005
3002
1001
ACAD_DSTYLE_DIM_EXT2_LINETYPE
1070
   382
1005
3002
  0
DIMSTYLE
105
3056
330
2FAA
100
AcDbSymbolTableRecord
100
AcDbDimStyleTableRecord
  2
AM_ANSI$SH
 70
     0
  4
mm
 41
0.12
 42
0.05
 43
0.5
 44
0.1
 47
0.1
 48
0.1
 75
     1
 76
     1
 78
     7
 79
     2
140
0.12
141
0.0
146
0.71
147
0.06
173
     1
176
   256
177
   256
178
     2
274
     4
284
     7
340
2FFD
343
3076
371
    -1
372
    -1
1001
ACAD_DSTYLE_DIMARC_LENGTH_SYMBOL
1070
   379
1070
     1
1001
ACAD_DSTYLE_DIM_LINETYPE
1070
   380
1005
3002
1001
ACAD_DSTYLE_DIM_EXT1_LINETYPE
1070
   381
1005
3002
1001
ACAD_DSTYLE_DIM_EXT2_LINETYPE
1070
   382
1005
3002
  0
DIMSTYLE
105
3057
330
2FAA
100
AcDbSymbolTableRecord
100
AcDbDimStyleTableRecord
  2
STANDARD1
 70
     0
 40
6.0
 41
2.5
 42
0.625
 43
6.0
 44
1.25
 47
1.0
 48
0.5
 77
     1
 78
     8
140
2.5
141
0.0
146
0.6
147
1.0
173
     1
275
     1
279
     2
284
     7
285
     7
286
     7
340
2FFD
  0
DIMSTYLE
105
3058
330
2FAA
100
AcDbSymbolTableRecord
100
AcDbDimStyleTableRecord
  2
STANDARD$0
 70
     0
 41
12.0
 42
20.0
 44
20.0
 73
     0
 74
     0
 77
     1
 78
     8
140
64.0
141
0.0
147
10.0
275
     1
279
     2
284
     7
285
     7
286
     7
340
2FFD
  0
ENDTAB
  0
TABLE
  2
BLOCK_RECORD
  5
2FA1
330
0
100
AcDbSymbolTable
 70
    73
  0
BLOCK_RECORD
  5
3014
102
{ACAD_XDICTIONARY
360
31E1
102
}
330
2FA1
100
AcDbSymbolTableRecord
100
AcDbBlockTableRecord
  2
*Model_Space
340
3017
  0
BLOCK_RECORD
  5
3010
330
2FA1
100
AcDbSymbolTableRecord
100
AcDbBlockTableRecord
  2
*Paper_Space
340
3013
  0
BLOCK_RECORD
  5
3060
330
2FA1
100
AcDbSymbolTableRecord
100
AcDbBlockTableRecord
  2
$MODEL_SPACE
340
0
  0
BLOCK_RECORD
  5
3062
330
2FA1
100
AcDbSymbolTableRecord
100
AcDbBlockTableRecord
  2
$PAPER_SPACE
340
0
  0
BLOCK_RECORD
  5
3064
330
2FA1
100
AcDbSymbolTableRecord
100
AcDbBlockTableRecord
  2
_ORIGIN
340
0
  0
BLOCK_RECORD
  5
3066
330
2FA1
100
AcDbSymbolTableRecord
100
AcDbBlockTableRecord
  2
_DOTBLANK
340
0
102
{BLKREFS
331
1299
331
129A
331
11AA
331
11AB
331
E80
331
E81
331
1123
331
1124
331
11C2
331
11C3
331
11EC
331
11ED
331
11F9
331
11FA
331
1287
331
1288
331
1417
331
1418
331
1423
331
1424
331
142F
331
1430
331
143B
331
143C
331
166E
331
166F
331
1677
331
1678
331
1680
331
1681
331
1689
331
168A
331
1696
331
1697
331
16A3
331
16A4
331
16AF
331
16B0
331
16BB
331
16BC
331
16C7
331
16C8
331
16D3
331
16D4
331
1D86
331
1D87
331
1D8F
331
1D90
331
1D98
331
1D99
331
1DA1
331
1DA2
331
1DAB
331
1DAC
331
1DB5
331
1DB6
331
2A7A
331
2A7B
331
2A7F
331
2A80
331
2A84
331
2A85
331
2A89
331
2A8A
102
}
  0
BLOCK_RECORD
  5
3068
330
2FA1
100
AcDbSymbolTableRecord
100
AcDbBlockTableRecord
  2
_OPEN30
340
0
102
{BLKREFS
331
2088
331
25A0
331
288C
102
}
  0
BLOCK_RECORD
  5
306A
330
2FA1
100
AcDbSymbolTableRecord
100
AcDbBlockTableRecord
  2
*D5
340
0
  0
BLOCK_RECORD
  5
306C
330
2FA1
100
AcDbSymbolTableRecord
100
AcDbBlockTableRecord
  2
*U6
340
0
102
{BLKREFS
331
129B
102
}
  0
BLOCK_RECORD
  5
306E
330
2FA1
100
AcDbSymbolTableRecord
100
AcDbBlockTableRecord
  2
*D7
340
0
  0
BLOCK_RECORD
  5
3070
330
2FA1
100
AcDbSymbolTableRecord
100
AcDbBlockTableRecord
  2
*U8
340
0
102
{BLKREFS
331
11AC
102
}
  0
BLOCK_RECORD
  5
3072
330
2FA1
100
AcDbSymbolTableRecord
100
AcDbBlockTableRecord
  2
*D9
340
0
  0
BLOCK_RECORD
  5
3074
330
2FA1
100
AcDbSymbolTableRecord
100
AcDbBlockTableRecord
  2
*U10
340
0
102
{BLKREFS
331
E82
102
}
  0
BLOCK_RECORD
  5
3076
330
2FA1
100
AcDbSymbolTableRecord
100
AcDbBlockTableRecord
  2
GENAXEH
340
0
  0
BLOCK_RECORD
  5
3078
330
2FA1
100
AcDbSymbolTableRecord
100
AcDbBlockTableRecord
  2
*D12
340
0
  0
BLOCK_RECORD
  5
307A
330
2FA1
100
AcDbSymbolTableRecord
100
AcDbBlockTableRecord
  2
*U13
340
0
102
{BLKREFS
331
1125
102
}
  0
BLOCK_RECORD
  5
307C
330
2FA1
100
AcDbSymbolTableRecord
100
AcDbBlockTableRecord
  2
*D14
340
0
  0
BLOCK_RECORD
  5
307E
330
2FA1
100
AcDbSymbolTableRecord
100
AcDbBlockTableRecord
  2
*U15
340
0
102
{BLKREFS
331
11C4
102
}
  0
BLOCK_RECORD
  5
3080
330
2FA1
100
AcDbSymbolTableRecord
100
AcDbBlockTableRecord
  2
*D16
340
0
  0
BLOCK_RECORD
  5
3082
330
2FA1
100
AcDbSymbolTableRecord
100
AcDbBlockTableRecord
  2
*U17
340
0
102
{BLKREFS
331
11EE
102
}
  0
BLOCK_RECORD
  5
3084
330
2FA1
100
AcDbSymbolTableRecord
100
AcDbBlockTableRecord
  2
*D18
340
0
  0
BLOCK_RECORD
  5
3086
330
2FA1
100
AcDbSymbolTableRecord
100
AcDbBlockTableRecord
  2
*U19
340
0
102
{BLKREFS
331
11FB
102
}
  0
BLOCK_RECORD
  5
3088
330
2FA1
100
AcDbSymbolTableRecord
100
AcDbBlockTableRecord
  2
*D20
340
0
  0
BLOCK_RECORD
  5
308A
330
2FA1
100
AcDbSymbolTableRecord
100
AcDbBlockTableRecord
  2
*U21
340
0
102
{BLKREFS
331
1289
102
}
  0
BLOCK_RECORD
  5
308C
330
2FA1
100
AcDbSymbolTableRecord
100
AcDbBlockTableRecord
  2
*D22
340
0
  0
BLOCK_RECORD
  5
308E
330
2FA1
100
AcDbSymbolTableRecord
100
AcDbBlockTableRecord
  2
*U23
340
0
102
{BLKREFS
331
1419
102
}
  0
BLOCK_RECORD
  5
3090
330
2FA1
100
AcDbSymbolTableRecord
100
AcDbBlockTableRecord
  2
*D24
340
0
  0
BLOCK_RECORD
  5
3092
330
2FA1
100
AcDbSymbolTableRecord
100
AcDbBlockTableRecord
  2
*U25
340
0
102
{BLKREFS
331
1425
102
}
  0
BLOCK_RECORD
  5
3094
330
2FA1
100
AcDbSymbolTableRecord
100
AcDbBlockTableRecord
  2
*D26
340
0
  0
BLOCK_RECORD
  5
3096
330
2FA1
100
AcDbSymbolTableRecord
100
AcDbBlockTableRecord
  2
*U27
340
0
102
{BLKREFS
331
1431
102
}
  0
BLOCK_RECORD
  5
3098
330
2FA1
100
AcDbSymbolTableRecord
100
AcDbBlockTableRecord
  2
*D28
340
0
  0
BLOCK_RECORD
  5
309A
330
2FA1
100
AcDbSymbolTableRecord
100
AcDbBlockTableRecord
  2
*U29
340
0
102
{BLKREFS
331
143D
102
}
  0
BLOCK_RECORD
  5
309C
330
2FA1
100
AcDbSymbolTableRecord
100
AcDbBlockTableRecord
  2
*D30
340
0
  0
BLOCK_RECORD
  5
309E
330
2FA1
100
AcDbSymbolTableRecord
100
AcDbBlockTableRecord
  2
*U31
340
0
102
{BLKREFS
331
1670
102
}
  0
BLOCK_RECORD
  5
30A0
330
2FA1
100
AcDbSymbolTableRecord
100
AcDbBlockTableRecord
  2
*D32
340
0
  0
BLOCK_RECORD
  5
30A2
330
2FA1
100
AcDbSymbolTableRecord
100
AcDbBlockTableRecord
  2
*U33
340
0
102
{BLKREFS
331
1679
102
}
  0
BLOCK_RECORD
  5
30A4
330
2FA1
100
AcDbSymbolTableRecord
100
AcDbBlockTableRecord
  2
*D34
340
0
  0
BLOCK_RECORD
  5
30A6
330
2FA1
100
AcDbSymbolTableRecord
100
AcDbBlockTableRecord
  2
*U35
340
0
102
{BLKREFS
331
1682
102
}
  0
BLOCK_RECORD
  5
30A8
330
2FA1
100
AcDbSymbolTableRecord
100
AcDbBlockTableRecord
  2
*D36
340
0
  0
BLOCK_RECORD
  5
30AA
330
2FA1
100
AcDbSymbolTableRecord
100
AcDbBlockTableRecord
  2
*U37
340
0
102
{BLKREFS
331
168B
102
}
  0
BLOCK_RECORD
  5
30AC
330
2FA1
100
AcDbSymbolTableRecord
100
AcDbBlockTableRecord
  2
*U38
340
0
  0
BLOCK_RECORD
  5
30AE
330
2FA1
100
AcDbSymbolTableRecord
100
AcDbBlockTableRecord
  2
*D39
340
0
  0
BLOCK_RECORD
  5
30B0
330
2FA1
100
AcDbSymbolTableRecord
100
AcDbBlockTableRecord
  2
*U40
340
0
102
{BLKREFS
331
1698
102
}
  0
BLOCK_RECORD
  5
30B2
330
2FA1
100
AcDbSymbolTableRecord
100
AcDbBlockTableRecord
  2
*D41
340
0
  0
BLOCK_RECORD
  5
30B4
330
2FA1
100
AcDbSymbolTableRecord
100
AcDbBlockTableRecord
  2
*U42
340
0
102
{BLKREFS
331
16A5
102
}
  0
BLOCK_RECORD
  5
30B6
330
2FA1
100
AcDbSymbolTableRecord
100
AcDbBlockTableRecord
  2
*D43
340
0
  0
BLOCK_RECORD
  5
30B8
330
2FA1
100
AcDbSymbolTableRecord
100
AcDbBlockTableRecord
  2
*U44
340
0
102
{BLKREFS
331
16B1
102
}
  0
BLOCK_RECORD
  5
30BA
330
2FA1
100
AcDbSymbolTableRecord
100
AcDbBlockTableRecord
  2
*D45
340
0
  0
BLOCK_RECORD
  5
30BC
330
2FA1
100
AcDbSymbolTableRecord
100
AcDbBlockTableRecord
  2
*U46
340
0
102
{BLKREFS
331
16BD
102
}
  0
BLOCK_RECORD
  5
30BE
330
2FA1
100
AcDbSymbolTableRecord
100
AcDbBlockTableRecord
  2
*D47
340
0
  0
BLOCK_RECORD
  5
30C0
330
2FA1
100
AcDbSymbolTableRecord
100
AcDbBlockTableRecord
  2
*U48
340
0
102
{BLKREFS
331
16C9
102
}
  0
BLOCK_RECORD
  5
30C2
330
2FA1
100
AcDbSymbolTableRecord
100
AcDbBlockTableRecord
  2
*D49
340
0
  0
BLOCK_RECORD
  5
30C4
330
2FA1
100
AcDbSymbolTableRecord
100
AcDbBlockTableRecord
  2
*U50
340
0
102
{BLKREFS
331
16D5
102
}
  0
BLOCK_RECORD
  5
30C6
330
2FA1
100
AcDbSymbolTableRecord
100
AcDbBlockTableRecord
  2
*D51
340
0
  0
BLOCK_RECORD
  5
30C8
330
2FA1
100
AcDbSymbolTableRecord
100
AcDbBlockTableRecord
  2
*U52
340
0
102
{BLKREFS
331
1D88
102
}
  0
BLOCK_RECORD
  5
30CA
330
2FA1
100
AcDbSymbolTableRecord
100
AcDbBlockTableRecord
  2
*D53
340
0
  0
BLOCK_RECORD
  5
30CC
330
2FA1
100
AcDbSymbolTableRecord
100
AcDbBlockTableRecord
  2
*U54
340
0
102
{BLKREFS
331
1D91
102
}
  0
BLOCK_RECORD
  5
30CE
330
2FA1
100
AcDbSymbolTableRecord
100
AcDbBlockTableRecord
  2
*D55
340
0
  0
BLOCK_RECORD
  5
30D0
330
2FA1
100
AcDbSymbolTableRecord
100
AcDbBlockTableRecord
  2
*U56
340
0
102
{BLKREFS
331
1D9A
102
}
  0
BLOCK_RECORD
  5
30D2
330
2FA1
100
AcDbSymbolTableRecord
100
AcDbBlockTableRecord
  2
*D57
340
0
  0
BLOCK_RECORD
  5
30D4
330
2FA1
100
AcDbSymbolTableRecord
100
AcDbBlockTableRecord
  2
*U58
340
0
102
{BLKREFS
331
1DA3
102
}
  0
BLOCK_RECORD
  5
30D6
330
2FA1
100
AcDbSymbolTableRecord
100
AcDbBlockTableRecord
  2
*D59
340
0
  0
BLOCK_RECORD
  5
30D8
330
2FA1
100
AcDbSymbolTableRecord
100
AcDbBlockTableRecord
  2
*U60
340
0
102
{BLKREFS
331
1DAD
102
}
  0
BLOCK_RECORD
  5
30DA
330
2FA1
100
AcDbSymbolTableRecord
100
AcDbBlockTableRecord
  2
*D61
340
0
  0
BLOCK_RECORD
  5
30DC
330
2FA1
100
AcDbSymbolTableRecord
100
AcDbBlockTableRecord
  2
*U62
340
0
102
{BLKREFS
331
1DB7
102
}
  0
BLOCK_RECORD
  5
30DE
330
2FA1
100
AcDbSymbolTableRecord
100
AcDbBlockTableRecord
  2
*U63
340
0
  0
BLOCK_RECORD
  5
30E0
330
2FA1
100
AcDbSymbolTableRecord
100
AcDbBlockTableRecord
  2
*U64
340
0
  0
BLOCK_RECORD
  5
30E2
330
2FA1
100
AcDbSymbolTableRecord
100
AcDbBlockTableRecord
  2
*U65
340
0
  0
BLOCK_RECORD
  5
30E4
330
2FA1
100
AcDbSymbolTableRecord
100
AcDbBlockTableRecord
  2
*U66
340
0
  0
BLOCK_RECORD
  5
30E6
330
2FA1
100
AcDbSymbolTableRecord
100
AcDbBlockTableRecord
  2
*U67
340
0
  0
BLOCK_RECORD
  5
30E8
330
2FA1
100
AcDbSymbolTableRecord
100
AcDbBlockTableRecord
  2
*U68
340
0
102
{BLKREFS
331
2A60
102
}
  0
BLOCK_RECORD
  5
30EA
330
2FA1
100
AcDbSymbolTableRecord
100
AcDbBlockTableRecord
  2
*U69
340
0
102
{BLKREFS
331
2A61
102
}
  0
BLOCK_RECORD
  5
30EC
330
2FA1
100
AcDbSymbolTableRecord
100
AcDbBlockTableRecord
  2
*X70
340
0
102
{BLKREFS
331
2A75
102
}
  0
BLOCK_RECORD
  5
30EE
330
2FA1
100
AcDbSymbolTableRecord
100
AcDbBlockTableRecord
  2
*X71
340
0
102
{BLKREFS
331
2A76
102
}
  0
ENDTAB
  0
ENDSEC
  0
SECTION
  2
BLOCKS
  0
BLOCK
  5
3015
330
3014
100
AcDbEntity
  8
0
100
AcDbBlockBegin
  2
*Model_Space
 70
     0
 10
0.0
 20
0.0
 30
0.0
  3
*Model_Space
  1

  0
ENDBLK
  5
3016
330
3014
100
AcDbEntity
  8
0
100
AcDbBlockEnd
  0
BLOCK
  5
3011
330
3010
100
AcDbEntity
 67
     1
  8
0
100
AcDbBlockBegin
  2
*Paper_Space
 70
     0
 10
0.0
 20
0.0
 30
0.0
  3
*Paper_Space
  1

  0
ENDBLK
  5
3012
330
3010
100
AcDbEntity
 67
     1
  8
0
100
AcDbBlockEnd
  0
BLOCK
  5
3061
330
3060
100
AcDbEntity
  8
0
100
AcDbBlockBegin
  2
$MODEL_SPACE
 70
     0
 10
0.0
 20
0.0
 30
0.0
  3
$MODEL_SPACE
  1

  0
ENDBLK
  5
2DAA
330
3060
100
AcDbEntity
  8
0
100
AcDbBlockEnd
  0
BLOCK
  5
3063
330
3062
100
AcDbEntity
  8
0
100
AcDbBlockBegin
  2
$PAPER_SPACE
 70
     0
 10
0.0
 20
0.0
 30
0.0
  3
$PAPER_SPACE
  1

  0
ENDBLK
  5
2DA6
330
3062
100
AcDbEntity
  8
0
100
AcDbBlockEnd
  0
BLOCK
  5
3065
330
3064
100
AcDbEntity
  8
0
100
AcDbBlockBegin
  2
_ORIGIN
 70
     0
 10
0.0
 20
0.0
 30
0.0
  3
_ORIGIN
  1

  0
CIRCLE
  5
880
330
3064
100
AcDbEntity
  8
0
  6
Continuous
 62
     7
100
AcDbCircle
 10
0.0
 20
0.0
 30
0.0
 40
0.5
  0
LINE
  5
881
330
3064
100
AcDbEntity
  8
0
  6
Continuous
 62
     7
100
AcDbLine
 10
0.0
 20
0.0
 30
0.0
 11
-1.0
 21
0.0
 31
0.0
  0
ENDBLK
  5
882
330
3064
100
AcDbEntity
  8
0
100
AcDbBlockEnd
  0
BLOCK
  5
3067
330
3066
100
AcDbEntity
  8
0
 62
     1
100
AcDbBlockBegin
  2
_DOTBLANK
 70
     0
 10
0.0
 20
0.0
 30
0.0
  3
_DOTBLANK
  1

  0
CIRCLE
  5
AB3
330
3066
100
AcDbEntity
  8
0
  6
ByBlock
 62
     0
100
AcDbCircle
 10
0.0
 20
0.0
 30
0.0
 40
0.5
  0
LINE
  5
AB4
330
3066
100
AcDbEntity
  8
0
  6
ByBlock
 62
     0
100
AcDbLine
 10
-0.5
 20
0.0
 30
0.0
 11
-1.0
 21
0.0
 31
0.0
  0
ENDBLK
  5
AB6
330
3066
100
AcDbEntity
  8
0
 62
     1
100
AcDbBlockEnd
  0
BLOCK
  5
3069
330
3068
100
AcDbEntity
  8
0
 62
     1
100
AcDbBlockBegin
  2
_OPEN30
 70
     0
 10
0.0
 20
0.0
 30
0.0
  3
_OPEN30
  1

  0
LINE
  5
AB8
330
3068
100
AcDbEntity
  8
0
  6
ByBlock
 62
     0
100
AcDbLine
 10
-1.0
 20
0.26794919
 30
0.0
 11
0.0
 21
0.0
 31
0.0
  0
LINE
  5
AB9
330
3068
100
AcDbEntity
  8
0
  6
ByBlock
 62
     0
100
AcDbLine
 10
0.0
 20
0.0
 30
0.0
 11
-1.0
 21
-0.26794919
 31
0.0
  0
LINE
  5
ABA
330
3068
100
AcDbEntity
  8
0
  6
ByBlock
 62
     0
100
AcDbLine
 10
0.0
 20
0.0
 30
0.0
 11
-1.0
 21
0.0
 31
0.0
  0
ENDBLK
  5
ABC
330
3068
100
AcDbEntity
  8
0
 62
     1
100
AcDbBlockEnd
  0
BLOCK
  5
306B
330
306A
100
AcDbEntity
  8
0
100
AcDbBlockBegin
  2
*D5
 70
     1
 10
0.0
 20
0.0
 30
0.0
  3
*D5
  1

  0
LINE
  5
1296
330
306A
100
AcDbEntity
  8
SIZE
 62
     0
100
AcDbLine
 10
-134.5
 20
-320.0
 30
0.0
 11
-134.5
 21
-468.0173952306001
 31
0.0
  0
LINE
  5
1297
330
306A
100
AcDbEntity
  8
SIZE
 62
     0
100
AcDbLine
 10
134.5
 20
-320.0
 30
0.0
 11
134.5
 21
-468.0173952306001
 31
0.0
  0
LINE
  5
1298
330
306A
100
AcDbEntity
  8
SIZE
 62
     0
100
AcDbLine
 10
-122.5
 20
-448.0173952306
 30
0.0
 11
122.5
 21
-448.0173952306
 31
0.0
  0
INSERT
  5
1299
330
306A
100
AcDbEntity
  8
SIZE
 62
     0
100
AcDbBlockReference
  2
_DOTBLANK
 10
-134.5
 20
-448.0173952306
 30
0.0
 41
12.0
 42
12.0
 43
12.0
 50
180.0
  0
INSERT
  5
129A
330
306A
100
AcDbEntity
  8
SIZE
 62
     0
100
AcDbBlockReference
  2
_DOTBLANK
 10
134.5
 20
-448.0173952306
 30
0.0
 41
12.0
 42
12.0
 43
12.0
  0
INSERT
  5
129B
330
306A
100
AcDbEntity
  8
0
100
AcDbBlockReference
  2
*U6
 10
0.0
 20
0.0
 30
0.0
  0
POINT
  5
129C
330
306A
100
AcDbEntity
  8
DEFPOINTS
 62
     0
100
AcDbPoint
 10
-134.5
 20
-300.0
 30
0.0
  0
POINT
  5
129D
330
306A
100
AcDbEntity
  8
DEFPOINTS
 62
     0
100
AcDbPoint
 10
134.5
 20
-300.0
 30
0.0
  0
POINT
  5
129E
330
306A
100
AcDbEntity
  8
DEFPOINTS
 62
     0
100
AcDbPoint
 10
134.5
 20
-448.0173952306
 30
0.0
  0
ENDBLK
  5
D72
330
306A
100
AcDbEntity
  8
0
100
AcDbBlockEnd
  0
BLOCK
  5
306D
330
306C
100
AcDbEntity
  8
0
100
AcDbBlockBegin
  2
*U6
 70
     1
 10
0.0
 20
0.0
 30
0.0
  3
*U6
  1

  0
TEXT
  5
1EF5
330
306C
100
AcDbEntity
  8
SIZE
 62
     0
100
AcDbText
 10
-72.68571428571426
 20
-438.0173952305999
 30
0.0
 40
64.0
  1
269
 41
0.9
100
AcDbText
  0
ENDBLK
  5
1EF7
330
306C
100
AcDbEntity
  8
0
100
AcDbBlockEnd
  0
BLOCK
  5
306F
330
306E
100
AcDbEntity
  8
0
100
AcDbBlockBegin
  2
*D7
 70
     1
 10
0.0
 20
0.0
 30
0.0
  3
*D7
  1

  0
LINE
  5
11A7
330
306E
100
AcDbEntity
  8
SIZE
  6
Continuous
 62
     0
100
AcDbLine
 10
143.5
 20
-300.0
 30
0.0
 11
304.6432844803791
 21
-300.0
 31
0.0
  0
LINE
  5
11A8
330
306E
100
AcDbEntity
  8
SIZE
  6
Continuous
 62
     0
100
AcDbLine
 10
177.5
 20
-0.0000000000000057
 30
0.0
 11
304.6432844803792
 21
-0.0000000000000417
 31
0.0
  0
LINE
  5
11A9
330
306E
100
AcDbEntity
  8
SIZE
  6
Continuous
 62
     0
100
AcDbLine
 10
284.6432844803791
 20
-288.0000000000001
 30
0.0
 11
284.6432844803792
 21
-12.00000000000003
 31
0.0
  0
INSERT
  5
11AA
330
306E
100
AcDbEntity
  8
SIZE
  6
Continuous
 62
     0
100
AcDbBlockReference
  2
_DOTBLANK
 10
284.6432844803791
 20
-300.0
 30
0.0
 41
12.0
 42
12.0
 43
12.0
 50
270.0
  0
INSERT
  5
11AB
330
306E
100
AcDbEntity
  8
SIZE
  6
Continuous
 62
     0
100
AcDbBlockReference
  2
_DOTBLANK
 10
284.6432844803792
 20
-0.000000000000036
 30
0.0
 41
12.0
 42
12.0
 43
12.0
 50
90.0
  0
INSERT
  5
11AC
330
306E
100
AcDbEntity
  8
0
100
AcDbBlockReference
  2
*U8
 10
0.0
 20
0.0
 30
0.0
  0
POINT
  5
11AD
330
306E
100
AcDbEntity
  8
DEFPOINTS
  6
Continuous
 62
     0
100
AcDbPoint
 10
123.5
 20
-300.0
 30
0.0
  0
POINT
  5
11AE
330
306E
100
AcDbEntity
  8
DEFPOINTS
  6
Continuous
 62
     0
100
AcDbPoint
 10
157.5
 20
0.0
 30
0.0
  0
POINT
  5
11AF
330
306E
100
AcDbEntity
  8
DEFPOINTS
  6
Continuous
 62
     0
100
AcDbPoint
 10
284.6432844803792
 20
-0.000000000000036
 30
0.0
  0
ENDBLK
  5
E11
330
306E
100
AcDbEntity
  8
0
100
AcDbBlockEnd
  0
BLOCK
  5
3071
330
3070
100
AcDbEntity
  8
0
100
AcDbBlockBegin
  2
*U8
 70
     1
 10
0.0
 20
0.0
 30
0.0
  3
*U8
  1

  0
TEXT
  5
1EE1
330
3070
100
AcDbEntity
  8
SIZE
 62
     0
100
AcDbText
 10
274.6432844803792
 20
-224.0571428571429
 30
0.0
 40
64.0
  1
300
 50
90.0
 41
0.9
100
AcDbText
  0
ENDBLK
  5
1EE3
330
3070
100
AcDbEntity
  8
0
100
AcDbBlockEnd
  0
BLOCK
  5
3073
330
3072
100
AcDbEntity
  8
0
100
AcDbBlockBegin
  2
*D9
 70
     1
 10
0.0
 20
0.0
 30
0.0
  3
*D9
  1

  0
LINE
  5
E7D
330
3072
100
AcDbEntity
  8
SIZE
 62
     0
100
AcDbLine
 10
-139.9999999999998
 20
32.46448280219375
 30
0.0
 11
-139.9999999999998
 21
136.4516878685508
 31
0.0
  0
LINE
  5
E7E
330
3072
100
AcDbEntity
  8
SIZE
 62
     0
100
AcDbLine
 10
140.0
 20
32.46448280219375
 30
0.0
 11
140.0
 21
136.4516878685508
 31
0.0
  0
LINE
  5
E7F
330
3072
100
AcDbEntity
  8
SIZE
 62
     0
100
AcDbLine
 10
-128.0
 20
116.4516878685508
 30
0.0
 11
128.0
 21
116.4516878685508
 31
0.0
  0
INSERT
  5
E80
330
3072
100
AcDbEntity
  8
SIZE
 62
     0
100
AcDbBlockReference
  2
_DOTBLANK
 10
-139.9999999999998
 20
116.4516878685508
 30
0.0
 41
12.0
 42
12.0
 43
12.0
 50
180.0
  0
INSERT
  5
E81
330
3072
100
AcDbEntity
  8
SIZE
 62
     0
100
AcDbBlockReference
  2
_DOTBLANK
 10
140.0
 20
116.4516878685508
 30
0.0
 41
12.0
 42
12.0
 43
12.0
  0
INSERT
  5
E82
330
3072
100
AcDbEntity
  8
0
100
AcDbBlockReference
  2
*U10
 10
0.0
 20
0.0
 30
0.0
  0
POINT
  5
E83
330
3072
100
AcDbEntity
  8
DEFPOINTS
 62
     0
100
AcDbPoint
 10
-139.9999999999998
 20
12.46448280219374
 30
0.0
  0
POINT
  5
E84
330
3072
100
AcDbEntity
  8
DEFPOINTS
 62
     0
100
AcDbPoint
 10
140.0
 20
12.46448280219374
 30
0.0
  0
POINT
  5
E85
330
3072
100
AcDbEntity
  8
DEFPOINTS
 62
     0
100
AcDbPoint
 10
140.0
 20
116.4516878685508
 30
0.0
  0
ENDBLK
  5
E7C
330
3072
100
AcDbEntity
  8
0
100
AcDbBlockEnd
  0
BLOCK
  5
3075
330
3074
100
AcDbEntity
  8
0
100
AcDbBlockBegin
  2
*U10
 70
     1
 10
0.0
 20
0.0
 30
0.0
  3
*U10
  1

  0
TEXT
  5
1ED8
330
3074
100
AcDbEntity
  8
SIZE
 62
     0
100
AcDbText
 10
-74.05714285714281
 20
126.4516878685508
 30
0.0
 40
64.0
  1
280
 41
0.9
100
AcDbText
  0
ENDBLK
  5
1EDA
330
3074
100
AcDbEntity
  8
0
100
AcDbBlockEnd
  0
BLOCK
  5
3077
330
3076
100
AcDbEntity
  8
0
100
AcDbBlockBegin
  2
GENAXEH
 70
     0
 10
0.0
 20
0.0
 30
0.0
  3
GENAXEH
  1

  0
LINE
  5
FDB
330
3076
100
AcDbEntity
  8
0
100
AcDbLine
 10
-1.0
 20
0.0
 30
0.0
 11
1.0
 21
0.0
 31
0.0
  0
ENDBLK
  5
FDD
330
3076
100
AcDbEntity
  8
0
100
AcDbBlockEnd
  0
BLOCK
  5
3079
330
3078
100
AcDbEntity
  8
0
100
AcDbBlockBegin
  2
*D12
 70
     1
 10
0.0
 20
0.0
 30
0.0
  3
*D12
  1

  0
LINE
  5
1120
330
3078
100
AcDbEntity
  8
SIZE
 62
     0
100
AcDbLine
 10
-157.5
 20
20.0
 30
0.0
 11
-157.5
 21
245.5794621189598
 31
0.0
  0
LINE
  5
1121
330
3078
100
AcDbEntity
  8
SIZE
 62
     0
100
AcDbLine
 10
157.5
 20
20.0
 30
0.0
 11
157.5
 21
245.5794621189598
 31
0.0
  0
LINE
  5
1122
330
3078
100
AcDbEntity
  8
SIZE
 62
     0
100
AcDbLine
 10
-145.5
 20
225.5794621189598
 30
0.0
 11
145.5
 21
225.5794621189598
 31
0.0
  0
INSERT
  5
1123
330
3078
100
AcDbEntity
  8
SIZE
 62
     0
100
AcDbBlockReference
  2
_DOTBLANK
 10
-157.5
 20
225.5794621189598
 30
0.0
 41
12.0
 42
12.0
 43
12.0
 50
180.0
  0
INSERT
  5
1124
330
3078
100
AcDbEntity
  8
SIZE
 62
     0
100
AcDbBlockReference
  2
_DOTBLANK
 10
157.5
 20
225.5794621189598
 30
0.0
 41
12.0
 42
12.0
 43
12.0
  0
INSERT
  5
1125
330
3078
100
AcDbEntity
  8
0
100
AcDbBlockReference
  2
*U13
 10
0.0
 20
0.0
 30
0.0
  0
POINT
  5
1126
330
3078
100
AcDbEntity
  8
DEFPOINTS
 62
     0
100
AcDbPoint
 10
-157.5
 20
0.0
 30
0.0
  0
POINT
  5
1127
330
3078
100
AcDbEntity
  8
DEFPOINTS
 62
     0
100
AcDbPoint
 10
157.5
 20
0.0
 30
0.0
  0
POINT
  5
1128
330
3078
100
AcDbEntity
  8
DEFPOINTS
 62
     0
100
AcDbPoint
 10
157.5
 20
225.5794621189598
 30
0.0
  0
ENDBLK
  5
111F
330
3078
100
AcDbEntity
  8
0
100
AcDbBlockEnd
  0
BLOCK
  5
307B
330
307A
100
AcDbEntity
  8
0
100
AcDbBlockBegin
  2
*U13
 70
     1
 10
0.0
 20
0.0
 30
0.0
  3
*U13
  1

  0
TEXT
  5
1EDD
330
307A
100
AcDbEntity
  8
SIZE
 62
     0
100
AcDbText
 10
-68.57142857142857
 20
235.5794621189599
 30
0.0
 40
64.0
  1
315
 41
0.9
100
AcDbText
  0
ENDBLK
  5
1EDF
330
307A
100
AcDbEntity
  8
0
100
AcDbBlockEnd
  0
BLOCK
  5
307D
330
307C
100
AcDbEntity
  8
0
100
AcDbBlockBegin
  2
*D14
 70
     1
 10
0.0
 20
0.0
 30
0.0
  3
*D14
  1

  0
LINE
  5
11BD
330
307C
100
AcDbEntity
  8
NOTE
 62
     0
100
AcDbLine
 10
-123.4999999999999
 20
-320.0
 30
0.0
 11
-123.4999999999999
 21
-354.9529861856111
 31
0.0
  0
LINE
  5
11BE
330
307C
100
AcDbEntity
  8
NOTE
 62
     0
100
AcDbLine
 10
-133.4999999999998
 20
-331.2126909923287
 30
0.0
 11
-133.4999999999998
 21
-354.9529861856111
 31
0.0
  0
LINE
  5
11BF
330
307C
100
AcDbEntity
  8
NOTE
 62
     0
100
AcDbLine
 10
-111.4999999999999
 20
-334.9529861856112
 30
0.0
 11
-99.4999999999999
 21
-334.9529861856112
 31
0.0
  0
LINE
  5
11C0
330
307C
100
AcDbEntity
  8
NOTE
 62
     0
100
AcDbLine
 10
-145.4999999999998
 20
-334.9529861856112
 30
0.0
 11
-157.4999999999998
 21
-334.9529861856112
 31
0.0
  0
LINE
  5
11C1
330
307C
100
AcDbEntity
  8
NOTE
 62
     0
100
AcDbLine
 10
-123.4999999999999
 20
-334.9529861856112
 30
0.0
 11
-133.4999999999998
 21
-334.9529861856112
 31
0.0
  0
INSERT
  5
11C2
330
307C
100
AcDbEntity
  8
NOTE
 62
     0
100
AcDbBlockReference
  2
_DOTBLANK
 10
-123.4999999999999
 20
-334.9529861856112
 30
0.0
 41
12.0
 42
12.0
 43
12.0
 50
180.0
  0
INSERT
  5
11C3
330
307C
100
AcDbEntity
  8
NOTE
 62
     0
100
AcDbBlockReference
  2
_DOTBLANK
 10
-133.4999999999998
 20
-334.9529861856112
 30
0.0
 41
12.0
 42
12.0
 43
12.0
  0
INSERT
  5
11C4
330
307C
100
AcDbEntity
  8
0
100
AcDbBlockReference
  2
*U15
 10
0.0
 20
0.0
 30
0.0
  0
POINT
  5
11C5
330
307C
100
AcDbEntity
  8
DEFPOINTS
 62
     0
100
AcDbPoint
 10
-123.4999999999999
 20
-300.0
 30
0.0
  0
POINT
  5
11C6
330
307C
100
AcDbEntity
  8
DEFPOINTS
 62
     0
100
AcDbPoint
 10
-133.4999999999998
 20
-311.2126909923287
 30
0.0
  0
POINT
  5
11C7
330
307C
100
AcDbEntity
  8
DEFPOINTS
 62
     0
100
AcDbPoint
 10
-133.4999999999998
 20
-334.9529861856112
 30
0.0
  0
ENDBLK
  5
11BC
330
307C
100
AcDbEntity
  8
0
100
AcDbBlockEnd
  0
BLOCK
  5
307F
330
307E
100
AcDbEntity
  8
0
100
AcDbBlockBegin
  2
*U15
 70
     1
 10
0.0
 20
0.0
 30
0.0
  3
*U15
  1

  0
TEXT
  5
1EE5
330
307E
100
AcDbEntity
  8
NOTE
 62
     0
100
AcDbText
 10
-169.642857142857
 20
-324.9529861856112
 30
0.0
 40
64.0
  1
10
 41
0.9
100
AcDbText
  0
ENDBLK
  5
1EE7
330
307E
100
AcDbEntity
  8
0
100
AcDbBlockEnd
  0
BLOCK
  5
3081
330
3080
100
AcDbEntity
  8
0
100
AcDbBlockBegin
  2
*D16
 70
     1
 10
0.0
 20
0.0
 30
0.0
  3
*D16
  1

  0
LINE
  5
11E7
330
3080
100
AcDbEntity
  8
NOTE
 62
     0
100
AcDbLine
 10
-135.5
 20
-333.2126909923287
 30
0.0
 11
-135.5
 21
-386.2569421441843
 31
0.0
  0
LINE
  5
11E8
330
3080
100
AcDbEntity
  8
NOTE
 62
     0
100
AcDbLine
 10
-123.4999999999999
 20
-320.0
 30
0.0
 11
-123.4999999999999
 21
-386.2569421441843
 31
0.0
  0
LINE
  5
11E9
330
3080
100
AcDbEntity
  8
NOTE
 62
     0
100
AcDbLine
 10
-147.5
 20
-366.2569421441844
 30
0.0
 11
-159.5
 21
-366.2569421441844
 31
0.0
  0
LINE
  5
11EA
330
3080
100
AcDbEntity
  8
NOTE
 62
     0
100
AcDbLine
 10
-111.4999999999999
 20
-366.2569421441844
 30
0.0
 11
-99.4999999999999
 21
-366.2569421441844
 31
0.0
  0
LINE
  5
11EB
330
3080
100
AcDbEntity
  8
NOTE
 62
     0
100
AcDbLine
 10
-135.5
 20
-366.2569421441844
 30
0.0
 11
-123.4999999999999
 21
-366.2569421441844
 31
0.0
  0
INSERT
  5
11EC
330
3080
100
AcDbEntity
  8
NOTE
 62
     0
100
AcDbBlockReference
  2
_DOTBLANK
 10
-135.5
 20
-366.2569421441844
 30
0.0
 41
12.0
 42
12.0
 43
12.0
  0
INSERT
  5
11ED
330
3080
100
AcDbEntity
  8
NOTE
 62
     0
100
AcDbBlockReference
  2
_DOTBLANK
 10
-123.4999999999999
 20
-366.2569421441844
 30
0.0
 41
12.0
 42
12.0
 43
12.0
 50
180.0
  0
INSERT
  5
11EE
330
3080
100
AcDbEntity
  8
0
100
AcDbBlockReference
  2
*U17
 10
0.0
 20
0.0
 30
0.0
  0
POINT
  5
11EF
330
3080
100
AcDbEntity
  8
DEFPOINTS
 62
     0
100
AcDbPoint
 10
-135.5
 20
-313.2126909923287
 30
0.0
  0
POINT
  5
11F0
330
3080
100
AcDbEntity
  8
DEFPOINTS
 62
     0
100
AcDbPoint
 10
-123.4999999999999
 20
-300.0
 30
0.0
  0
POINT
  5
11F1
330
3080
100
AcDbEntity
  8
DEFPOINTS
 62
     0
100
AcDbPoint
 10
-123.4999999999999
 20
-366.2569421441844
 30
0.0
  0
ENDBLK
  5
11E6
330
3080
100
AcDbEntity
  8
0
100
AcDbBlockEnd
  0
BLOCK
  5
3083
330
3082
100
AcDbEntity
  8
0
100
AcDbBlockBegin
  2
*U17
 70
     1
 10
0.0
 20
0.0
 30
0.0
  3
*U17
  1

  0
TEXT
  5
1EE9
330
3082
100
AcDbEntity
  8
NOTE
 62
     0
100
AcDbText
 10
-170.642857142857
 20
-356.2569421441843
 30
0.0
 40
64.0
  1
12
 41
0.9
100
AcDbText
  0
ENDBLK
  5
1EEB
330
3082
100
AcDbEntity
  8
0
100
AcDbBlockEnd
  0
BLOCK
  5
3085
330
3084
100
AcDbEntity
  8
0
100
AcDbBlockBegin
  2
*D18
 70
     1
 10
0.0
 20
0.0
 30
0.0
  3
*D18
  1

  0
LINE
  5
11F6
330
3084
100
AcDbEntity
  8
NOTE
 62
     0
100
AcDbLine
 10
-123.4999999999999
 20
-320.0
 30
0.0
 11
-123.4999999999999
 21
-583.8286022818904
 31
0.0
  0
LINE
  5
11F7
330
3084
100
AcDbEntity
  8
NOTE
 62
     0
100
AcDbLine
 10
123.5
 20
-320.0
 30
0.0
 11
123.5
 21
-583.8286022818904
 31
0.0
  0
LINE
  5
11F8
330
3084
100
AcDbEntity
  8
NOTE
 62
     0
100
AcDbLine
 10
-111.4999999999999
 20
-563.8286022818904
 30
0.0
 11
111.5
 21
-563.8286022818904
 31
0.0
  0
INSERT
  5
11F9
330
3084
100
AcDbEntity
  8
NOTE
 62
     0
100
AcDbBlockReference
  2
_DOTBLANK
 10
-123.4999999999999
 20
-563.8286022818904
 30
0.0
 41
12.0
 42
12.0
 43
12.0
 50
180.0
  0
INSERT
  5
11FA
330
3084
100
AcDbEntity
  8
NOTE
 62
     0
100
AcDbBlockReference
  2
_DOTBLANK
 10
123.5
 20
-563.8286022818904
 30
0.0
 41
12.0
 42
12.0
 43
12.0
  0
INSERT
  5
11FB
330
3084
100
AcDbEntity
  8
0
100
AcDbBlockReference
  2
*U19
 10
0.0
 20
0.0
 30
0.0
  0
POINT
  5
11FC
330
3084
100
AcDbEntity
  8
DEFPOINTS
 62
     0
100
AcDbPoint
 10
-123.4999999999999
 20
-300.0
 30
0.0
  0
POINT
  5
11FD
330
3084
100
AcDbEntity
  8
DEFPOINTS
 62
     0
100
AcDbPoint
 10
123.5
 20
-300.0
 30
0.0
  0
POINT
  5
11FE
330
3084
100
AcDbEntity
  8
DEFPOINTS
 62
     0
100
AcDbPoint
 10
123.5
 20
-563.8286022818904
 30
0.0
  0
ENDBLK
  5
11F5
330
3084
100
AcDbEntity
  8
0
100
AcDbBlockEnd
  0
BLOCK
  5
3087
330
3086
100
AcDbEntity
  8
0
100
AcDbBlockBegin
  2
*U19
 70
     1
 10
0.0
 20
0.0
 30
0.0
  3
*U19
  1

  0
TEXT
  5
1EED
330
3086
100
AcDbEntity
  8
NOTE
 62
     0
100
AcDbText
 10
-74.05714285714281
 20
-553.8286022818904
 30
0.0
 40
64.0
  1
247
 41
0.9
100
AcDbText
  0
ENDBLK
  5
1EEF
330
3086
100
AcDbEntity
  8
0
100
AcDbBlockEnd
  0
BLOCK
  5
3089
330
3088
100
AcDbEntity
  8
0
100
AcDbBlockBegin
  2
*D20
 70
     1
 10
0.0
 20
0.0
 30
0.0
  3
*D20
  1

  0
LINE
  5
1284
330
3088
100
AcDbEntity
  8
NOTE
 62
     0
100
AcDbLine
 10
-123.5
 20
12.0
 30
0.0
 11
-123.5
 21
71.83630134534229
 31
0.0
  0
LINE
  5
1285
330
3088
100
AcDbEntity
  8
NOTE
 62
     0
100
AcDbLine
 10
123.5
 20
12.0
 30
0.0
 11
123.5
 21
71.83630134534229
 31
0.0
  0
LINE
  5
1286
330
3088
100
AcDbEntity
  8
NOTE
 62
     0
100
AcDbLine
 10
-111.5
 20
51.83630134534229
 30
0.0
 11
111.5
 21
51.83630134534229
 31
0.0
  0
INSERT
  5
1287
330
3088
100
AcDbEntity
  8
NOTE
 62
     0
100
AcDbBlockReference
  2
_DOTBLANK
 10
-123.5
 20
51.83630134534229
 30
0.0
 41
12.0
 42
12.0
 43
12.0
 50
180.0
  0
INSERT
  5
1288
330
3088
100
AcDbEntity
  8
NOTE
 62
     0
100
AcDbBlockReference
  2
_DOTBLANK
 10
123.5
 20
51.83630134534229
 30
0.0
 41
12.0
 42
12.0
 43
12.0
  0
INSERT
  5
1289
330
3088
100
AcDbEntity
  8
0
100
AcDbBlockReference
  2
*U21
 10
0.0
 20
0.0
 30
0.0
  0
POINT
  5
128A
330
3088
100
AcDbEntity
  8
DEFPOINTS
 62
     0
100
AcDbPoint
 10
-123.5
 20
-8.0
 30
0.0
  0
POINT
  5
128B
330
3088
100
AcDbEntity
  8
DEFPOINTS
 62
     0
100
AcDbPoint
 10
123.5
 20
-8.0
 30
0.0
  0
POINT
  5
128C
330
3088
100
AcDbEntity
  8
DEFPOINTS
 62
     0
100
AcDbPoint
 10
123.5
 20
51.83630134534229
 30
0.0
  0
ENDBLK
  5
1283
330
3088
100
AcDbEntity
  8
0
100
AcDbBlockEnd
  0
BLOCK
  5
308B
330
308A
100
AcDbEntity
  8
0
100
AcDbBlockBegin
  2
*U21
 70
     1
 10
0.0
 20
0.0
 30
0.0
  3
*U21
  1

  0
TEXT
  5
1EF1
330
308A
100
AcDbEntity
  8
NOTE
 62
     0
100
AcDbText
 10
-74.05714285714283
 20
61.83630134534229
 30
0.0
 40
64.0
  1
247
 41
0.9
100
AcDbText
  0
ENDBLK
  5
1EF3
330
308A
100
AcDbEntity
  8
0
100
AcDbBlockEnd
  0
BLOCK
  5
308D
330
308C
100
AcDbEntity
  8
0
100
AcDbBlockBegin
  2
*D22
 70
     1
 10
0.0
 20
0.0
 30
0.0
  3
*D22
  1

  0
LINE
  5
1414
330
308C
100
AcDbEntity
  8
SIZE
 62
     0
100
AcDbLine
 10
-22313.11521613997
 20
7365.702971374808
 30
0.0
 11
-22313.11521613997
 21
7217.685576144207
 31
0.0
  0
LINE
  5
1415
330
308C
100
AcDbEntity
  8
SIZE
 62
     0
100
AcDbLine
 10
-22044.11521613997
 20
7365.702971374808
 30
0.0
 11
-22044.11521613997
 21
7217.685576144207
 31
0.0
  0
LINE
  5
1416
330
308C
100
AcDbEntity
  8
SIZE
 62
     0
100
AcDbLine
 10
-22301.11521613997
 20
7237.685576144207
 30
0.0
 11
-22056.11521613997
 21
7237.685576144207
 31
0.0
  0
INSERT
  5
1417
330
308C
100
AcDbEntity
  8
SIZE
 62
     0
100
AcDbBlockReference
  2
_DOTBLANK
 10
-22313.11521613997
 20
7237.685576144207
 30
0.0
 41
12.0
 42
12.0
 43
12.0
 50
180.0
  0
INSERT
  5
1418
330
308C
100
AcDbEntity
  8
SIZE
 62
     0
100
AcDbBlockReference
  2
_DOTBLANK
 10
-22044.11521613997
 20
7237.685576144207
 30
0.0
 41
12.0
 42
12.0
 43
12.0
  0
INSERT
  5
1419
330
308C
100
AcDbEntity
  8
0
100
AcDbBlockReference
  2
*U23
 10
0.0
 20
0.0
 30
0.0
  0
POINT
  5
141A
330
308C
100
AcDbEntity
  8
DEFPOINTS
 62
     0
100
AcDbPoint
 10
-22313.11521613997
 20
7385.702971374808
 30
0.0
  0
POINT
  5
141B
330
308C
100
AcDbEntity
  8
DEFPOINTS
 62
     0
100
AcDbPoint
 10
-22044.11521613997
 20
7385.702971374808
 30
0.0
  0
POINT
  5
141C
330
308C
100
AcDbEntity
  8
DEFPOINTS
 62
     0
100
AcDbPoint
 10
-22044.11521613997
 20
7237.685576144207
 30
0.0
  0
ENDBLK
  5
141D
330
308C
100
AcDbEntity
  8
0
100
AcDbBlockEnd
  0
BLOCK
  5
308F
330
308E
100
AcDbEntity
  8
0
100
AcDbBlockBegin
  2
*U23
 70
     1
 10
0.0
 20
0.0
 30
0.0
  3
*U23
  1

  0
TEXT
  5
1EF9
330
308E
100
AcDbEntity
  8
SIZE
 62
     0
100
AcDbText
 10
-22251.30093042568
 20
7247.685576144205
 30
0.0
 40
64.0
  1
269
 41
0.9
100
AcDbText
  0
ENDBLK
  5
1EFB
330
308E
100
AcDbEntity
  8
0
100
AcDbBlockEnd
  0
BLOCK
  5
3091
330
3090
100
AcDbEntity
  8
0
100
AcDbBlockBegin
  2
*D24
 70
     1
 10
0.0
 20
0.0
 30
0.0
  3
*D24
  1

  0
LINE
  5
1420
330
3090
100
AcDbEntity
  8
SIZE
  6
Continuous
 62
     0
100
AcDbLine
 10
-22035.11521613997
 20
7385.702971374808
 30
0.0
 11
-21873.97193165959
 21
7385.702971374808
 31
0.0
  0
LINE
  5
1421
330
3090
100
AcDbEntity
  8
SIZE
  6
Continuous
 62
     0
100
AcDbLine
 10
-22001.11521613997
 20
7685.702971374808
 30
0.0
 11
-21873.97193165959
 21
7685.702971374808
 31
0.0
  0
LINE
  5
1422
330
3090
100
AcDbEntity
  8
SIZE
  6
Continuous
 62
     0
100
AcDbLine
 10
-21893.97193165959
 20
7397.702971374808
 30
0.0
 11
-21893.97193165959
 21
7673.702971374808
 31
0.0
  0
INSERT
  5
1423
330
3090
100
AcDbEntity
  8
SIZE
  6
Continuous
 62
     0
100
AcDbBlockReference
  2
_DOTBLANK
 10
-21893.97193165959
 20
7385.702971374808
 30
0.0
 41
12.0
 42
12.0
 43
12.0
 50
270.0
  0
INSERT
  5
1424
330
3090
100
AcDbEntity
  8
SIZE
  6
Continuous
 62
     0
100
AcDbBlockReference
  2
_DOTBLANK
 10
-21893.97193165959
 20
7685.702971374808
 30
0.0
 41
12.0
 42
12.0
 43
12.0
 50
90.0
  0
INSERT
  5
1425
330
3090
100
AcDbEntity
  8
0
100
AcDbBlockReference
  2
*U25
 10
0.0
 20
0.0
 30
0.0
  0
POINT
  5
1426
330
3090
100
AcDbEntity
  8
DEFPOINTS
  6
Continuous
 62
     0
100
AcDbPoint
 10
-22055.11521613997
 20
7385.702971374808
 30
0.0
  0
POINT
  5
1427
330
3090
100
AcDbEntity
  8
DEFPOINTS
  6
Continuous
 62
     0
100
AcDbPoint
 10
-22021.11521613997
 20
7685.702971374808
 30
0.0
  0
POINT
  5
1428
330
3090
100
AcDbEntity
  8
DEFPOINTS
  6
Continuous
 62
     0
100
AcDbPoint
 10
-21893.97193165959
 20
7685.702971374808
 30
0.0
  0
ENDBLK
  5
1429
330
3090
100
AcDbEntity
  8
0
100
AcDbBlockEnd
  0
BLOCK
  5
3093
330
3092
100
AcDbEntity
  8
0
100
AcDbBlockBegin
  2
*U25
 70
     1
 10
0.0
 20
0.0
 30
0.0
  3
*U25
  1

  0
TEXT
  5
1EFD
330
3092
100
AcDbEntity
  8
SIZE
 62
     0
100
AcDbText
 10
-21903.97193165959
 20
7461.645828517662
 30
0.0
 40
64.0
  1
300
 50
90.0
 41
0.9
100
AcDbText
  0
ENDBLK
  5
1EFF
330
3092
100
AcDbEntity
  8
0
100
AcDbBlockEnd
  0
BLOCK
  5
3095
330
3094
100
AcDbEntity
  8
0
100
AcDbBlockBegin
  2
*D26
 70
     1
 10
0.0
 20
0.0
 30
0.0
  3
*D26
  1

  0
LINE
  5
142C
330
3094
100
AcDbEntity
  8
SIZE
 62
     0
100
AcDbLine
 10
-22318.61521613997
 20
7718.167454177002
 30
0.0
 11
-22318.61521613997
 21
7822.154659243358
 31
0.0
  0
LINE
  5
142D
330
3094
100
AcDbEntity
  8
SIZE
 62
     0
100
AcDbLine
 10
-22038.61521613997
 20
7718.167454177002
 30
0.0
 11
-22038.61521613997
 21
7822.154659243358
 31
0.0
  0
LINE
  5
142E
330
3094
100
AcDbEntity
  8
SIZE
 62
     0
100
AcDbLine
 10
-22306.61521613997
 20
7802.154659243358
 30
0.0
 11
-22050.61521613997
 21
7802.154659243358
 31
0.0
  0
INSERT
  5
142F
330
3094
100
AcDbEntity
  8
SIZE
 62
     0
100
AcDbBlockReference
  2
_DOTBLANK
 10
-22318.61521613997
 20
7802.154659243358
 30
0.0
 41
12.0
 42
12.0
 43
12.0
 50
180.0
  0
INSERT
  5
1430
330
3094
100
AcDbEntity
  8
SIZE
 62
     0
100
AcDbBlockReference
  2
_DOTBLANK
 10
-22038.61521613997
 20
7802.154659243358
 30
0.0
 41
12.0
 42
12.0
 43
12.0
  0
INSERT
  5
1431
330
3094
100
AcDbEntity
  8
0
100
AcDbBlockReference
  2
*U27
 10
0.0
 20
0.0
 30
0.0
  0
POINT
  5
1432
330
3094
100
AcDbEntity
  8
DEFPOINTS
 62
     0
100
AcDbPoint
 10
-22318.61521613997
 20
7698.167454177002
 30
0.0
  0
POINT
  5
1433
330
3094
100
AcDbEntity
  8
DEFPOINTS
 62
     0
100
AcDbPoint
 10
-22038.61521613997
 20
7698.167454177002
 30
0.0
  0
POINT
  5
1434
330
3094
100
AcDbEntity
  8
DEFPOINTS
 62
     0
100
AcDbPoint
 10
-22038.61521613997
 20
7802.154659243358
 30
0.0
  0
ENDBLK
  5
1435
330
3094
100
AcDbEntity
  8
0
100
AcDbBlockEnd
  0
BLOCK
  5
3097
330
3096
100
AcDbEntity
  8
0
100
AcDbBlockBegin
  2
*U27
 70
     1
 10
0.0
 20
0.0
 30
0.0
  3
*U27
  1

  0
TEXT
  5
1F01
330
3096
100
AcDbEntity
  8
SIZE
 62
     0
100
AcDbText
 10
-22252.6723589971
 20
7812.154659243358
 30
0.0
 40
64.0
  1
280
 41
0.9
100
AcDbText
  0
ENDBLK
  5
1F03
330
3096
100
AcDbEntity
  8
0
100
AcDbBlockEnd
  0
BLOCK
  5
3099
330
3098
100
AcDbEntity
  8
0
100
AcDbBlockBegin
  2
*D28
 70
     1
 10
0.0
 20
0.0
 30
0.0
  3
*D28
  1

  0
LINE
  5
1438
330
3098
100
AcDbEntity
  8
SIZE
 62
     0
100
AcDbLine
 10
-22336.11521613997
 20
7705.702971374808
 30
0.0
 11
-22336.11521613997
 21
7931.282433493766
 31
0.0
  0
LINE
  5
1439
330
3098
100
AcDbEntity
  8
SIZE
 62
     0
100
AcDbLine
 10
-22021.11521613997
 20
7705.702971374808
 30
0.0
 11
-22021.11521613997
 21
7931.282433493766
 31
0.0
  0
LINE
  5
143A
330
3098
100
AcDbEntity
  8
SIZE
 62
     0
100
AcDbLine
 10
-22324.11521613997
 20
7911.282433493766
 30
0.0
 11
-22033.11521613997
 21
7911.282433493766
 31
0.0
  0
INSERT
  5
143B
330
3098
100
AcDbEntity
  8
SIZE
 62
     0
100
AcDbBlockReference
  2
_DOTBLANK
 10
-22336.11521613997
 20
7911.282433493766
 30
0.0
 41
12.0
 42
12.0
 43
12.0
 50
180.0
  0
INSERT
  5
143C
330
3098
100
AcDbEntity
  8
SIZE
 62
     0
100
AcDbBlockReference
  2
_DOTBLANK
 10
-22021.11521613997
 20
7911.282433493766
 30
0.0
 41
12.0
 42
12.0
 43
12.0
  0
INSERT
  5
143D
330
3098
100
AcDbEntity
  8
0
100
AcDbBlockReference
  2
*U29
 10
0.0
 20
0.0
 30
0.0
  0
POINT
  5
143E
330
3098
100
AcDbEntity
  8
DEFPOINTS
 62
     0
100
AcDbPoint
 10
-22336.11521613997
 20
7685.702971374808
 30
0.0
  0
POINT
  5
143F
330
3098
100
AcDbEntity
  8
DEFPOINTS
 62
     0
100
AcDbPoint
 10
-22021.11521613997
 20
7685.702971374808
 30
0.0
  0
POINT
  5
1440
330
3098
100
AcDbEntity
  8
DEFPOINTS
 62
     0
100
AcDbPoint
 10
-22021.11521613997
 20
7911.282433493766
 30
0.0
  0
ENDBLK
  5
1441
330
3098
100
AcDbEntity
  8
0
100
AcDbBlockEnd
  0
BLOCK
  5
309B
330
309A
100
AcDbEntity
  8
0
100
AcDbBlockBegin
  2
*U29
 70
     1
 10
0.0
 20
0.0
 30
0.0
  3
*U29
  1

  0
TEXT
  5
1F05
330
309A
100
AcDbEntity
  8
SIZE
 62
     0
100
AcDbText
 10
-22247.18664471139
 20
7921.282433493766
 30
0.0
 40
64.0
  1
315
 41
0.9
100
AcDbText
  0
ENDBLK
  5
1F07
330
309A
100
AcDbEntity
  8
0
100
AcDbBlockEnd
  0
BLOCK
  5
309D
330
309C
100
AcDbEntity
  8
0
100
AcDbBlockBegin
  2
*D30
 70
     1
 10
0.0
 20
0.0
 30
0.0
  3
*D30
  1

  0
LINE
  5
166B
330
309C
100
AcDbEntity
  8
SIZE
 62
     0
100
AcDbLine
 10
-134.5
 20
-320.0
 30
0.0
 11
-134.5
 21
-468.0173952306001
 31
0.0
  0
LINE
  5
166C
330
309C
100
AcDbEntity
  8
SIZE
 62
     0
100
AcDbLine
 10
134.5
 20
-320.0
 30
0.0
 11
134.5
 21
-468.0173952306001
 31
0.0
  0
LINE
  5
166D
330
309C
100
AcDbEntity
  8
SIZE
 62
     0
100
AcDbLine
 10
-122.5
 20
-448.0173952306
 30
0.0
 11
122.5
 21
-448.0173952306
 31
0.0
  0
INSERT
  5
166E
330
309C
100
AcDbEntity
  8
SIZE
 62
     0
100
AcDbBlockReference
  2
_DOTBLANK
 10
-134.5
 20
-448.0173952306
 30
0.0
 41
12.0
 42
12.0
 43
12.0
 50
180.0
  0
INSERT
  5
166F
330
309C
100
AcDbEntity
  8
SIZE
 62
     0
100
AcDbBlockReference
  2
_DOTBLANK
 10
134.5
 20
-448.0173952306
 30
0.0
 41
12.0
 42
12.0
 43
12.0
  0
INSERT
  5
1670
330
309C
100
AcDbEntity
  8
0
100
AcDbBlockReference
  2
*U31
 10
0.0
 20
0.0
 30
0.0
  0
POINT
  5
1671
330
309C
100
AcDbEntity
  8
DEFPOINTS
 62
     0
100
AcDbPoint
 10
-134.5
 20
-300.0
 30
0.0
  0
POINT
  5
1672
330
309C
100
AcDbEntity
  8
DEFPOINTS
 62
     0
100
AcDbPoint
 10
134.5
 20
-300.0
 30
0.0
  0
POINT
  5
1673
330
309C
100
AcDbEntity
  8
DEFPOINTS
 62
     0
100
AcDbPoint
 10
134.5
 20
-448.0173952306
 30
0.0
  0
ENDBLK
  5
14A7
330
309C
100
AcDbEntity
  8
0
100
AcDbBlockEnd
  0
BLOCK
  5
309F
330
309E
100
AcDbEntity
  8
0
100
AcDbBlockBegin
  2
*U31
 70
     1
 10
0.0
 20
0.0
 30
0.0
  3
*U31
  1

  0
TEXT
  5
1F09
330
309E
100
AcDbEntity
  8
SIZE
 62
     0
100
AcDbText
 10
-72.68571428571426
 20
-438.0173952306002
 30
0.0
 40
64.0
  1
269
 41
0.9
100
AcDbText
  0
ENDBLK
  5
1F0B
330
309E
100
AcDbEntity
  8
0
100
AcDbBlockEnd
  0
BLOCK
  5
30A1
330
30A0
100
AcDbEntity
  8
0
100
AcDbBlockBegin
  2
*D32
 70
     1
 10
0.0
 20
0.0
 30
0.0
  3
*D32
  1

  0
LINE
  5
1674
330
30A0
100
AcDbEntity
  8
SIZE
  6
Continuous
 62
     0
100
AcDbLine
 10
143.5
 20
-300.0
 30
0.0
 11
304.6432844803784
 21
-300.0
 31
0.0
  0
LINE
  5
1675
330
30A0
100
AcDbEntity
  8
SIZE
  6
Continuous
 62
     0
100
AcDbLine
 10
177.5
 20
-0.0000000000000057
 30
0.0
 11
304.6432844803785
 21
-0.0000000000000417
 31
0.0
  0
LINE
  5
1676
330
30A0
100
AcDbEntity
  8
SIZE
  6
Continuous
 62
     0
100
AcDbLine
 10
284.6432844803784
 20
-288.0000000000001
 30
0.0
 11
284.6432844803785
 21
-12.00000000000003
 31
0.0
  0
INSERT
  5
1677
330
30A0
100
AcDbEntity
  8
SIZE
  6
Continuous
 62
     0
100
AcDbBlockReference
  2
_DOTBLANK
 10
284.6432844803784
 20
-300.0
 30
0.0
 41
12.0
 42
12.0
 43
12.0
 50
270.0
  0
INSERT
  5
1678
330
30A0
100
AcDbEntity
  8
SIZE
  6
Continuous
 62
     0
100
AcDbBlockReference
  2
_DOTBLANK
 10
284.6432844803785
 20
-0.000000000000036
 30
0.0
 41
12.0
 42
12.0
 43
12.0
 50
90.0
  0
INSERT
  5
1679
330
30A0
100
AcDbEntity
  8
0
100
AcDbBlockReference
  2
*U33
 10
0.0
 20
0.0
 30
0.0
  0
POINT
  5
167A
330
30A0
100
AcDbEntity
  8
DEFPOINTS
  6
Continuous
 62
     0
100
AcDbPoint
 10
123.5
 20
-300.0
 30
0.0
  0
POINT
  5
167B
330
30A0
100
AcDbEntity
  8
DEFPOINTS
  6
Continuous
 62
     0
100
AcDbPoint
 10
157.5
 20
0.0
 30
0.0
  0
POINT
  5
167C
330
30A0
100
AcDbEntity
  8
DEFPOINTS
  6
Continuous
 62
     0
100
AcDbPoint
 10
284.6432844803785
 20
-0.000000000000036
 30
0.0
  0
ENDBLK
  5
14B3
330
30A0
100
AcDbEntity
  8
0
100
AcDbBlockEnd
  0
BLOCK
  5
30A3
330
30A2
100
AcDbEntity
  8
0
100
AcDbBlockBegin
  2
*U33
 70
     1
 10
0.0
 20
0.0
 30
0.0
  3
*U33
  1

  0
TEXT
  5
1F0D
330
30A2
100
AcDbEntity
  8
SIZE
 62
     0
100
AcDbText
 10
274.6432844803785
 20
-224.0571428571429
 30
0.0
 40
64.0
  1
300
 50
90.0
 41
0.9
100
AcDbText
  0
ENDBLK
  5
1F0F
330
30A2
100
AcDbEntity
  8
0
100
AcDbBlockEnd
  0
BLOCK
  5
30A5
330
30A4
100
AcDbEntity
  8
0
100
AcDbBlockBegin
  2
*D34
 70
     1
 10
0.0
 20
0.0
 30
0.0
  3
*D34
  1

  0
LINE
  5
167D
330
30A4
100
AcDbEntity
  8
SIZE
 62
     0
100
AcDbLine
 10
-140.0
 20
32.46448280219375
 30
0.0
 11
-140.0
 21
136.4516878685507
 31
0.0
  0
LINE
  5
167E
330
30A4
100
AcDbEntity
  8
SIZE
 62
     0
100
AcDbLine
 10
140.0
 20
32.46448280219375
 30
0.0
 11
140.0
 21
136.4516878685507
 31
0.0
  0
LINE
  5
167F
330
30A4
100
AcDbEntity
  8
SIZE
 62
     0
100
AcDbLine
 10
-128.0
 20
116.4516878685508
 30
0.0
 11
128.0
 21
116.4516878685508
 31
0.0
  0
INSERT
  5
1680
330
30A4
100
AcDbEntity
  8
SIZE
 62
     0
100
AcDbBlockReference
  2
_DOTBLANK
 10
-140.0
 20
116.4516878685508
 30
0.0
 41
12.0
 42
12.0
 43
12.0
 50
180.0
  0
INSERT
  5
1681
330
30A4
100
AcDbEntity
  8
SIZE
 62
     0
100
AcDbBlockReference
  2
_DOTBLANK
 10
140.0
 20
116.4516878685508
 30
0.0
 41
12.0
 42
12.0
 43
12.0
  0
INSERT
  5
1682
330
30A4
100
AcDbEntity
  8
0
100
AcDbBlockReference
  2
*U35
 10
0.0
 20
0.0
 30
0.0
  0
POINT
  5
1683
330
30A4
100
AcDbEntity
  8
DEFPOINTS
 62
     0
100
AcDbPoint
 10
-140.0
 20
12.46448280219374
 30
0.0
  0
POINT
  5
1684
330
30A4
100
AcDbEntity
  8
DEFPOINTS
 62
     0
100
AcDbPoint
 10
140.0
 20
12.46448280219374
 30
0.0
  0
POINT
  5
1685
330
30A4
100
AcDbEntity
  8
DEFPOINTS
 62
     0
100
AcDbPoint
 10
140.0
 20
116.4516878685508
 30
0.0
  0
ENDBLK
  5
14BF
330
30A4
100
AcDbEntity
  8
0
100
AcDbBlockEnd
  0
BLOCK
  5
30A7
330
30A6
100
AcDbEntity
  8
0
100
AcDbBlockBegin
  2
*U35
 70
     1
 10
0.0
 20
0.0
 30
0.0
  3
*U35
  1

  0
TEXT
  5
1F11
330
30A6
100
AcDbEntity
  8
SIZE
 62
     0
100
AcDbText
 10
-74.05714285714283
 20
126.4516878685507
 30
0.0
 40
64.0
  1
280
 41
0.9
100
AcDbText
  0
ENDBLK
  5
1F13
330
30A6
100
AcDbEntity
  8
0
100
AcDbBlockEnd
  0
BLOCK
  5
30A9
330
30A8
100
AcDbEntity
  8
0
100
AcDbBlockBegin
  2
*D36
 70
     1
 10
0.0
 20
0.0
 30
0.0
  3
*D36
  1

  0
LINE
  5
1686
330
30A8
100
AcDbEntity
  8
SIZE
 62
     0
100
AcDbLine
 10
-157.5
 20
20.0
 30
0.0
 11
-157.5
 21
245.5794621189598
 31
0.0
  0
LINE
  5
1687
330
30A8
100
AcDbEntity
  8
SIZE
 62
     0
100
AcDbLine
 10
157.5
 20
20.0
 30
0.0
 11
157.5
 21
245.5794621189598
 31
0.0
  0
LINE
  5
1688
330
30A8
100
AcDbEntity
  8
SIZE
 62
     0
100
AcDbLine
 10
-145.5
 20
225.5794621189598
 30
0.0
 11
145.5
 21
225.5794621189598
 31
0.0
  0
INSERT
  5
1689
330
30A8
100
AcDbEntity
  8
SIZE
 62
     0
100
AcDbBlockReference
  2
_DOTBLANK
 10
-157.5
 20
225.5794621189598
 30
0.0
 41
12.0
 42
12.0
 43
12.0
 50
180.0
  0
INSERT
  5
168A
330
30A8
100
AcDbEntity
  8
SIZE
 62
     0
100
AcDbBlockReference
  2
_DOTBLANK
 10
157.5
 20
225.5794621189598
 30
0.0
 41
12.0
 42
12.0
 43
12.0
  0
INSERT
  5
168B
330
30A8
100
AcDbEntity
  8
0
100
AcDbBlockReference
  2
*U37
 10
0.0
 20
0.0
 30
0.0
  0
POINT
  5
168C
330
30A8
100
AcDbEntity
  8
DEFPOINTS
 62
     0
100
AcDbPoint
 10
-157.5
 20
0.0
 30
0.0
  0
POINT
  5
168D
330
30A8
100
AcDbEntity
  8
DEFPOINTS
 62
     0
100
AcDbPoint
 10
157.5
 20
0.0
 30
0.0
  0
POINT
  5
168E
330
30A8
100
AcDbEntity
  8
DEFPOINTS
 62
     0
100
AcDbPoint
 10
157.5
 20
225.5794621189598
 30
0.0
  0
ENDBLK
  5
14CB
330
30A8
100
AcDbEntity
  8
0
100
AcDbBlockEnd
  0
BLOCK
  5
30AB
330
30AA
100
AcDbEntity
  8
0
100
AcDbBlockBegin
  2
*U37
 70
     1
 10
0.0
 20
0.0
 30
0.0
  3
*U37
  1

  0
TEXT
  5
1F15
330
30AA
100
AcDbEntity
  8
SIZE
 62
     0
100
AcDbText
 10
-68.57142857142857
 20
235.5794621189598
 30
0.0
 40
64.0
  1
315
 41
0.9
100
AcDbText
  0
ENDBLK
  5
1F17
330
30AA
100
AcDbEntity
  8
0
100
AcDbBlockEnd
  0
BLOCK
  5
30AD
330
30AC
100
AcDbEntity
  8
0
100
AcDbBlockBegin
  2
*U38
 70
     1
 10
0.0
 20
0.0
 30
0.0
  3
*U38
  1

  0
ENDBLK
  5
15CF
330
30AC
100
AcDbEntity
  8
0
100
AcDbBlockEnd
  0
BLOCK
  5
30AF
330
30AE
100
AcDbEntity
  8
0
100
AcDbBlockBegin
  2
*D39
 70
     1
 10
0.0
 20
0.0
 30
0.0
  3
*D39
  1

  0
LINE
  5
1692
330
30AE
100
AcDbEntity
  8
SIZE
 62
     0
100
AcDbLine
 10
-25844.51823276502
 20
7685.702971374808
 30
0.0
 11
-25981.04465488371
 21
7685.702971374808
 31
0.0
  0
LINE
  5
1693
330
30AE
100
AcDbEntity
  8
SIZE
 62
     0
100
AcDbLine
 10
-25844.51823276502
 20
7677.702971374808
 30
0.0
 11
-25981.04465488371
 21
7677.702971374808
 31
0.0
  0
LINE
  5
1694
330
30AE
100
AcDbEntity
  8
SIZE
 62
     0
100
AcDbLine
 10
-25961.04465488371
 20
7697.702971374808
 30
0.0
 11
-25961.04465488371
 21
7709.702971374809
 31
0.0
  0
LINE
  5
1695
330
30AE
100
AcDbEntity
  8
SIZE
 62
     0
100
AcDbLine
 10
-25961.04465488371
 20
7665.70297137481
 30
0.0
 11
-25961.04465488371
 21
7595.302971374808
 31
0.0
  0
INSERT
  5
1696
330
30AE
100
AcDbEntity
  8
SIZE
 62
     0
100
AcDbBlockReference
  2
_DOTBLANK
 10
-25961.04465488371
 20
7685.702971374808
 30
0.0
 41
12.0
 42
12.0
 43
12.0
 50
270.0
  0
INSERT
  5
1697
330
30AE
100
AcDbEntity
  8
SIZE
 62
     0
100
AcDbBlockReference
  2
_DOTBLANK
 10
-25961.04465488371
 20
7677.702971374808
 30
0.0
 41
12.0
 42
12.0
 43
12.0
 50
90.0
  0
INSERT
  5
1698
330
30AE
100
AcDbEntity
  8
0
100
AcDbBlockReference
  2
*U40
 10
0.0
 20
0.0
 30
0.0
  0
POINT
  5
1699
330
30AE
100
AcDbEntity
  8
DEFPOINTS
 62
     0
100
AcDbPoint
 10
-25824.51823276501
 20
7685.702971374808
 30
0.0
  0
POINT
  5
169A
330
30AE
100
AcDbEntity
  8
DEFPOINTS
 62
     0
100
AcDbPoint
 10
-25824.51823276501
 20
7677.702971374808
 30
0.0
  0
POINT
  5
169B
330
30AE
100
AcDbEntity
  8
DEFPOINTS
 62
     0
100
AcDbPoint
 10
-25961.04465488371
 20
7677.702971374808
 30
0.0
  0
ENDBLK
  5
169C
330
30AE
100
AcDbEntity
  8
0
100
AcDbBlockEnd
  0
BLOCK
  5
30B1
330
30B0
100
AcDbEntity
  8
0
100
AcDbBlockBegin
  2
*U40
 70
     1
 10
0.0
 20
0.0
 30
0.0
  3
*U40
  1

  0
TEXT
  5
1F19
330
30B0
100
AcDbEntity
  8
SIZE
 62
     0
100
AcDbText
 10
-25971.04465488371
 20
7605.302971374804
 30
0.0
 40
64.0
  1
8
 50
90.0
 41
0.9
100
AcDbText
  0
ENDBLK
  5
1F1B
330
30B0
100
AcDbEntity
  8
0
100
AcDbBlockEnd
  0
BLOCK
  5
30B3
330
30B2
100
AcDbEntity
  8
0
100
AcDbBlockBegin
  2
*D41
 70
     1
 10
0.0
 20
0.0
 30
0.0
  3
*D41
  1

  0
LINE
  5
169F
330
30B2
100
AcDbEntity
  8
SIZE
 62
     0
100
AcDbLine
 10
-25512.51823276502
 20
7385.702971374808
 30
0.0
 11
-25362.37494828464
 21
7385.702971374808
 31
0.0
  0
LINE
  5
16A0
330
30B2
100
AcDbEntity
  8
SIZE
 62
     0
100
AcDbLine
 10
-25523.51823276501
 20
7373.702971374808
 30
0.0
 11
-25362.37494828464
 21
7373.702971374808
 31
0.0
  0
LINE
  5
16A1
330
30B2
100
AcDbEntity
  8
SIZE
 62
     0
100
AcDbLine
 10
-25382.37494828464
 20
7397.702971374808
 30
0.0
 11
-25382.37494828464
 21
7409.70297137481
 31
0.0
  0
LINE
  5
16A2
330
30B2
100
AcDbEntity
  8
SIZE
 62
     0
100
AcDbLine
 10
-25382.37494828464
 20
7361.702971374808
 30
0.0
 11
-25382.37494828464
 21
7244.674399946238
 31
0.0
  0
INSERT
  5
16A3
330
30B2
100
AcDbEntity
  8
SIZE
 62
     0
100
AcDbBlockReference
  2
_DOTBLANK
 10
-25382.37494828464
 20
7385.702971374808
 30
0.0
 41
12.0
 42
12.0
 43
12.0
 50
270.0
  0
INSERT
  5
16A4
330
30B2
100
AcDbEntity
  8
SIZE
 62
     0
100
AcDbBlockReference
  2
_DOTBLANK
 10
-25382.37494828464
 20
7373.702971374808
 30
0.0
 41
12.0
 42
12.0
 43
12.0
 50
90.0
  0
INSERT
  5
16A5
330
30B2
100
AcDbEntity
  8
0
100
AcDbBlockReference
  2
*U42
 10
0.0
 20
0.0
 30
0.0
  0
POINT
  5
16A6
330
30B2
100
AcDbEntity
  8
DEFPOINTS
 62
     0
100
AcDbPoint
 10
-25532.51823276502
 20
7385.702971374808
 30
0.0
  0
POINT
  5
16A7
330
30B2
100
AcDbEntity
  8
DEFPOINTS
 62
     0
100
AcDbPoint
 10
-25543.51823276502
 20
7373.702971374808
 30
0.0
  0
POINT
  5
16A8
330
30B2
100
AcDbEntity
  8
DEFPOINTS
 62
     0
100
AcDbPoint
 10
-25382.37494828464
 20
7373.702971374808
 30
0.0
  0
ENDBLK
  5
16A9
330
30B2
100
AcDbEntity
  8
0
100
AcDbBlockEnd
  0
BLOCK
  5
30B5
330
30B4
100
AcDbEntity
  8
0
100
AcDbBlockBegin
  2
*U42
 70
     1
 10
0.0
 20
0.0
 30
0.0
  3
*U42
  1

  0
TEXT
  5
1F1D
330
30B4
100
AcDbEntity
  8
SIZE
 62
     0
100
AcDbText
 10
-25392.37494828464
 20
7256.045828517662
 30
0.0
 40
64.0
  1
12
 50
90.0
 41
0.9
100
AcDbText
  0
ENDBLK
  5
1F1F
330
30B4
100
AcDbEntity
  8
0
100
AcDbBlockEnd
  0
BLOCK
  5
30B7
330
30B6
100
AcDbEntity
  8
0
100
AcDbBlockBegin
  2
*D43
 70
     1
 10
0.0
 20
0.0
 30
0.0
  3
*D43
  1

  0
LINE
  5
16AC
330
30B6
100
AcDbEntity
  8
SIZE
 62
     0
100
AcDbLine
 10
-25801.51823276501
 20
7365.702971374808
 30
0.0
 11
-25801.51823276501
 21
7217.685576144207
 31
0.0
  0
LINE
  5
16AD
330
30B6
100
AcDbEntity
  8
SIZE
 62
     0
100
AcDbLine
 10
-25532.51823276502
 20
7365.702971374808
 30
0.0
 11
-25532.51823276502
 21
7217.685576144207
 31
0.0
  0
LINE
  5
16AE
330
30B6
100
AcDbEntity
  8
SIZE
 62
     0
100
AcDbLine
 10
-25789.51823276502
 20
7237.685576144207
 30
0.0
 11
-25544.51823276501
 21
7237.685576144207
 31
0.0
  0
INSERT
  5
16AF
330
30B6
100
AcDbEntity
  8
SIZE
 62
     0
100
AcDbBlockReference
  2
_DOTBLANK
 10
-25801.51823276501
 20
7237.685576144207
 30
0.0
 41
12.0
 42
12.0
 43
12.0
 50
180.0
  0
INSERT
  5
16B0
330
30B6
100
AcDbEntity
  8
SIZE
 62
     0
100
AcDbBlockReference
  2
_DOTBLANK
 10
-25532.51823276502
 20
7237.685576144207
 30
0.0
 41
12.0
 42
12.0
 43
12.0
  0
INSERT
  5
16B1
330
30B6
100
AcDbEntity
  8
0
100
AcDbBlockReference
  2
*U44
 10
0.0
 20
0.0
 30
0.0
  0
POINT
  5
16B2
330
30B6
100
AcDbEntity
  8
DEFPOINTS
 62
     0
100
AcDbPoint
 10
-25801.51823276501
 20
7385.702971374808
 30
0.0
  0
POINT
  5
16B3
330
30B6
100
AcDbEntity
  8
DEFPOINTS
 62
     0
100
AcDbPoint
 10
-25532.51823276502
 20
7385.702971374808
 30
0.0
  0
POINT
  5
16B4
330
30B6
100
AcDbEntity
  8
DEFPOINTS
 62
     0
100
AcDbPoint
 10
-25532.51823276502
 20
7237.685576144207
 30
0.0
  0
ENDBLK
  5
16B5
330
30B6
100
AcDbEntity
  8
0
100
AcDbBlockEnd
  0
BLOCK
  5
30B9
330
30B8
100
AcDbEntity
  8
0
100
AcDbBlockBegin
  2
*U44
 70
     1
 10
0.0
 20
0.0
 30
0.0
  3
*U44
  1

  0
TEXT
  5
1F21
330
30B8
100
AcDbEntity
  8
SIZE
 62
     0
100
AcDbText
 10
-25739.70394705074
 20
7247.685576144205
 30
0.0
 40
64.0
  1
269
 41
0.9
100
AcDbText
  0
ENDBLK
  5
1F23
330
30B8
100
AcDbEntity
  8
0
100
AcDbBlockEnd
  0
BLOCK
  5
30BB
330
30BA
100
AcDbEntity
  8
0
100
AcDbBlockBegin
  2
*D45
 70
     1
 10
0.0
 20
0.0
 30
0.0
  3
*D45
  1

  0
LINE
  5
16B8
330
30BA
100
AcDbEntity
  8
SIZE
 62
     0
100
AcDbLine
 10
-25512.51823276502
 20
7385.702971374808
 30
0.0
 11
-25362.37494828464
 21
7385.702971374808
 31
0.0
  0
LINE
  5
16B9
330
30BA
100
AcDbEntity
  8
SIZE
 62
     0
100
AcDbLine
 10
-25489.51823276501
 20
7685.702971374808
 30
0.0
 11
-25362.37494828464
 21
7685.702971374808
 31
0.0
  0
LINE
  5
16BA
330
30BA
100
AcDbEntity
  8
SIZE
 62
     0
100
AcDbLine
 10
-25382.37494828464
 20
7397.702971374808
 30
0.0
 11
-25382.37494828464
 21
7673.702971374808
 31
0.0
  0
INSERT
  5
16BB
330
30BA
100
AcDbEntity
  8
SIZE
 62
     0
100
AcDbBlockReference
  2
_DOTBLANK
 10
-25382.37494828464
 20
7385.702971374808
 30
0.0
 41
12.0
 42
12.0
 43
12.0
 50
270.0
  0
INSERT
  5
16BC
330
30BA
100
AcDbEntity
  8
SIZE
 62
     0
100
AcDbBlockReference
  2
_DOTBLANK
 10
-25382.37494828464
 20
7685.702971374808
 30
0.0
 41
12.0
 42
12.0
 43
12.0
 50
90.0
  0
INSERT
  5
16BD
330
30BA
100
AcDbEntity
  8
0
100
AcDbBlockReference
  2
*U46
 10
0.0
 20
0.0
 30
0.0
  0
POINT
  5
16BE
330
30BA
100
AcDbEntity
  8
DEFPOINTS
 62
     0
100
AcDbPoint
 10
-25532.51823276502
 20
7385.702971374808
 30
0.0
  0
POINT
  5
16BF
330
30BA
100
AcDbEntity
  8
DEFPOINTS
 62
     0
100
AcDbPoint
 10
-25509.51823276502
 20
7685.702971374808
 30
0.0
  0
POINT
  5
16C0
330
30BA
100
AcDbEntity
  8
DEFPOINTS
 62
     0
100
AcDbPoint
 10
-25382.37494828464
 20
7685.702971374808
 30
0.0
  0
ENDBLK
  5
16C1
330
30BA
100
AcDbEntity
  8
0
100
AcDbBlockEnd
  0
BLOCK
  5
30BD
330
30BC
100
AcDbEntity
  8
0
100
AcDbBlockBegin
  2
*U46
 70
     1
 10
0.0
 20
0.0
 30
0.0
  3
*U46
  1

  0
TEXT
  5
1F25
330
30BC
100
AcDbEntity
  8
SIZE
 62
     0
100
AcDbText
 10
-25392.37494828464
 20
7461.645828517662
 30
0.0
 40
64.0
  1
300
 50
90.0
 41
0.9
100
AcDbText
  0
ENDBLK
  5
1F27
330
30BC
100
AcDbEntity
  8
0
100
AcDbBlockEnd
  0
BLOCK
  5
30BF
330
30BE
100
AcDbEntity
  8
0
100
AcDbBlockBegin
  2
*D47
 70
     1
 10
0.0
 20
0.0
 30
0.0
  3
*D47
  1

  0
LINE
  5
16C4
330
30BE
100
AcDbEntity
  8
SIZE
 62
     0
100
AcDbLine
 10
-25807.01823276501
 20
7718.167454177002
 30
0.0
 11
-25807.01823276501
 21
7822.154659243358
 31
0.0
  0
LINE
  5
16C5
330
30BE
100
AcDbEntity
  8
SIZE
 62
     0
100
AcDbLine
 10
-25527.01823276501
 20
7718.167454177002
 30
0.0
 11
-25527.01823276501
 21
7822.154659243358
 31
0.0
  0
LINE
  5
16C6
330
30BE
100
AcDbEntity
  8
SIZE
 62
     0
100
AcDbLine
 10
-25795.01823276502
 20
7802.154659243358
 30
0.0
 11
-25539.01823276501
 21
7802.154659243358
 31
0.0
  0
INSERT
  5
16C7
330
30BE
100
AcDbEntity
  8
SIZE
 62
     0
100
AcDbBlockReference
  2
_DOTBLANK
 10
-25807.01823276501
 20
7802.154659243358
 30
0.0
 41
12.0
 42
12.0
 43
12.0
 50
180.0
  0
INSERT
  5
16C8
330
30BE
100
AcDbEntity
  8
SIZE
 62
     0
100
AcDbBlockReference
  2
_DOTBLANK
 10
-25527.01823276501
 20
7802.154659243358
 30
0.0
 41
12.0
 42
12.0
 43
12.0
  0
INSERT
  5
16C9
330
30BE
100
AcDbEntity
  8
0
100
AcDbBlockReference
  2
*U48
 10
0.0
 20
0.0
 30
0.0
  0
POINT
  5
16CA
330
30BE
100
AcDbEntity
  8
DEFPOINTS
 62
     0
100
AcDbPoint
 10
-25807.01823276501
 20
7698.167454177002
 30
0.0
  0
POINT
  5
16CB
330
30BE
100
AcDbEntity
  8
DEFPOINTS
 62
     0
100
AcDbPoint
 10
-25527.01823276501
 20
7698.167454177002
 30
0.0
  0
POINT
  5
16CC
330
30BE
100
AcDbEntity
  8
DEFPOINTS
 62
     0
100
AcDbPoint
 10
-25527.01823276501
 20
7802.154659243358
 30
0.0
  0
ENDBLK
  5
16CD
330
30BE
100
AcDbEntity
  8
0
100
AcDbBlockEnd
  0
BLOCK
  5
30C1
330
30C0
100
AcDbEntity
  8
0
100
AcDbBlockBegin
  2
*U48
 70
     1
 10
0.0
 20
0.0
 30
0.0
  3
*U48
  1

  0
TEXT
  5
1F29
330
30C0
100
AcDbEntity
  8
SIZE
 62
     0
100
AcDbText
 10
-25741.07537562216
 20
7812.154659243358
 30
0.0
 40
64.0
  1
280
 41
0.9
100
AcDbText
  0
ENDBLK
  5
1F2B
330
30C0
100
AcDbEntity
  8
0
100
AcDbBlockEnd
  0
BLOCK
  5
30C3
330
30C2
100
AcDbEntity
  8
0
100
AcDbBlockBegin
  2
*D49
 70
     1
 10
0.0
 20
0.0
 30
0.0
  3
*D49
  1

  0
LINE
  5
16D0
330
30C2
100
AcDbEntity
  8
SIZE
 62
     0
100
AcDbLine
 10
-25824.51823276501
 20
7705.702971374808
 30
0.0
 11
-25824.51823276501
 21
7931.282433493766
 31
0.0
  0
LINE
  5
16D1
330
30C2
100
AcDbEntity
  8
SIZE
 62
     0
100
AcDbLine
 10
-25509.51823276502
 20
7705.702971374808
 30
0.0
 11
-25509.51823276502
 21
7931.282433493766
 31
0.0
  0
LINE
  5
16D2
330
30C2
100
AcDbEntity
  8
SIZE
 62
     0
100
AcDbLine
 10
-25812.51823276502
 20
7911.282433493766
 30
0.0
 11
-25521.51823276501
 21
7911.282433493766
 31
0.0
  0
INSERT
  5
16D3
330
30C2
100
AcDbEntity
  8
SIZE
 62
     0
100
AcDbBlockReference
  2
_DOTBLANK
 10
-25824.51823276501
 20
7911.282433493766
 30
0.0
 41
12.0
 42
12.0
 43
12.0
 50
180.0
  0
INSERT
  5
16D4
330
30C2
100
AcDbEntity
  8
SIZE
 62
     0
100
AcDbBlockReference
  2
_DOTBLANK
 10
-25509.51823276502
 20
7911.282433493766
 30
0.0
 41
12.0
 42
12.0
 43
12.0
  0
INSERT
  5
16D5
330
30C2
100
AcDbEntity
  8
0
100
AcDbBlockReference
  2
*U50
 10
0.0
 20
0.0
 30
0.0
  0
POINT
  5
16D6
330
30C2
100
AcDbEntity
  8
DEFPOINTS
 62
     0
100
AcDbPoint
 10
-25824.51823276501
 20
7685.702971374808
 30
0.0
  0
POINT
  5
16D7
330
30C2
100
AcDbEntity
  8
DEFPOINTS
 62
     0
100
AcDbPoint
 10
-25509.51823276502
 20
7685.702971374808
 30
0.0
  0
POINT
  5
16D8
330
30C2
100
AcDbEntity
  8
DEFPOINTS
 62
     0
100
AcDbPoint
 10
-25509.51823276502
 20
7911.282433493766
 30
0.0
  0
ENDBLK
  5
16D9
330
30C2
100
AcDbEntity
  8
0
100
AcDbBlockEnd
  0
BLOCK
  5
30C5
330
30C4
100
AcDbEntity
  8
0
100
AcDbBlockBegin
  2
*U50
 70
     1
 10
0.0
 20
0.0
 30
0.0
  3
*U50
  1

  0
TEXT
  5
1F2D
330
30C4
100
AcDbEntity
  8
SIZE
 62
     0
100
AcDbText
 10
-25735.58966133645
 20
7921.282433493766
 30
0.0
 40
64.0
  1
315
 41
0.9
100
AcDbText
  0
ENDBLK
  5
1F2F
330
30C4
100
AcDbEntity
  8
0
100
AcDbBlockEnd
  0
BLOCK
  5
30C7
330
30C6
100
AcDbEntity
  8
0
100
AcDbBlockBegin
  2
*D51
 70
     1
 10
0.0
 20
0.0
 30
0.0
  3
*D51
  1

  0
LINE
  5
1D83
330
30C6
100
AcDbEntity
  8
SIZE
 62
     0
100
AcDbLine
 10
-134.5
 20
-320.0
 30
0.0
 11
-134.5
 21
-468.0173952306001
 31
0.0
  0
LINE
  5
1D84
330
30C6
100
AcDbEntity
  8
SIZE
 62
     0
100
AcDbLine
 10
134.5
 20
-320.0
 30
0.0
 11
134.5
 21
-468.0173952306001
 31
0.0
  0
LINE
  5
1D85
330
30C6
100
AcDbEntity
  8
SIZE
 62
     0
100
AcDbLine
 10
-122.5
 20
-448.0173952306
 30
0.0
 11
122.5
 21
-448.0173952306
 31
0.0
  0
INSERT
  5
1D86
330
30C6
100
AcDbEntity
  8
SIZE
 62
     0
100
AcDbBlockReference
  2
_DOTBLANK
 10
-134.5
 20
-448.0173952306
 30
0.0
 41
12.0
 42
12.0
 43
12.0
 50
180.0
  0
INSERT
  5
1D87
330
30C6
100
AcDbEntity
  8
SIZE
 62
     0
100
AcDbBlockReference
  2
_DOTBLANK
 10
134.5
 20
-448.0173952306
 30
0.0
 41
12.0
 42
12.0
 43
12.0
  0
INSERT
  5
1D88
330
30C6
100
AcDbEntity
  8
0
100
AcDbBlockReference
  2
*U52
 10
0.0
 20
0.0
 30
0.0
  0
POINT
  5
1D89
330
30C6
100
AcDbEntity
  8
DEFPOINTS
 62
     0
100
AcDbPoint
 10
-134.5
 20
-300.0
 30
0.0
  0
POINT
  5
1D8A
330
30C6
100
AcDbEntity
  8
DEFPOINTS
 62
     0
100
AcDbPoint
 10
134.5
 20
-300.0
 30
0.0
  0
POINT
  5
1D8B
330
30C6
100
AcDbEntity
  8
DEFPOINTS
 62
     0
100
AcDbPoint
 10
134.5
 20
-448.0173952306
 30
0.0
  0
ENDBLK
  5
173D
330
30C6
100
AcDbEntity
  8
0
100
AcDbBlockEnd
  0
BLOCK
  5
30C9
330
30C8
100
AcDbEntity
  8
0
100
AcDbBlockBegin
  2
*U52
 70
     1
 10
0.0
 20
0.0
 30
0.0
  3
*U52
  1

  0
TEXT
  5
1F31
330
30C8
100
AcDbEntity
  8
SIZE
 62
     0
100
AcDbText
 10
-72.68571428571426
 20
-438.0173952306003
 30
0.0
 40
64.0
  1
269
 41
0.9
100
AcDbText
  0
ENDBLK
  5
1F33
330
30C8
100
AcDbEntity
  8
0
100
AcDbBlockEnd
  0
BLOCK
  5
30CB
330
30CA
100
AcDbEntity
  8
0
100
AcDbBlockBegin
  2
*D53
 70
     1
 10
0.0
 20
0.0
 30
0.0
  3
*D53
  1

  0
LINE
  5
1D8C
330
30CA
100
AcDbEntity
  8
SIZE
 62
     0
100
AcDbLine
 10
154.5
 20
-300.0
 30
0.0
 11
304.6432844803784
 21
-300.0
 31
0.0
  0
LINE
  5
1D8D
330
30CA
100
AcDbEntity
  8
SIZE
 62
     0
100
AcDbLine
 10
177.5
 20
-0.0000000000000057
 30
0.0
 11
304.6432844803785
 21
-0.0000000000000417
 31
0.0
  0
LINE
  5
1D8E
330
30CA
100
AcDbEntity
  8
SIZE
 62
     0
100
AcDbLine
 10
284.6432844803784
 20
-288.0
 30
0.0
 11
284.6432844803785
 21
-12.00000000000003
 31
0.0
  0
INSERT
  5
1D8F
330
30CA
100
AcDbEntity
  8
SIZE
 62
     0
100
AcDbBlockReference
  2
_DOTBLANK
 10
284.6432844803784
 20
-300.0
 30
0.0
 41
12.0
 42
12.0
 43
12.0
 50
270.0
  0
INSERT
  5
1D90
330
30CA
100
AcDbEntity
  8
SIZE
 62
     0
100
AcDbBlockReference
  2
_DOTBLANK
 10
284.6432844803785
 20
-0.000000000000036
 30
0.0
 41
12.0
 42
12.0
 43
12.0
 50
90.0
  0
INSERT
  5
1D91
330
30CA
100
AcDbEntity
  8
0
100
AcDbBlockReference
  2
*U54
 10
0.0
 20
0.0
 30
0.0
  0
POINT
  5
1D92
330
30CA
100
AcDbEntity
  8
DEFPOINTS
 62
     0
100
AcDbPoint
 10
134.5
 20
-300.0
 30
0.0
  0
POINT
  5
1D93
330
30CA
100
AcDbEntity
  8
DEFPOINTS
 62
     0
100
AcDbPoint
 10
157.5
 20
0.0
 30
0.0
  0
POINT
  5
1D94
330
30CA
100
AcDbEntity
  8
DEFPOINTS
 62
     0
100
AcDbPoint
 10
284.6432844803785
 20
-0.000000000000036
 30
0.0
  0
ENDBLK
  5
1749
330
30CA
100
AcDbEntity
  8
0
100
AcDbBlockEnd
  0
BLOCK
  5
30CD
330
30CC
100
AcDbEntity
  8
0
100
AcDbBlockBegin
  2
*U54
 70
     1
 10
0.0
 20
0.0
 30
0.0
  3
*U54
  1

  0
TEXT
  5
1F35
330
30CC
100
AcDbEntity
  8
SIZE
 62
     0
100
AcDbText
 10
274.6432844803785
 20
-224.0571428571429
 30
0.0
 40
64.0
  1
300
 50
90.0
 41
0.9
100
AcDbText
  0
ENDBLK
  5
1F37
330
30CC
100
AcDbEntity
  8
0
100
AcDbBlockEnd
  0
BLOCK
  5
30CF
330
30CE
100
AcDbEntity
  8
0
100
AcDbBlockBegin
  2
*D55
 70
     1
 10
0.0
 20
0.0
 30
0.0
  3
*D55
  1

  0
LINE
  5
1D95
330
30CE
100
AcDbEntity
  8
SIZE
 62
     0
100
AcDbLine
 10
-140.0
 20
32.46448280219375
 30
0.0
 11
-140.0
 21
136.4516878685508
 31
0.0
  0
LINE
  5
1D96
330
30CE
100
AcDbEntity
  8
SIZE
 62
     0
100
AcDbLine
 10
140.0
 20
32.46448280219375
 30
0.0
 11
140.0
 21
136.4516878685508
 31
0.0
  0
LINE
  5
1D97
330
30CE
100
AcDbEntity
  8
SIZE
 62
     0
100
AcDbLine
 10
-128.0
 20
116.4516878685508
 30
0.0
 11
128.0
 21
116.4516878685508
 31
0.0
  0
INSERT
  5
1D98
330
30CE
100
AcDbEntity
  8
SIZE
 62
     0
100
AcDbBlockReference
  2
_DOTBLANK
 10
-140.0
 20
116.4516878685508
 30
0.0
 41
12.0
 42
12.0
 43
12.0
 50
180.0
  0
INSERT
  5
1D99
330
30CE
100
AcDbEntity
  8
SIZE
 62
     0
100
AcDbBlockReference
  2
_DOTBLANK
 10
140.0
 20
116.4516878685508
 30
0.0
 41
12.0
 42
12.0
 43
12.0
  0
INSERT
  5
1D9A
330
30CE
100
AcDbEntity
  8
0
100
AcDbBlockReference
  2
*U56
 10
0.0
 20
0.0
 30
0.0
  0
POINT
  5
1D9B
330
30CE
100
AcDbEntity
  8
DEFPOINTS
 62
     0
100
AcDbPoint
 10
-140.0
 20
12.46448280219374
 30
0.0
  0
POINT
  5
1D9C
330
30CE
100
AcDbEntity
  8
DEFPOINTS
 62
     0
100
AcDbPoint
 10
140.0
 20
12.46448280219374
 30
0.0
  0
POINT
  5
1D9D
330
30CE
100
AcDbEntity
  8
DEFPOINTS
 62
     0
100
AcDbPoint
 10
140.0
 20
116.4516878685508
 30
0.0
  0
ENDBLK
  5
1755
330
30CE
100
AcDbEntity
  8
0
100
AcDbBlockEnd
  0
BLOCK
  5
30D1
330
30D0
100
AcDbEntity
  8
0
100
AcDbBlockBegin
  2
*U56
 70
     1
 10
0.0
 20
0.0
 30
0.0
  3
*U56
  1

  0
TEXT
  5
1F39
330
30D0
100
AcDbEntity
  8
SIZE
 62
     0
100
AcDbText
 10
-74.05714285714283
 20
126.4516878685508
 30
0.0
 40
64.0
  1
280
 41
0.9
100
AcDbText
  0
ENDBLK
  5
1F3B
330
30D0
100
AcDbEntity
  8
0
100
AcDbBlockEnd
  0
BLOCK
  5
30D3
330
30D2
100
AcDbEntity
  8
0
100
AcDbBlockBegin
  2
*D57
 70
     1
 10
0.0
 20
0.0
 30
0.0
  3
*D57
  1

  0
LINE
  5
1D9E
330
30D2
100
AcDbEntity
  8
SIZE
 62
     0
100
AcDbLine
 10
-157.5
 20
20.0
 30
0.0
 11
-157.5
 21
245.5794621189598
 31
0.0
  0
LINE
  5
1D9F
330
30D2
100
AcDbEntity
  8
SIZE
 62
     0
100
AcDbLine
 10
157.5
 20
20.0
 30
0.0
 11
157.5
 21
245.5794621189598
 31
0.0
  0
LINE
  5
1DA0
330
30D2
100
AcDbEntity
  8
SIZE
 62
     0
100
AcDbLine
 10
-145.5
 20
225.5794621189598
 30
0.0
 11
145.5
 21
225.5794621189598
 31
0.0
  0
INSERT
  5
1DA1
330
30D2
100
AcDbEntity
  8
SIZE
 62
     0
100
AcDbBlockReference
  2
_DOTBLANK
 10
-157.5
 20
225.5794621189598
 30
0.0
 41
12.0
 42
12.0
 43
12.0
 50
180.0
  0
INSERT
  5
1DA2
330
30D2
100
AcDbEntity
  8
SIZE
 62
     0
100
AcDbBlockReference
  2
_DOTBLANK
 10
157.5
 20
225.5794621189598
 30
0.0
 41
12.0
 42
12.0
 43
12.0
  0
INSERT
  5
1DA3
330
30D2
100
AcDbEntity
  8
0
100
AcDbBlockReference
  2
*U58
 10
0.0
 20
0.0
 30
0.0
  0
POINT
  5
1DA4
330
30D2
100
AcDbEntity
  8
DEFPOINTS
 62
     0
100
AcDbPoint
 10
-157.5
 20
0.0
 30
0.0
  0
POINT
  5
1DA5
330
30D2
100
AcDbEntity
  8
DEFPOINTS
 62
     0
100
AcDbPoint
 10
157.5
 20
0.0
 30
0.0
  0
POINT
  5
1DA6
330
30D2
100
AcDbEntity
  8
DEFPOINTS
 62
     0
100
AcDbPoint
 10
157.5
 20
225.5794621189598
 30
0.0
  0
ENDBLK
  5
1761
330
30D2
100
AcDbEntity
  8
0
100
AcDbBlockEnd
  0
BLOCK
  5
30D5
330
30D4
100
AcDbEntity
  8
0
100
AcDbBlockBegin
  2
*U58
 70
     1
 10
0.0
 20
0.0
 30
0.0
  3
*U58
  1

  0
TEXT
  5
1F3D
330
30D4
100
AcDbEntity
  8
SIZE
 62
     0
100
AcDbText
 10
-68.57142857142857
 20
235.5794621189599
 30
0.0
 40
64.0
  1
315
 41
0.9
100
AcDbText
  0
ENDBLK
  5
1F3F
330
30D4
100
AcDbEntity
  8
0
100
AcDbBlockEnd
  0
BLOCK
  5
30D7
330
30D6
100
AcDbEntity
  8
0
100
AcDbBlockBegin
  2
*D59
 70
     1
 10
0.0
 20
0.0
 30
0.0
  3
*D59
  1

  0
LINE
  5
1DA7
330
30D6
100
AcDbEntity
  8
SIZE
 62
     0
100
AcDbLine
 10
-177.5
 20
0.0000000000000057
 30
0.0
 11
-314.0264221186908
 21
0.0000000000000443
 31
0.0
  0
LINE
  5
1DA8
330
30D6
100
AcDbEntity
  8
SIZE
 62
     0
100
AcDbLine
 10
-177.5
 20
-7.999999999999993
 30
0.0
 11
-314.0264221186908
 21
-7.999999999999958
 31
0.0
  0
LINE
  5
1DA9
330
30D6
100
AcDbEntity
  8
SIZE
 62
     0
100
AcDbLine
 10
-294.0264221186908
 20
12.00000000000003
 30
0.0
 11
-294.0264221186908
 21
24.00000000000004
 31
0.0
  0
LINE
  5
1DAA
330
30D6
100
AcDbEntity
  8
SIZE
 62
     0
100
AcDbLine
 10
-294.0264221186908
 20
-19.99999999999996
 30
0.0
 11
-294.0264221186908
 21
-90.39999999999997
 31
0.0
  0
INSERT
  5
1DAB
330
30D6
100
AcDbEntity
  8
SIZE
 62
     0
100
AcDbBlockReference
  2
_DOTBLANK
 10
-294.0264221186908
 20
0.0000000000000387
 30
0.0
 41
12.0
 42
12.0
 43
12.0
 50
270.0
  0
INSERT
  5
1DAC
330
30D6
100
AcDbEntity
  8
SIZE
 62
     0
100
AcDbBlockReference
  2
_DOTBLANK
 10
-294.0264221186908
 20
-7.999999999999961
 30
0.0
 41
12.0
 42
12.0
 43
12.0
 50
90.0
  0
INSERT
  5
1DAD
330
30D6
100
AcDbEntity
  8
0
100
AcDbBlockReference
  2
*U60
 10
0.0
 20
0.0
 30
0.0
  0
POINT
  5
1DAE
330
30D6
100
AcDbEntity
  8
DEFPOINTS
 62
     0
100
AcDbPoint
 10
-157.5
 20
0.0
 30
0.0
  0
POINT
  5
1DAF
330
30D6
100
AcDbEntity
  8
DEFPOINTS
 62
     0
100
AcDbPoint
 10
-157.5
 20
-8.000000000000003
 30
0.0
  0
POINT
  5
1DB0
330
30D6
100
AcDbEntity
  8
DEFPOINTS
 62
     0
100
AcDbPoint
 10
-294.0264221186908
 20
-7.999999999999961
 30
0.0
  0
ENDBLK
  5
176D
330
30D6
100
AcDbEntity
  8
0
100
AcDbBlockEnd
  0
BLOCK
  5
30D9
330
30D8
100
AcDbEntity
  8
0
100
AcDbBlockBegin
  2
*U60
 70
     1
 10
0.0
 20
0.0
 30
0.0
  3
*U60
  1

  0
TEXT
  5
1F41
330
30D8
100
AcDbEntity
  8
SIZE
 62
     0
100
AcDbText
 10
-304.0264221186908
 20
-80.4
 30
0.0
 40
64.0
  1
8
 50
90.0
 41
0.9
100
AcDbText
  0
ENDBLK
  5
1F43
330
30D8
100
AcDbEntity
  8
0
100
AcDbBlockEnd
  0
BLOCK
  5
30DB
330
30DA
100
AcDbEntity
  8
0
100
AcDbBlockBegin
  2
*D61
 70
     1
 10
0.0
 20
0.0
 30
0.0
  3
*D61
  1

  0
LINE
  5
1DB1
330
30DA
100
AcDbEntity
  8
SIZE
 62
     0
100
AcDbLine
 10
154.5
 20
-300.0
 30
0.0
 11
304.6432844803785
 21
-300.0
 31
0.0
  0
LINE
  5
1DB2
330
30DA
100
AcDbEntity
  8
SIZE
 62
     0
100
AcDbLine
 10
143.5
 20
-312.0
 30
0.0
 11
304.6432844803785
 21
-312.0
 31
0.0
  0
LINE
  5
1DB3
330
30DA
100
AcDbEntity
  8
SIZE
 62
     0
100
AcDbLine
 10
284.6432844803785
 20
-288.0
 30
0.0
 11
284.6432844803785
 21
-276.0
 31
0.0
  0
LINE
  5
1DB4
330
30DA
100
AcDbEntity
  8
SIZE
 62
     0
100
AcDbLine
 10
284.6432844803785
 20
-324.0000000000001
 30
0.0
 11
284.6432844803784
 21
-438.2857142857143
 31
0.0
  0
INSERT
  5
1DB5
330
30DA
100
AcDbEntity
  8
SIZE
 62
     0
100
AcDbBlockReference
  2
_DOTBLANK
 10
284.6432844803785
 20
-300.0
 30
0.0
 41
12.0
 42
12.0
 43
12.0
 50
270.0
  0
INSERT
  5
1DB6
330
30DA
100
AcDbEntity
  8
SIZE
 62
     0
100
AcDbBlockReference
  2
_DOTBLANK
 10
284.6432844803785
 20
-312.0
 30
0.0
 41
12.0
 42
12.0
 43
12.0
 50
90.0
  0
INSERT
  5
1DB7
330
30DA
100
AcDbEntity
  8
0
100
AcDbBlockReference
  2
*U62
 10
0.0
 20
0.0
 30
0.0
  0
POINT
  5
1DB8
330
30DA
100
AcDbEntity
  8
DEFPOINTS
 62
     0
100
AcDbPoint
 10
134.5
 20
-300.0
 30
0.0
  0
POINT
  5
1DB9
330
30DA
100
AcDbEntity
  8
DEFPOINTS
 62
     0
100
AcDbPoint
 10
123.5
 20
-312.0
 30
0.0
  0
POINT
  5
1DBA
330
30DA
100
AcDbEntity
  8
DEFPOINTS
 62
     0
100
AcDbPoint
 10
284.6432844803785
 20
-312.0
 30
0.0
  0
ENDBLK
  5
177B
330
30DA
100
AcDbEntity
  8
0
100
AcDbBlockEnd
  0
BLOCK
  5
30DD
330
30DC
100
AcDbEntity
  8
0
100
AcDbBlockBegin
  2
*U62
 70
     1
 10
0.0
 20
0.0
 30
0.0
  3
*U62
  1

  0
TEXT
  5
1F45
330
30DC
100
AcDbEntity
  8
SIZE
 62
     0
100
AcDbText
 10
274.6432844803785
 20
-428.2857142857142
 30
0.0
 40
64.0
  1
12
 50
90.0
 41
0.9
100
AcDbText
  0
ENDBLK
  5
1F47
330
30DC
100
AcDbEntity
  8
0
100
AcDbBlockEnd
  0
BLOCK
  5
30DF
330
30DE
100
AcDbEntity
  8
0
100
AcDbBlockBegin
  2
*U63
 70
     1
 10
0.0
 20
0.0
 30
0.0
  3
*U63
  1

  0
ENDBLK
  5
1D57
330
30DE
100
AcDbEntity
  8
0
100
AcDbBlockEnd
  0
BLOCK
  5
30E1
330
30E0
100
AcDbEntity
  8
0
100
AcDbBlockBegin
  2
*U64
 70
     1
 10
0.0
 20
0.0
 30
0.0
  3
*U64
  1

  0
INSERT
  5
2088
330
30E0
100
AcDbEntity
  8
NOTE
100
AcDbBlockReference
  2
_OPEN30
 10
-140.0
 20
0.0
 30
0.0
 41
12.0
 42
12.0
 43
12.0
 50
312.6090116116894
  0
POLYLINE
  5
2089
330
30E0
100
AcDbEntity
  8
NOTE
100
AcDb2dPolyline
 66
     1
 10
0.0
 20
0.0
 30
0.0
  0
VERTEX
  5
2124
330
2089
100
AcDbEntity
  8
NOTE
100
AcDbVertex
100
AcDb2dVertex
 10
-148.1239008361894
 20
8.831887408915472
 30
0.0
  0
VERTEX
  5
2125
330
2089
100
AcDbEntity
  8
NOTE
100
AcDbVertex
100
AcDb2dVertex
 10
-227.8693999922543
 20
95.52709505801338
 30
0.0
  0
VERTEX
  5
2126
330
2089
100
AcDbEntity
  8
NOTE
100
AcDbVertex
100
AcDb2dVertex
 10
-773.7093999922541
 20
95.52709505801338
 30
0.0
  0
SEQEND
  5
2127
330
2089
100
AcDbEntity
  8
NOTE
  0
ENDBLK
  5
208A
330
30E0
100
AcDbEntity
  8
0
100
AcDbBlockEnd
  0
BLOCK
  5
30E3
330
30E2
100
AcDbEntity
  8
0
100
AcDbBlockBegin
  2
*U65
 70
     1
 10
0.0
 20
0.0
 30
0.0
  3
*U65
  1

  0
TEXT
  5
208D
330
30E2
100
AcDbEntity
  8
NOTE
100
AcDbText
 10
-773.7093999922541
 20
113.5270950580134
 30
0.0
 40
64.0
  1
4×φ10取付穴
 41
0.9
100
AcDbText
  0
ENDBLK
  5
208E
330
30E2
100
AcDbEntity
  8
0
100
AcDbBlockEnd
  0
BLOCK
  5
30E5
330
30E4
100
AcDbEntity
  8
0
100
AcDbBlockBegin
  2
*U66
 70
     1
 10
0.0
 20
0.0
 30
0.0
  3
*U66
  1

  0
INSERT
  5
25A0
330
30E4
100
AcDbEntity
  8
NOTE
100
AcDbBlockReference
  2
_OPEN30
 10
-605.0000004156791
 20
0.0
 30
0.0
 41
12.0
 42
12.0
 43
12.0
 50
312.6090116116894
  0
POLYLINE
  5
25A1
330
30E4
100
AcDbEntity
  8
NOTE
100
AcDb2dPolyline
 66
     1
 10
0.0
 20
0.0
 30
0.0
  0
VERTEX
  5
25A2
330
25A1
100
AcDbEntity
  8
NOTE
100
AcDbVertex
100
AcDb2dVertex
 10
-613.1239012518683
 20
8.831887408915481
 30
0.0
  0
VERTEX
  5
25A3
330
25A1
100
AcDbEntity
  8
NOTE
100
AcDbVertex
100
AcDb2dVertex
 10
-692.8694004079336
 20
95.52709505801384
 30
0.0
  0
VERTEX
  5
25A4
330
25A1
100
AcDbEntity
  8
NOTE
100
AcDbVertex
100
AcDb2dVertex
 10
-1282.595114693648
 20
95.52709505801384
 30
0.0
  0
SEQEND
  5
25A5
330
25A1
100
AcDbEntity
  8
NOTE
  0
ENDBLK
  5
25A6
330
30E4
100
AcDbEntity
  8
0
100
AcDbBlockEnd
  0
BLOCK
  5
30E7
330
30E6
100
AcDbEntity
  8
0
100
AcDbBlockBegin
  2
*U67
 70
     1
 10
0.0
 20
0.0
 30
0.0
  3
*U67
  1

  0
TEXT
  5
25A9
330
30E6
100
AcDbEntity
  8
NOTE
100
AcDbText
 10
-1282.595114693648
 20
113.5270950580138
 30
0.0
 40
64.0
  1
10×φ15取付穴
 41
0.9
100
AcDbText
  0
ENDBLK
  5
25AA
330
30E6
100
AcDbEntity
  8
0
100
AcDbBlockEnd
  0
BLOCK
  5
30E9
330
30E8
100
AcDbEntity
  8
0
100
AcDbBlockBegin
  2
*U68
 70
     1
 10
0.0
 20
0.0
 30
0.0
  3
*U68
  1

  0
INSERT
  5
288C
330
30E8
100
AcDbEntity
  8
NOTE
100
AcDbBlockReference
  2
_OPEN30
 10
-605.0
 20
0.0000000000009095
 30
0.0
 41
12.0
 42
12.0
 43
12.0
 50
312.6090116116894
  0
POLYLINE
  5
288D
330
30E8
100
AcDbEntity
  8
NOTE
100
AcDb2dPolyline
 66
     1
 10
0.0
 20
0.0
 30
0.0
  0
VERTEX
  5
288E
330
288D
100
AcDbEntity
  8
NOTE
100
AcDbVertex
100
AcDb2dVertex
 10
-613.1239008361895
 20
8.831887408916385
 30
0.0
  0
VERTEX
  5
288F
330
288D
100
AcDbEntity
  8
NOTE
100
AcDbVertex
100
AcDb2dVertex
 10
-692.8693999922542
 20
95.52709505801429
 30
0.0
  0
VERTEX
  5
2890
330
288D
100
AcDbEntity
  8
NOTE
100
AcDbVertex
100
AcDb2dVertex
 10
-1282.595114277969
 20
95.52709505801429
 30
0.0
  0
SEQEND
  5
2891
330
288D
100
AcDbEntity
  8
NOTE
  0
ENDBLK
  5
2892
330
30E8
100
AcDbEntity
  8
0
100
AcDbBlockEnd
  0
BLOCK
  5
30EB
330
30EA
100
AcDbEntity
  8
0
100
AcDbBlockBegin
  2
*U69
 70
     1
 10
0.0
 20
0.0
 30
0.0
  3
*U69
  1

  0
TEXT
  5
2895
330
30EA
100
AcDbEntity
  8
NOTE
100
AcDbText
 10
-1282.595114277969
 20
113.5270950580143
 30
0.0
 40
64.0
  1
10×φ15取付穴
 41
0.9
100
AcDbText
  0
ENDBLK
  5
2896
330
30EA
100
AcDbEntity
  8
0
100
AcDbBlockEnd
  0
BLOCK
  5
30ED
330
30EC
100
AcDbEntity
  8
0
100
AcDbBlockBegin
  2
*X70
 70
     1
 10
0.0
 20
0.0
 30
0.0
  3
*X70
  1

  0
LINE
  5
2899
330
30EC
100
AcDbEntity
  8
0
 62
     0
100
AcDbLine
 10
-556.4999619047703
 20
-1027.253201859374
 30
0.0
 11
-540.2316772303692
 21
-1035.000000000001
 31
0.0
  0
LINE
  5
289A
330
30EC
100
AcDbEntity
  8
0
 62
     0
100
AcDbLine
 10
-556.4999619047685
 20
-1017.25325011524
 30
0.0
 11
-519.2317674933783
 21
-1035.0
 31
0.0
  0
LINE
  5
289B
330
30EC
100
AcDbEntity
  8
0
 62
     0
100
AcDbLine
 10
-556.4999619047721
 20
-1007.253298371106
 30
0.0
 11
-498.2318577563908
 21
-1035.000000000001
 31
0.0
  0
LINE
  5
289C
330
30EC
100
AcDbEntity
  8
0
 62
     0
100
AcDbLine
 10
-556.4999619047685
 20
-997.2533466269723
 30
0.0
 11
-477.231948019398
 21
-1035.000000000001
 31
0.0
  0
LINE
  5
289D
330
30EC
100
AcDbEntity
  8
0
 62
     0
100
AcDbLine
 10
-556.4999619047703
 20
-987.2533948828367
 30
0.0
 11
-456.2320382824073
 21
-1035.000000000001
 31
0.0
  0
LINE
  5
289E
330
30EC
100
AcDbEntity
  8
0
 62
     0
100
AcDbLine
 10
-556.4999619047703
 20
-977.253443138702
 30
0.0
 11
-435.2321285454163
 21
-1035.000000000001
 31
0.0
  0
LINE
  5
289F
330
30EC
100
AcDbEntity
  8
0
 62
     0
100
AcDbLine
 10
-556.4999619047703
 20
-967.2534913945673
 30
0.0
 11
-414.2322188084254
 21
-1035.000000000001
 31
0.0
  0
LINE
  5
28A0
330
30EC
100
AcDbEntity
  8
0
 62
     0
100
AcDbLine
 10
-556.4999619047703
 20
-957.2535396504346
 30
0.0
 11
-393.2323090714344
 21
-1035.000000000003
 31
0.0
  0
LINE
  5
28A1
330
30EC
100
AcDbEntity
  8
0
 62
     0
100
AcDbLine
 10
-556.4999619047703
 20
-947.2535879062998
 30
0.0
 11
-372.2323993344453
 21
-1035.000000000002
 31
0.0
  0
LINE
  5
28A2
330
30EC
100
AcDbEntity
  8
0
 62
     0
100
AcDbLine
 10
-556.4999619047685
 20
-937.2536361621651
 30
0.0
 11
-351.2324895974525
 21
-1035.000000000002
 31
0.0
  0
LINE
  5
28A3
330
30EC
100
AcDbEntity
  8
0
 62
     0
100
AcDbLine
 10
-556.4999619047685
 20
-927.2536844180304
 30
0.0
 11
-330.2325798604615
 21
-1035.000000000001
 31
0.0
  0
LINE
  5
28A4
330
30EC
100
AcDbEntity
  8
0
 62
     0
100
AcDbLine
 10
-556.4999619047685
 20
-917.2537326738956
 30
0.0
 11
-309.2326701234706
 21
-1035.000000000001
 31
0.0
  0
LINE
  5
28A5
330
30EC
100
AcDbEntity
  8
0
 62
     0
100
AcDbLine
 10
-556.4999619047685
 20
-907.253780929761
 30
0.0
 11
-288.2327603864778
 21
-1035.000000000001
 31
0.0
  0
LINE
  5
28A6
330
30EC
100
AcDbEntity
  8
0
 62
     0
100
AcDbLine
 10
-556.4999619047703
 20
-897.2538291856272
 30
0.0
 11
-267.2328506494887
 21
-1035.000000000003
 31
0.0
  0
LINE
  5
28A7
330
30EC
100
AcDbEntity
  8
0
 62
     0
100
AcDbLine
 10
-556.4999619047703
 20
-887.2538774414925
 30
0.0
 11
-246.2329409124976
 21
-1035.000000000002
 31
0.0
  0
LINE
  5
28A8
330
30EC
100
AcDbEntity
  8
0
 62
     0
100
AcDbLine
 10
-556.4999619047685
 20
-877.2539256973578
 30
0.0
 11
-225.2330311755086
 21
-1035.000000000001
 31
0.0
  0
LINE
  5
28A9
330
30EC
100
AcDbEntity
  8
0
 62
     0
100
AcDbLine
 10
-556.4999619047703
 20
-867.2539739532227
 30
0.0
 11
-204.2331214385193
 21
-1035.000000000001
 31
0.0
  0
LINE
  5
28AA
330
30EC
100
AcDbEntity
  8
0
 62
     0
100
AcDbLine
 10
-556.4999619047703
 20
-857.2540222090891
 30
0.0
 11
-183.2332117015266
 21
-1035.000000000001
 31
0.0
  0
LINE
  5
28AB
330
30EC
100
AcDbEntity
  8
0
 62
     0
100
AcDbLine
 10
-556.4999619047685
 20
-847.254070464956
 30
0.0
 11
-162.2333019645357
 21
-1035.000000000003
 31
0.0
  0
LINE
  5
28AC
330
30EC
100
AcDbEntity
  8
0
 62
     0
100
AcDbLine
 10
-556.4999619047703
 20
-837.2541187208215
 30
0.0
 11
-141.2333922275447
 21
-1035.000000000003
 31
0.0
  0
LINE
  5
28AD
330
30EC
100
AcDbEntity
  8
0
 62
     0
100
AcDbLine
 10
-556.4999619047685
 20
-827.2541669766868
 30
0.0
 11
-120.2334824905538
 21
-1035.000000000003
 31
0.0
  0
LINE
  5
28AE
330
30EC
100
AcDbEntity
  8
0
 62
     0
100
AcDbLine
 10
-556.4999619047685
 20
-817.2542152325521
 30
0.0
 11
-99.23357275356286
 21
-1035.000000000002
 31
0.0
  0
LINE
  5
28AF
330
30EC
100
AcDbEntity
  8
0
 62
     0
100
AcDbLine
 10
-556.4999619047721
 20
-807.2542634884165
 30
0.0
 11
-78.2336630165737
 21
-1035.000000000001
 31
0.0
  0
LINE
  5
28B0
330
30EC
100
AcDbEntity
  8
0
 62
     0
100
AcDbLine
 10
-556.4999619047703
 20
-797.2543117442819
 30
0.0
 11
-57.23375327958091
 21
-1035.000000000001
 31
0.0
  0
LINE
  5
28B1
330
30EC
100
AcDbEntity
  8
0
 62
     0
100
AcDbLine
 10
-556.4999619047703
 20
-787.2543600001489
 30
0.0
 11
-36.23384354259179
 21
-1035.000000000002
 31
0.0
  0
LINE
  5
28B2
330
30EC
100
AcDbEntity
  8
0
 62
     0
100
AcDbLine
 10
-556.4999619047703
 20
-777.2544082560142
 30
0.0
 11
-15.23393380560264
 21
-1035.000000000002
 31
0.0
  0
LINE
  5
28B3
330
30EC
100
AcDbEntity
  8
0
 62
     0
100
AcDbLine
 10
-556.4999619047685
 20
-767.2544565118794
 30
0.0
 11
5.765975931391945
 21
-1035.000000000002
 31
0.0
  0
LINE
  5
28B4
330
30EC
100
AcDbEntity
  8
0
 62
     0
100
AcDbLine
 10
-556.4999619047703
 20
-757.2545047677451
 30
0.0
 11
26.76588566837927
 21
-1035.000000000001
 31
0.0
  0
LINE
  5
28B5
330
30EC
100
AcDbEntity
  8
0
 62
     0
100
AcDbLine
 10
-556.4999619047685
 20
-747.2545530236102
 30
0.0
 11
47.76579540537205
 21
-1035.000000000001
 31
0.0
  0
LINE
  5
28B6
330
30EC
100
AcDbEntity
  8
0
 62
     0
100
AcDbLine
 10
-556.4999619047685
 20
-737.2546012794771
 30
0.0
 11
68.765705142363
 21
-1035.000000000003
 31
0.0
  0
LINE
  5
28B7
330
30EC
100
AcDbEntity
  8
0
 62
     0
100
AcDbLine
 10
-556.4999619047685
 20
-727.2546495353425
 30
0.0
 11
89.76561487935397
 21
-1035.000000000003
 31
0.0
  0
LINE
  5
28B8
330
30EC
100
AcDbEntity
  8
0
 62
     0
100
AcDbLine
 10
-556.4999619047703
 20
-717.2546977912068
 30
0.0
 11
110.7655246163449
 21
-1035.000000000003
 31
0.0
  0
LINE
  5
28B9
330
30EC
100
AcDbEntity
  8
0
 62
     0
100
AcDbLine
 10
-556.4999619047685
 20
-707.2547460470732
 30
0.0
 11
131.7654343533377
 21
-1035.000000000002
 31
0.0
  0
LINE
  5
28BA
330
30EC
100
AcDbEntity
  8
0
 62
     0
100
AcDbLine
 10
-556.4999619047703
 20
-697.2547943029375
 30
0.0
 11
152.765344090325
 21
-1035.000000000002
 31
0.0
  0
LINE
  5
28BB
330
30EC
100
AcDbEntity
  8
0
 62
     0
100
AcDbLine
 10
-556.4999619047703
 20
-687.2548425588047
 30
0.0
 11
173.765253827316
 21
-1035.000000000003
 31
0.0
  0
LINE
  5
28BC
330
30EC
100
AcDbEntity
  8
0
 62
     0
100
AcDbLine
 10
-556.4999619047685
 20
-677.25489081467
 30
0.0
 11
194.7651635643069
 21
-1035.000000000002
 31
0.0
  0
LINE
  5
28BD
330
30EC
100
AcDbEntity
  8
0
 62
     0
100
AcDbLine
 10
-556.4999619047703
 20
-667.2549390705353
 30
0.0
 11
215.7650733012961
 21
-1035.000000000002
 31
0.0
  0
LINE
  5
28BE
330
30EC
100
AcDbEntity
  8
0
 62
     0
100
AcDbLine
 10
-556.4999619047703
 20
-657.2549873264006
 30
0.0
 11
236.7649830382888
 21
-1035.000000000002
 31
0.0
  0
LINE
  5
28BF
330
30EC
100
AcDbEntity
  8
0
 62
     0
100
AcDbLine
 10
-556.4999619047685
 20
-647.2550355822658
 30
0.0
 11
257.7648927752798
 21
-1035.000000000002
 31
0.0
  0
LINE
  5
28C0
330
30EC
100
AcDbEntity
  8
0
 62
     0
100
AcDbLine
 10
-556.4999619047703
 20
-637.2550838381312
 30
0.0
 11
278.7648025122708
 21
-1035.000000000002
 31
0.0
  0
LINE
  5
28C1
330
30EC
100
AcDbEntity
  8
0
 62
     0
100
AcDbLine
 10
-556.4999619047664
 20
-627.2551320939992
 30
0.0
 11
299.7647122492617
 21
-1035.000000000003
 31
0.0
  0
LINE
  5
28C2
330
30EC
100
AcDbEntity
  8
0
 62
     0
100
AcDbLine
 10
-556.4999619047685
 20
-617.2551803498645
 30
0.0
 11
320.7646219862527
 21
-1035.000000000003
 31
0.0
  0
LINE
  5
28C3
330
30EC
100
AcDbEntity
  8
0
 62
     0
100
AcDbLine
 10
-556.4999619047703
 20
-607.2552286057288
 30
0.0
 11
341.76453172324
 21
-1035.000000000002
 31
0.0
  0
LINE
  5
28C4
330
30EC
100
AcDbEntity
  8
0
 62
     0
100
AcDbLine
 10
-556.4999619047664
 20
-597.2552768615951
 30
0.0
 11
362.7644414602345
 21
-1035.000000000002
 31
0.0
  0
LINE
  5
28C5
330
30EC
100
AcDbEntity
  8
0
 62
     0
100
AcDbLine
 10
-556.4999619047703
 20
-587.2553251174593
 30
0.0
 11
383.7643511972237
 21
-1035.000000000002
 31
0.0
  0
LINE
  5
28C6
330
30EC
100
AcDbEntity
  8
0
 62
     0
100
AcDbLine
 10
-556.4999619047685
 20
-577.2553733733265
 30
0.0
 11
404.7642609342146
 21
-1035.000000000003
 31
0.0
  0
LINE
  5
28C7
330
30EC
100
AcDbEntity
  8
0
 62
     0
100
AcDbLine
 10
-556.4999619047685
 20
-567.2554216291919
 30
0.0
 11
425.7641706712055
 21
-1035.000000000002
 31
0.0
  0
LINE
  5
28C8
330
30EC
100
AcDbEntity
  8
0
 62
     0
100
AcDbLine
 10
-556.4999619047703
 20
-557.2554698850572
 30
0.0
 11
446.7640804081947
 21
-1035.000000000002
 31
0.0
  0
LINE
  5
28C9
330
30EC
100
AcDbEntity
  8
0
 62
     0
100
AcDbLine
 10
-556.4999619047685
 20
-547.2555181409225
 30
0.0
 11
467.7639901451875
 21
-1035.000000000002
 31
0.0
  0
LINE
  5
28CA
330
30EC
100
AcDbEntity
  8
0
 62
     0
100
AcDbLine
 10
-556.4999619047685
 20
-537.2555663967878
 30
0.0
 11
488.7638998821785
 21
-1035.000000000002
 31
0.0
  0
LINE
  5
28CB
330
30EC
100
AcDbEntity
  8
0
 62
     0
100
AcDbLine
 10
-556.4999619047685
 20
-527.2556146526531
 30
0.0
 11
509.7638096191694
 21
-1035.000000000002
 31
0.0
  0
LINE
  5
28CC
330
30EC
100
AcDbEntity
  8
0
 62
     0
100
AcDbLine
 10
-556.4999619047703
 20
-517.2556629085192
 30
0.0
 11
530.7637193561586
 21
-1035.000000000003
 31
0.0
  0
LINE
  5
28CD
330
30EC
100
AcDbEntity
  8
0
 62
     0
100
AcDbLine
 10
-556.4999619047685
 20
-507.2557111643852
 30
0.0
 11
551.7636290931513
 21
-1035.000000000003
 31
0.0
  0
LINE
  5
28CE
330
30EC
100
AcDbEntity
  8
0
 62
     0
100
AcDbLine
 10
-556.4999619047703
 20
-497.2557594202497
 30
0.0
 11
556.4999999999927
 21
-1027.255461784019
 31
0.0
  0
LINE
  5
28CF
330
30EC
100
AcDbEntity
  8
0
 62
     0
100
AcDbLine
 10
-556.4999619047703
 20
-487.255807676115
 30
0.0
 11
556.4999999999945
 21
-1017.255510039884
 31
0.0
  0
LINE
  5
28D0
330
30EC
100
AcDbEntity
  8
0
 62
     0
100
AcDbLine
 10
-556.4999619047685
 20
-477.2558559319802
 30
0.0
 11
556.4999999999945
 21
-1007.255558295749
 31
0.0
  0
LINE
  5
28D1
330
30EC
100
AcDbEntity
  8
0
 62
     0
100
AcDbLine
 10
-556.4999619047703
 20
-467.2559041878476
 30
0.0
 11
556.4999999999927
 21
-997.2556065516164
 31
0.0
  0
LINE
  5
28D2
330
30EC
100
AcDbEntity
  8
0
 62
     0
100
AcDbLine
 10
-556.4999619047664
 20
-457.2559524437128
 30
0.0
 11
556.4999999999962
 21
-987.2556548074822
 31
0.0
  0
LINE
  5
28D3
330
30EC
100
AcDbEntity
  8
0
 62
     0
100
AcDbLine
 10
-556.4999619047685
 20
-447.2560006995782
 30
0.0
 11
556.4999999999945
 21
-977.2557030633475
 31
0.0
  0
LINE
  5
28D4
330
30EC
100
AcDbEntity
  8
0
 62
     0
100
AcDbLine
 10
-556.4999619047703
 20
-437.2560489554433
 30
0.0
 11
556.4999999999927
 21
-967.2557513192128
 31
0.0
  0
LINE
  5
28D5
330
30EC
100
AcDbEntity
  8
0
 62
     0
100
AcDbLine
 10
-556.4999619047685
 20
-427.2560972113088
 30
0.0
 11
556.4999999999962
 21
-957.2557995750781
 31
0.0
  0
LINE
  5
28D6
330
30EC
100
AcDbEntity
  8
0
 62
     0
100
AcDbLine
 10
-556.4999619047703
 20
-417.2561454671756
 30
0.0
 11
556.4999999999945
 21
-947.2558478309448
 31
0.0
  0
LINE
  5
28D7
330
30EC
100
AcDbEntity
  8
0
 62
     0
100
AcDbLine
 10
-556.4999619047685
 20
-407.2561937230411
 30
0.0
 11
556.4999999999945
 21
-937.2558960868095
 31
0.0
  0
LINE
  5
28D8
330
30EC
100
AcDbEntity
  8
0
 62
     0
100
AcDbLine
 10
-556.4999619047685
 20
-397.2562419789065
 30
0.0
 11
556.4999999999962
 21
-927.2559443426754
 31
0.0
  0
LINE
  5
28D9
330
30EC
100
AcDbEntity
  8
0
 62
     0
100
AcDbLine
 10
-556.4999619047703
 20
-387.2562902347718
 30
0.0
 11
556.4999999999945
 21
-917.25599259854
 31
0.0
  0
LINE
  5
28DA
330
30EC
100
AcDbEntity
  8
0
 62
     0
100
AcDbLine
 10
-556.4999619047685
 20
-377.2563384906371
 30
0.0
 11
556.4999999999945
 21
-907.2560408544056
 31
0.0
  0
LINE
  5
28DB
330
30EC
100
AcDbEntity
  8
0
 62
     0
100
AcDbLine
 10
-556.4999619047685
 20
-367.2563867465024
 30
0.0
 11
556.4999999999945
 21
-897.2560891102705
 31
0.0
  0
LINE
  5
28DC
330
30EC
100
AcDbEntity
  8
0
 62
     0
100
AcDbLine
 10
-556.4999619047685
 20
-357.2564350023695
 30
0.0
 11
556.4999999999945
 21
-887.2561373661378
 31
0.0
  0
LINE
  5
28DD
330
30EC
100
AcDbEntity
  8
0
 62
     0
100
AcDbLine
 10
-556.4999619047685
 20
-347.2564832582348
 30
0.0
 11
556.4999999999945
 21
-877.2561856220031
 31
0.0
  0
LINE
  5
28DE
330
30EC
100
AcDbEntity
  8
0
 62
     0
100
AcDbLine
 10
-556.4999619047703
 20
-337.2565315140992
 30
0.0
 11
556.4999999999945
 21
-867.256233877868
 31
0.0
  0
LINE
  5
28DF
330
30EC
100
AcDbEntity
  8
0
 62
     0
100
AcDbLine
 10
-556.4999619047703
 20
-327.2565797699645
 30
0.0
 11
556.4999999999945
 21
-857.2562821337342
 31
0.0
  0
LINE
  5
28E0
330
30EC
100
AcDbEntity
  8
0
 62
     0
100
AcDbLine
 10
-556.4999619047703
 20
-317.2566280258298
 30
0.0
 11
556.4999999999927
 21
-847.2563303895986
 31
0.0
  0
LINE
  5
28E1
330
30EC
100
AcDbEntity
  8
0
 62
     0
100
AcDbLine
 10
-556.4999619047685
 20
-307.2566762816969
 30
0.0
 11
556.4999999999945
 21
-837.2563786454657
 31
0.0
  0
LINE
  5
28E2
330
30EC
100
AcDbEntity
  8
0
 62
     0
100
AcDbLine
 10
-556.4999619047703
 20
-297.2567245375621
 30
0.0
 11
556.4999999999927
 21
-827.256426901331
 31
0.0
  0
LINE
  5
28E3
330
30EC
100
AcDbEntity
  8
0
 62
     0
100
AcDbLine
 10
-556.4999619047685
 20
-287.2567727934274
 30
0.0
 11
556.4999999999962
 21
-817.2564751571965
 31
0.0
  0
LINE
  5
28E4
330
30EC
100
AcDbEntity
  8
0
 62
     0
100
AcDbLine
 10
-556.4999619047685
 20
-277.2568210492927
 30
0.0
 11
556.4999999999945
 21
-807.2565234130617
 31
0.0
  0
LINE
  5
28E5
330
30EC
100
AcDbEntity
  8
0
 62
     0
100
AcDbLine
 10
-556.4999619047703
 20
-267.256869305158
 30
0.0
 11
556.4999999999927
 21
-797.2565716689265
 31
0.0
  0
LINE
  5
28E6
330
30EC
100
AcDbEntity
  8
0
 62
     0
100
AcDbLine
 10
-556.4999619047664
 20
-257.2569175610251
 30
0.0
 11
556.4999999999962
 21
-787.2566199247936
 31
0.0
  0
LINE
  5
28E7
330
30EC
100
AcDbEntity
  8
0
 62
     0
100
AcDbLine
 10
-556.4999619047703
 20
-247.2569658168895
 30
0.0
 11
556.4999999999927
 21
-777.2566681806588
 31
0.0
  0
LINE
  5
28E8
330
30EC
100
AcDbEntity
  8
0
 62
     0
100
AcDbLine
 10
-556.4999619047685
 20
-237.2570140727557
 30
0.0
 11
556.4999999999962
 21
-767.2567164365242
 31
0.0
  0
LINE
  5
28E9
330
30EC
100
AcDbEntity
  8
0
 62
     0
100
AcDbLine
 10
-556.4999619047685
 20
-227.2570623286201
 30
0.0
 11
556.4999999999945
 21
-757.2567646923895
 31
0.0
  0
LINE
  5
28EA
330
30EC
100
AcDbEntity
  8
0
 62
     0
100
AcDbLine
 10
-556.4999619047703
 20
-217.2571105844854
 30
0.0
 11
556.4999999999927
 21
-747.2568129482547
 31
0.0
  0
LINE
  5
28EB
330
30EC
100
AcDbEntity
  8
0
 62
     0
100
AcDbLine
 10
-556.4999619047685
 20
-207.2571588403507
 30
0.0
 11
556.4999999999945
 21
-737.25686120412
 31
0.0
  0
LINE
  5
28EC
330
30EC
100
AcDbEntity
  8
0
 62
     0
100
AcDbLine
 10
-556.4999619047685
 20
-197.2572070962187
 30
0.0
 11
556.4999999999945
 21
-727.2569094599869
 31
0.0
  0
LINE
  5
28ED
330
30EC
100
AcDbEntity
  8
0
 62
     0
100
AcDbLine
 10
-556.4999619047703
 20
-187.257255352084
 30
0.0
 11
556.4999999999945
 21
-717.2569577158522
 31
0.0
  0
LINE
  5
28EE
330
30EC
100
AcDbEntity
  8
0
 62
     0
100
AcDbLine
 10
-556.4999619047685
 20
-177.2573036079493
 30
0.0
 11
556.4999999999945
 21
-707.2570059717177
 31
0.0
  0
LINE
  5
28EF
330
30EC
100
AcDbEntity
  8
0
 62
     0
100
AcDbLine
 10
-556.4999619047685
 20
-167.2573518638146
 30
0.0
 11
556.4999999999945
 21
-697.257054227583
 31
0.0
  0
LINE
  5
28F0
330
30EC
100
AcDbEntity
  8
0
 62
     0
100
AcDbLine
 10
-556.4999619047703
 20
-157.257400119679
 30
0.0
 11
556.4999999999927
 21
-687.2571024834472
 31
0.0
  0
LINE
  5
28F1
330
30EC
100
AcDbEntity
  8
0
 62
     0
100
AcDbLine
 10
-556.4999619047685
 20
-147.257448375547
 30
0.0
 11
556.4999999999945
 21
-677.2571507393156
 31
0.0
  0
LINE
  5
28F2
330
30EC
100
AcDbEntity
  8
0
 62
     0
100
AcDbLine
 10
-556.4999619047685
 20
-137.2574966314114
 30
0.0
 11
556.4999999999945
 21
-667.2571989951801
 31
0.0
  0
LINE
  5
28F3
330
30EC
100
AcDbEntity
  8
0
 62
     0
100
AcDbLine
 10
-556.4999619047703
 20
-127.2575448872767
 30
0.0
 11
556.4999999999927
 21
-657.2572472510455
 31
0.0
  0
LINE
  5
28F4
330
30EC
100
AcDbEntity
  8
0
 62
     0
100
AcDbLine
 10
-556.4999619047685
 20
-117.257593143142
 30
0.0
 11
556.4999999999962
 21
-647.2572955069108
 31
0.0
  0
LINE
  5
28F5
330
30EC
100
AcDbEntity
  8
0
 62
     0
100
AcDbLine
 10
-556.4999619047685
 20
-107.2576413990073
 30
0.0
 11
556.4999999999945
 21
-637.2573437627761
 31
0.0
  0
LINE
  5
28F6
330
30EC
100
AcDbEntity
  8
0
 62
     0
100
AcDbLine
 10
-540.2411016058866
 20
-105.0
 30
0.0
 11
556.4999999999927
 21
-627.2573920186417
 31
0.0
  0
LINE
  5
28F7
330
30EC
100
AcDbEntity
  8
0
 62
     0
100
AcDbLine
 10
-519.2411918688939
 20
-105.0000000000018
 30
0.0
 11
556.4999999999962
 21
-617.2574402745085
 31
0.0
  0
LINE
  5
28F8
330
30EC
100
AcDbEntity
  8
0
 62
     0
100
AcDbLine
 10
-498.2412821319049
 20
-105.0000000000018
 30
0.0
 11
556.4999999999945
 21
-607.2574885303738
 31
0.0
  0
LINE
  5
28F9
330
30EC
100
AcDbEntity
  8
0
 62
     0
100
AcDbLine
 10
-477.2413723949139
 20
-105.0000000000009
 30
0.0
 11
556.4999999999945
 21
-597.2575367862392
 31
0.0
  0
LINE
  5
28FA
330
30EC
100
AcDbEntity
  8
0
 62
     0
100
AcDbLine
 10
-456.2414626579228
 20
-105.0000000000009
 30
0.0
 11
556.4999999999962
 21
-587.2575850421044
 31
0.0
  0
LINE
  5
28FB
330
30EC
100
AcDbEntity
  8
0
 62
     0
100
AcDbLine
 10
-435.241552920932
 20
-105.0000000000009
 30
0.0
 11
556.4999999999927
 21
-577.2576332979687
 31
0.0
  0
LINE
  5
28FC
330
30EC
100
AcDbEntity
  8
0
 62
     0
100
AcDbLine
 10
-414.2416431839428
 20
-105.0000000000018
 30
0.0
 11
556.4999999999945
 21
-567.2576815538359
 31
0.0
  0
LINE
  5
28FD
330
30EC
100
AcDbEntity
  8
0
 62
     0
100
AcDbLine
 10
-393.2417334469501
 20
-105.0000000000018
 30
0.0
 11
556.4999999999945
 21
-557.257729809701
 31
0.0
  0
LINE
  5
28FE
330
30EC
100
AcDbEntity
  8
0
 62
     0
100
AcDbLine
 10
-372.2418237099609
 20
-105.0000000000009
 30
0.0
 11
556.4999999999945
 21
-547.2577780655665
 31
0.0
  0
LINE
  5
28FF
330
30EC
100
AcDbEntity
  8
0
 62
     0
100
AcDbLine
 10
-351.2419139729682
 20
-105.0000000000009
 30
0.0
 11
556.4999999999945
 21
-537.2578263214318
 31
0.0
  0
LINE
  5
2900
330
30EC
100
AcDbEntity
  8
0
 62
     0
100
AcDbLine
 10
-330.2420042359789
 20
-105.0
 30
0.0
 11
556.4999999999945
 21
-527.2578745772971
 31
0.0
  0
LINE
  5
2901
330
30EC
100
AcDbEntity
  8
0
 62
     0
100
AcDbLine
 10
-309.2420944989881
 20
-105.0000000000018
 30
0.0
 11
556.4999999999945
 21
-517.2579228331642
 31
0.0
  0
LINE
  5
2902
330
30EC
100
AcDbEntity
  8
0
 62
     0
100
AcDbLine
 10
-288.2421847619971
 20
-105.0000000000018
 30
0.0
 11
556.4999999999927
 21
-507.2579710890294
 31
0.0
  0
LINE
  5
2903
330
30EC
100
AcDbEntity
  8
0
 62
     0
100
AcDbLine
 10
-267.2422750250063
 20
-105.0000000000018
 30
0.0
 11
556.4999999999962
 21
-497.2580193448947
 31
0.0
  0
LINE
  5
2904
330
30EC
100
AcDbEntity
  8
0
 62
     0
100
AcDbLine
 10
-246.242365288017
 20
-105.0000000000009
 30
0.0
 11
556.4999999999927
 21
-487.2580676007599
 31
0.0
  0
LINE
  5
2905
330
30EC
100
AcDbEntity
  8
0
 62
     0
100
AcDbLine
 10
-225.2424555510244
 20
-105.0000000000009
 30
0.0
 11
556.4999999999945
 21
-477.2581158566254
 31
0.0
  0
LINE
  5
2906
330
30EC
100
AcDbEntity
  8
0
 62
     0
100
AcDbLine
 10
-204.2425458140351
 20
-105.0
 30
0.0
 11
556.4999999999945
 21
-467.2581641124907
 31
0.0
  0
LINE
  5
2907
330
30EC
100
AcDbEntity
  8
0
 62
     0
100
AcDbLine
 10
-183.2426360770441
 20
-105.0000000000018
 30
0.0
 11
556.4999999999945
 21
-457.2582123683576
 31
0.0
  0
LINE
  5
2908
330
30EC
100
AcDbEntity
  8
0
 62
     0
100
AcDbLine
 10
-162.2427263400514
 20
-105.0000000000018
 30
0.0
 11
556.4999999999962
 21
-447.2582606242231
 31
0.0
  0
LINE
  5
2909
330
30EC
100
AcDbEntity
  8
0
 62
     0
100
AcDbLine
 10
-141.2428166030622
 20
-105.0000000000018
 30
0.0
 11
556.4999999999945
 21
-437.258308880088
 31
0.0
  0
LINE
  5
290A
330
30EC
100
AcDbEntity
  8
0
 62
     0
100
AcDbLine
 10
-120.2429068660694
 20
-105.0000000000009
 30
0.0
 11
556.4999999999945
 21
-427.2583571359537
 31
0.0
  0
LINE
  5
290B
330
30EC
100
AcDbEntity
  8
0
 62
     0
100
AcDbLine
 10
-99.24299712907851
 20
-105.0000000000009
 30
0.0
 11
556.4999999999945
 21
-417.258405391818
 31
0.0
  0
LINE
  5
290C
330
30EC
100
AcDbEntity
  8
0
 62
     0
100
AcDbLine
 10
-78.24308739209119
 20
-105.0000000000018
 30
0.0
 11
556.4999999999927
 21
-407.2584536476851
 31
0.0
  0
LINE
  5
290D
330
30EC
100
AcDbEntity
  8
0
 62
     0
100
AcDbLine
 10
340.6999999999953
 20
-294.4966513331656
 30
0.0
 11
349.7370369660348
 21
-298.800000000002
 31
0.0
  0
LINE
  5
290E
330
30EC
100
AcDbEntity
  8
0
 62
     0
100
AcDbLine
 10
349.7370369660348
 20
-298.800000000002
 30
0.0
 11
556.4999999999945
 21
-397.2585019035505
 31
0.0
  0
LINE
  5
290F
330
30EC
100
AcDbEntity
  8
0
 62
     0
100
AcDbLine
 10
-57.24317765510022
 20
-105.0000000000009
 30
0.0
 11
340.6999999999953
 21
-294.4966513331656
 31
0.0
  0
LINE
  5
2910
330
30EC
100
AcDbEntity
  8
0
 62
     0
100
AcDbLine
 10
340.6999999999953
 20
-284.4966995890309
 30
0.0
 11
370.7369467030257
 21
-298.800000000002
 31
0.0
  0
LINE
  5
2911
330
30EC
100
AcDbEntity
  8
0
 62
     0
100
AcDbLine
 10
370.7369467030276
 20
-298.8000000000028
 30
0.0
 11
556.4999999999945
 21
-387.2585501594157
 31
0.0
  0
LINE
  5
2912
330
30EC
100
AcDbEntity
  8
0
 62
     0
100
AcDbLine
 10
-36.24326791810928
 20
-105.0000000000009
 30
0.0
 11
340.6999999999953
 21
-284.4966995890309
 31
0.0
  0
LINE
  5
2913
330
30EC
100
AcDbEntity
  8
0
 62
     0
100
AcDbLine
 10
340.6999999999935
 20
-274.4967478448962
 30
0.0
 11
391.7368564400168
 21
-298.800000000002
 31
0.0
  0
LINE
  5
2914
330
30EC
100
AcDbEntity
  8
0
 62
     0
100
AcDbLine
 10
391.7368564400185
 20
-298.8000000000028
 30
0.0
 11
556.4999999999927
 21
-377.2585984152811
 31
0.0
  0
LINE
  5
2915
330
30EC
100
AcDbEntity
  8
0
 62
     0
100
AcDbLine
 10
-15.24335818111831
 20
-105.0000000000009
 30
0.0
 11
340.6999999999935
 21
-274.4967478448962
 31
0.0
  0
LINE
  5
2916
330
30EC
100
AcDbEntity
  8
0
 62
     0
100
AcDbLine
 10
340.6999999999953
 20
-264.4967961007615
 30
0.0
 11
412.7367661770076
 21
-298.800000000002
 31
0.0
  0
LINE
  5
2917
330
30EC
100
AcDbEntity
  8
0
 62
     0
100
AcDbLine
 10
412.7367661770095
 20
-298.8000000000028
 30
0.0
 11
556.4999999999945
 21
-367.2586466711464
 31
0.0
  0
LINE
  5
2918
330
30EC
100
AcDbEntity
  8
0
 62
     0
100
AcDbLine
 10
5.756551555872648
 20
-105.0000000000009
 30
0.0
 11
340.6999999999953
 21
-264.4967961007615
 31
0.0
  0
LINE
  5
2919
330
30EC
100
AcDbEntity
  8
0
 62
     0
100
AcDbLine
 10
340.6999999999953
 20
-254.4968443566276
 30
0.0
 11
433.736675914
 21
-298.800000000002
 31
0.0
  0
LINE
  5
291A
330
30EC
100
AcDbEntity
  8
0
 62
     0
100
AcDbLine
 10
433.7366759140023
 20
-298.8000000000028
 30
0.0
 11
556.4999999999945
 21
-357.2586949270117
 31
0.0
  0
LINE
  5
291B
330
30EC
100
AcDbEntity
  8
0
 62
     0
100
AcDbLine
 10
26.75646129286543
 20
-105.0000000000009
 30
0.0
 11
340.6999999999935
 21
-254.4968443566268
 31
0.0
  0
LINE
  5
291C
330
30EC
100
AcDbEntity
  8
0
 62
     0
100
AcDbLine
 10
340.6999999999935
 20
-244.4968926124948
 30
0.0
 11
454.7365856509895
 21
-298.8000000000038
 31
0.0
  0
LINE
  5
291D
330
30EC
100
AcDbEntity
  8
0
 62
     0
100
AcDbLine
 10
454.7365856509911
 20
-298.8000000000038
 30
0.0
 11
556.4999999999927
 21
-347.2587431828779
 31
0.0
  0
LINE
  5
291E
330
30EC
100
AcDbEntity
  8
0
 62
     0
100
AcDbLine
 10
47.75637102985456
 20
-105.0000000000027
 30
0.0
 11
340.6999999999935
 21
-244.4968926124948
 31
0.0
  0
LINE
  5
291F
330
30EC
100
AcDbEntity
  8
0
 62
     0
100
AcDbLine
 10
340.6999999999935
 20
-234.4969408683592
 30
0.0
 11
475.7364953879805
 21
-298.8000000000028
 31
0.0
  0
LINE
  5
2920
330
30EC
100
AcDbEntity
  8
0
 62
     0
100
AcDbLine
 10
475.7364953879805
 20
-298.8000000000038
 30
0.0
 11
556.4999999999945
 21
-337.258791438744
 31
0.0
  0
LINE
  5
2921
330
30EC
100
AcDbEntity
  8
0
 62
     0
100
AcDbLine
 10
68.75628076684552
 20
-105.0000000000018
 30
0.0
 11
340.6999999999935
 21
-234.4969408683592
 31
0.0
  0
LINE
  5
2922
330
30EC
100
AcDbEntity
  8
0
 62
     0
100
AcDbLine
 10
340.6999999999953
 20
-224.4969891242253
 30
0.0
 11
496.7364051249711
 21
-298.8000000000028
 31
0.0
  0
LINE
  5
2923
330
30EC
100
AcDbEntity
  8
0
 62
     0
100
AcDbLine
 10
496.7364051249732
 20
-298.8000000000028
 30
0.0
 11
556.4999999999945
 21
-327.2588396946085
 31
0.0
  0
LINE
  5
2924
330
30EC
100
AcDbEntity
  8
0
 62
     0
100
AcDbLine
 10
89.75619050383468
 20
-105.0000000000009
 30
0.0
 11
340.6999999999935
 21
-224.4969891242245
 31
0.0
  0
LINE
  5
2925
330
30EC
100
AcDbEntity
  8
0
 62
     0
100
AcDbLine
 10
340.6999999999935
 20
-214.4970373800898
 30
0.0
 11
517.7363148619606
 21
-298.800000000002
 31
0.0
  0
LINE
  5
2926
330
30EC
100
AcDbEntity
  8
0
 62
     0
100
AcDbLine
 10
517.7363148619624
 20
-298.8000000000028
 30
0.0
 11
556.4999999999927
 21
-317.2588879504738
 31
0.0
  0
LINE
  5
2927
330
30EC
100
AcDbEntity
  8
0
 62
     0
100
AcDbLine
 10
110.7561002408256
 20
-105.0000000000009
 30
0.0
 11
340.6999999999935
 21
-214.4970373800898
 31
0.0
  0
LINE
  5
2928
330
30EC
100
AcDbEntity
  8
0
 62
     0
100
AcDbLine
 10
340.6999999999953
 20
-204.4970856359551
 30
0.0
 11
538.7362245989534
 21
-298.8000000000011
 31
0.0
  0
LINE
  5
2929
330
30EC
100
AcDbEntity
  8
0
 62
     0
100
AcDbLine
 10
538.736224598957
 20
-298.8000000000028
 30
0.0
 11
556.4999999999945
 21
-307.2589362063391
 31
0.0
  0
LINE
  5
292A
330
30EC
100
AcDbEntity
  8
0
 62
     0
100
AcDbLine
 10
131.7560099778184
 20
-105.0000000000009
 30
0.0
 11
340.6999999999953
 21
-204.4970856359551
 31
0.0
  0
LINE
  5
292B
330
30EC
100
AcDbEntity
  8
0
 62
     0
100
AcDbLine
 10
340.6999999999953
 20
-194.4971338918221
 30
0.0
 11
556.4999999999927
 21
-297.2589844622062
 31
0.0
  0
LINE
  5
292C
330
30EC
100
AcDbEntity
  8
0
 62
     0
100
AcDbLine
 10
152.7559197148075
 20
-105.0000000000018
 30
0.0
 11
340.6999999999953
 21
-194.4971338918221
 31
0.0
  0
LINE
  5
292D
330
30EC
100
AcDbEntity
  8
0
 62
     0
100
AcDbLine
 10
340.6999999999953
 20
-184.4971821476874
 30
0.0
 11
556.4999999999908
 21
-287.2590327180706
 31
0.0
  0
LINE
  5
292E
330
30EC
100
AcDbEntity
  8
0
 62
     0
100
AcDbLine
 10
173.7558294518003
 20
-105.0000000000018
 30
0.0
 11
340.6999999999953
 21
-184.4971821476874
 31
0.0
  0
LINE
  5
292F
330
30EC
100
AcDbEntity
  8
0
 62
     0
100
AcDbLine
 10
340.6999999999953
 20
-174.4972304035527
 30
0.0
 11
556.4999999999945
 21
-277.2590809739368
 31
0.0
  0
LINE
  5
2930
330
30EC
100
AcDbEntity
  8
0
 62
     0
100
AcDbLine
 10
194.7557391887891
 20
-105.0000000000009
 30
0.0
 11
340.6999999999953
 21
-174.4972304035527
 31
0.0
  0
LINE
  5
2931
330
30EC
100
AcDbEntity
  8
0
 62
     0
100
AcDbLine
 10
340.6999999999953
 20
-164.497278659418
 30
0.0
 11
556.4999999999908
 21
-267.2591292298012
 31
0.0
  0
LINE
  5
2932
330
30EC
100
AcDbEntity
  8
0
 62
     0
100
AcDbLine
 10
215.7556489257804
 20
-105.0000000000009
 30
0.0
 11
340.6999999999935
 21
-164.4972786594171
 31
0.0
  0
LINE
  5
2933
330
30EC
100
AcDbEntity
  8
0
 62
     0
100
AcDbLine
 10
340.6999999999953
 20
-154.4973269152833
 30
0.0
 11
556.4999999999927
 21
-257.2591774856674
 31
0.0
  0
LINE
  5
2934
330
30EC
100
AcDbEntity
  8
0
 62
     0
100
AcDbLine
 10
236.7555586627714
 20
-105.0000000000009
 30
0.0
 11
340.6999999999953
 21
-154.4973269152833
 31
0.0
  0
LINE
  5
2935
330
30EC
100
AcDbEntity
  8
0
 62
     0
100
AcDbLine
 10
340.6999999999953
 20
-144.4973751711495
 30
0.0
 11
556.4999999999927
 21
-247.2592257415335
 31
0.0
  0
LINE
  5
2936
330
30EC
100
AcDbEntity
  8
0
 62
     0
100
AcDbLine
 10
257.7554683997623
 20
-105.0000000000018
 30
0.0
 11
340.6999999999953
 21
-144.4973751711495
 31
0.0
  0
LINE
  5
2937
330
30EC
100
AcDbEntity
  8
0
 62
     0
100
AcDbLine
 10
340.6999999999953
 20
-134.4974234270157
 30
0.0
 11
556.4999999999908
 21
-237.2592739973988
 31
0.0
  0
LINE
  5
2938
330
30EC
100
AcDbEntity
  8
0
 62
     0
100
AcDbLine
 10
278.7553781367515
 20
-105.0000000000018
 30
0.0
 11
340.6999999999935
 21
-134.4974234270148
 31
0.0
  0
LINE
  5
2939
330
30EC
100
AcDbEntity
  8
0
 62
     0
100
AcDbLine
 10
340.6999999999935
 20
-124.4974716828801
 30
0.0
 11
556.4999999999927
 21
-227.2593222532641
 31
0.0
  0
LINE
  5
293A
330
30EC
100
AcDbEntity
  8
0
 62
     0
100
AcDbLine
 10
299.7552878737442
 20
-105.0000000000018
 30
0.0
 11
340.6999999999935
 21
-124.4974716828801
 31
0.0
  0
LINE
  5
293B
330
30EC
100
AcDbEntity
  8
0
 62
     0
100
AcDbLine
 10
340.6999999999953
 20
-114.4975199387454
 30
0.0
 11
556.4999999999927
 21
-217.2593705091294
 31
0.0
  0
LINE
  5
293C
330
30EC
100
AcDbEntity
  8
0
 62
     0
100
AcDbLine
 10
320.7551976107352
 20
-105.0000000000018
 30
0.0
 11
340.6999999999953
 21
-114.4975199387454
 31
0.0
  0
LINE
  5
293D
330
30EC
100
AcDbEntity
  8
0
 62
     0
100
AcDbLine
 10
341.7551073477262
 20
-105.0000000000018
 30
0.0
 11
556.4999999999908
 21
-207.2594187649947
 31
0.0
  0
LINE
  5
293E
330
30EC
100
AcDbEntity
  8
0
 62
     0
100
AcDbLine
 10
362.755017084719
 20
-105.0000000000018
 30
0.0
 11
556.4999999999927
 21
-197.25946702086
 31
0.0
  0
LINE
  5
293F
330
30EC
100
AcDbEntity
  8
0
 62
     0
100
AcDbLine
 10
383.7549268217081
 20
-105.0000000000027
 30
0.0
 11
556.4999999999945
 21
-187.259515276728
 31
0.0
  0
LINE
  5
2940
330
30EC
100
AcDbEntity
  8
0
 62
     0
100
AcDbLine
 10
404.7548365586989
 20
-105.0000000000027
 30
0.0
 11
556.4999999999945
 21
-177.2595635325932
 31
0.0
  0
LINE
  5
2941
330
30EC
100
AcDbEntity
  8
0
 62
     0
100
AcDbLine
 10
425.7547462956916
 20
-105.0000000000027
 30
0.0
 11
556.4999999999945
 21
-167.2596117884577
 31
0.0
  0
LINE
  5
2942
330
30EC
100
AcDbEntity
  8
0
 62
     0
100
AcDbLine
 10
446.7546560326808
 20
-105.0000000000018
 30
0.0
 11
556.4999999999945
 21
-157.2596600443239
 31
0.0
  0
LINE
  5
2943
330
30EC
100
AcDbEntity
  8
0
 62
     0
100
AcDbLine
 10
467.75456576967
 20
-105.0000000000018
 30
0.0
 11
556.4999999999927
 21
-147.2597083001882
 31
0.0
  0
LINE
  5
2944
330
30EC
100
AcDbEntity
  8
0
 62
     0
100
AcDbLine
 10
488.7544755066626
 20
-105.0000000000036
 30
0.0
 11
556.4999999999945
 21
-137.2597565560554
 31
0.0
  0
LINE
  5
2945
330
30EC
100
AcDbEntity
  8
0
 62
     0
100
AcDbLine
 10
509.7543852436537
 20
-105.0000000000036
 30
0.0
 11
556.4999999999945
 21
-127.2598048119207
 31
0.0
  0
LINE
  5
2946
330
30EC
100
AcDbEntity
  8
0
 62
     0
100
AcDbLine
 10
530.7542949806447
 20
-105.0000000000036
 30
0.0
 11
556.4999999999945
 21
-117.259853067786
 31
0.0
  0
LINE
  5
2947
330
30EC
100
AcDbEntity
  8
0
 62
     0
100
AcDbLine
 10
551.7542047176376
 20
-105.0000000000036
 30
0.0
 11
556.4999999999945
 21
-107.2599013236513
 31
0.0
  0
ENDBLK
  5
2948
330
30EC
100
AcDbEntity
  8
0
100
AcDbBlockEnd
  0
BLOCK
  5
30EF
330
30EE
100
AcDbEntity
  8
0
100
AcDbBlockBegin
  2
*X71
 70
     1
 10
0.0
 20
0.0
 30
0.0
  3
*X71
  1

  0
LINE
  5
294B
330
30EE
100
AcDbEntity
  8
0
 62
     0
100
AcDbLine
 10
548.7710960666336
 20
-1035.0
 30
0.0
 11
556.5000000000017
 21
-1031.319571496414
 31
0.0
  0
LINE
  5
294C
330
30EE
100
AcDbEntity
  8
0
 62
     0
100
AcDbLine
 10
527.7711863296425
 20
-1034.999999999999
 30
0.0
 11
556.5
 21
-1021.31961975228
 31
0.0
  0
LINE
  5
294D
330
30EE
100
AcDbEntity
  8
0
 62
     0
100
AcDbLine
 10
506.7712765926497
 20
-1035.0
 30
0.0
 11
556.5
 21
-1011.319668008146
 31
0.0
  0
LINE
  5
294E
330
30EE
100
AcDbEntity
  8
0
 62
     0
100
AcDbLine
 10
485.7713668556589
 20
-1035.0
 30
0.0
 11
556.5
 21
-1001.319716264011
 31
0.0
  0
LINE
  5
294F
330
30EE
100
AcDbEntity
  8
0
 62
     0
100
AcDbLine
 10
464.7714571186678
 20
-1035.0
 30
0.0
 11
556.5
 21
-991.3197645198771
 31
0.0
  0
LINE
  5
2950
330
30EE
100
AcDbEntity
  8
0
 62
     0
100
AcDbLine
 10
443.7715473816767
 20
-1035.000000000001
 30
0.0
 11
556.5
 21
-981.3198127757432
 31
0.0
  0
LINE
  5
2951
330
30EE
100
AcDbEntity
  8
0
 62
     0
100
AcDbLine
 10
422.7716376446879
 20
-1034.999999999999
 30
0.0
 11
556.5
 21
-971.3198610316084
 31
0.0
  0
LINE
  5
2952
330
30EE
100
AcDbEntity
  8
0
 62
     0
100
AcDbLine
 10
401.7717279076986
 20
-1035.0
 30
0.0
 11
556.5000000000017
 21
-961.3199092874749
 31
0.0
  0
LINE
  5
2953
330
30EE
100
AcDbEntity
  8
0
 62
     0
100
AcDbLine
 10
380.7718181707078
 20
-1035.0
 30
0.0
 11
556.5
 21
-951.31995754334
 31
0.0
  0
LINE
  5
2954
330
30EE
100
AcDbEntity
  8
0
 62
     0
100
AcDbLine
 10
359.771908433715
 20
-1035.0
 30
0.0
 11
556.5
 21
-941.3200057992051
 31
0.0
  0
LINE
  5
2955
330
30EE
100
AcDbEntity
  8
0
 62
     0
100
AcDbLine
 10
338.771998696724
 20
-1035.000000000001
 30
0.0
 11
556.499999999998
 21
-931.3200540550715
 31
0.0
  0
LINE
  5
2956
330
30EE
100
AcDbEntity
  8
0
 62
     0
100
AcDbLine
 10
317.772088959733
 20
-1035.000000000001
 30
0.0
 11
556.5
 21
-921.3201023109364
 31
0.0
  0
LINE
  5
2957
330
30EE
100
AcDbEntity
  8
0
 62
     0
100
AcDbLine
 10
296.7721792227422
 20
-1035.000000000001
 30
0.0
 11
556.5000000000017
 21
-911.3201505668019
 31
0.0
  0
LINE
  5
2958
330
30EE
100
AcDbEntity
  8
0
 62
     0
100
AcDbLine
 10
275.772269485753
 20
-1035.0
 30
0.0
 11
556.499999999998
 21
-901.3201988226684
 31
0.0
  0
LINE
  5
2959
330
30EE
100
AcDbEntity
  8
0
 62
     0
100
AcDbLine
 10
254.7723597487637
 20
-1034.999999999999
 30
0.0
 11
556.5000000000017
 21
-891.3202470785327
 31
0.0
  0
LINE
  5
295A
330
30EE
100
AcDbEntity
  8
0
 62
     0
100
AcDbLine
 10
233.7724500117711
 20
-1035.0
 30
0.0
 11
556.5
 21
-881.3202953343987
 31
0.0
  0
LINE
  5
295B
330
30EE
100
AcDbEntity
  8
0
 62
     0
100
AcDbLine
 10
212.7725402747801
 20
-1035.0
 30
0.0
 11
556.5
 21
-871.3203435902643
 31
0.0
  0
LINE
  5
295C
330
30EE
100
AcDbEntity
  8
0
 62
     0
100
AcDbLine
 10
191.7726305377891
 20
-1035.0
 30
0.0
 11
556.5
 21
-861.3203918461293
 31
0.0
  0
LINE
  5
295D
330
30EE
100
AcDbEntity
  8
0
 62
     0
100
AcDbLine
 10
170.7727208007982
 20
-1035.000000000001
 30
0.0
 11
556.5
 21
-851.3204401019956
 31
0.0
  0
LINE
  5
295E
330
30EE
100
AcDbEntity
  8
0
 62
     0
100
AcDbLine
 10
149.7728110638109
 20
-1034.999999999999
 30
0.0
 11
556.5
 21
-841.3204883578606
 31
0.0
  0
LINE
  5
295F
330
30EE
100
AcDbEntity
  8
0
 62
     0
100
AcDbLine
 10
128.772901326818
 20
-1034.999999999999
 30
0.0
 11
556.499999999998
 21
-831.3205366137262
 31
0.0
  0
LINE
  5
2960
330
30EE
100
AcDbEntity
  8
0
 62
     0
100
AcDbLine
 10
107.7729915898289
 20
-1035.0
 30
0.0
 11
556.5000000000017
 21
-821.3205848695912
 31
0.0
  0
LINE
  5
2961
330
30EE
100
AcDbEntity
  8
0
 62
     0
100
AcDbLine
 10
86.77308185283619
 20
-1035.0
 30
0.0
 11
556.5
 21
-811.3206331254573
 31
0.0
  0
LINE
  5
2962
330
30EE
100
AcDbEntity
  8
0
 62
     0
100
AcDbLine
 10
65.77317211584523
 20
-1035.000000000001
 30
0.0
 11
556.5
 21
-801.320681381323
 31
0.0
  0
LINE
  5
2963
330
30EE
100
AcDbEntity
  8
0
 62
     0
100
AcDbLine
 10
44.77326237885606
 20
-1035.000000000001
 30
0.0
 11
556.5000000000017
 21
-791.3207296371886
 31
0.0
  0
LINE
  5
2964
330
30EE
100
AcDbEntity
  8
0
 62
     0
100
AcDbLine
 10
23.77335264186331
 20
-1035.0
 30
0.0
 11
556.5
 21
-781.3207778930534
 31
0.0
  0
LINE
  5
2965
330
30EE
100
AcDbEntity
  8
0
 62
     0
100
AcDbLine
 10
2.773442904875992
 20
-1035.0
 30
0.0
 11
556.5
 21
-771.3208261489199
 31
0.0
  0
LINE
  5
2966
330
30EE
100
AcDbEntity
  8
0
 62
     0
100
AcDbLine
 10
-18.2264668321186
 20
-1035.0
 30
0.0
 11
556.5
 21
-761.3208744047851
 31
0.0
  0
LINE
  5
2967
330
30EE
100
AcDbEntity
  8
0
 62
     0
100
AcDbLine
 10
-39.22637656910774
 20
-1035.000000000001
 30
0.0
 11
556.5
 21
-751.3209226606509
 31
0.0
  0
LINE
  5
2968
330
30EE
100
AcDbEntity
  8
0
 62
     0
100
AcDbLine
 10
-60.22628630610052
 20
-1035.000000000001
 30
0.0
 11
556.5
 21
-741.3209709165165
 31
0.0
  0
LINE
  5
2969
330
30EE
100
AcDbEntity
  8
0
 62
     0
100
AcDbLine
 10
-81.22619604309145
 20
-1035.000000000001
 30
0.0
 11
556.5
 21
-731.3210191723817
 31
0.0
  0
LINE
  5
296A
330
30EE
100
AcDbEntity
  8
0
 62
     0
100
AcDbLine
 10
-102.2261057800806
 20
-1035.000000000002
 30
0.0
 11
556.5
 21
-721.3210674282491
 31
0.0
  0
LINE
  5
296B
330
30EE
100
AcDbEntity
  8
0
 62
     0
100
AcDbLine
 10
-123.2260155170697
 20
-1035.0
 30
0.0
 11
556.5
 21
-711.3211156841133
 31
0.0
  0
LINE
  5
296C
330
30EE
100
AcDbEntity
  8
0
 62
     0
100
AcDbLine
 10
-144.2259252540625
 20
-1035.0
 30
0.0
 11
556.499999999998
 21
-701.3211639399795
 31
0.0
  0
LINE
  5
296D
330
30EE
100
AcDbEntity
  8
0
 62
     0
100
AcDbLine
 10
-165.2258349910517
 20
-1035.0
 30
0.0
 11
556.499999999998
 21
-691.3212121958459
 31
0.0
  0
LINE
  5
296E
330
30EE
100
AcDbEntity
  8
0
 62
     0
100
AcDbLine
 10
-186.2257447280408
 20
-1035.0
 30
0.0
 11
556.499999999998
 21
-681.3212604517111
 31
0.0
  0
LINE
  5
296F
330
30EE
100
AcDbEntity
  8
0
 62
     0
100
AcDbLine
 10
-207.2256544650336
 20
-1035.000000000001
 30
0.0
 11
556.499999999998
 21
-671.3213087075772
 31
0.0
  0
LINE
  5
2970
330
30EE
100
AcDbEntity
  8
0
 62
     0
100
AcDbLine
 10
-228.2255642020246
 20
-1035.000000000001
 30
0.0
 11
556.499999999998
 21
-661.3213569634425
 31
0.0
  0
LINE
  5
2971
330
30EE
100
AcDbEntity
  8
0
 62
     0
100
AcDbLine
 10
-249.2254739390155
 20
-1035.000000000001
 30
0.0
 11
556.499999999998
 21
-651.3214052193078
 31
0.0
  0
LINE
  5
2972
330
30EE
100
AcDbEntity
  8
0
 62
     0
100
AcDbLine
 10
-270.2253836760065
 20
-1035.000000000001
 30
0.0
 11
556.499999999998
 21
-641.321453475174
 31
0.0
  0
LINE
  5
2973
330
30EE
100
AcDbEntity
  8
0
 62
     0
100
AcDbLine
 10
-291.2252934129957
 20
-1035.0
 30
0.0
 11
556.499999999998
 21
-631.3215017310385
 31
0.0
  0
LINE
  5
2974
330
30EE
100
AcDbEntity
  8
0
 62
     0
100
AcDbLine
 10
-312.2252031499865
 20
-1034.999999999999
 30
0.0
 11
556.499999999998
 21
-621.3215499869038
 31
0.0
  0
LINE
  5
2975
330
30EE
100
AcDbEntity
  8
0
 62
     0
100
AcDbLine
 10
-333.2251128869775
 20
-1035.0
 30
0.0
 11
556.5
 21
-611.3215982427702
 31
0.0
  0
LINE
  5
2976
330
30EE
100
AcDbEntity
  8
0
 62
     0
100
AcDbLine
 10
-354.2250226239685
 20
-1035.0
 30
0.0
 11
556.499999999998
 21
-601.3216464986355
 31
0.0
  0
LINE
  5
2977
330
30EE
100
AcDbEntity
  8
0
 62
     0
100
AcDbLine
 10
-375.2249323609594
 20
-1035.000000000001
 30
0.0
 11
556.499999999998
 21
-591.3216947545016
 31
0.0
  0
LINE
  5
2978
330
30EE
100
AcDbEntity
  8
0
 62
     0
100
AcDbLine
 10
-396.2248420979504
 20
-1035.000000000001
 30
0.0
 11
556.499999999998
 21
-581.3217430103668
 31
0.0
  0
LINE
  5
2979
330
30EE
100
AcDbEntity
  8
0
 62
     0
100
AcDbLine
 10
-417.224751834941
 20
-1035.000000000001
 30
0.0
 11
556.499999999998
 21
-571.3217912662321
 31
0.0
  0
LINE
  5
297A
330
30EE
100
AcDbEntity
  8
0
 62
     0
100
AcDbLine
 10
-438.2246615719337
 20
-1035.000000000002
 30
0.0
 11
556.499999999998
 21
-561.3218395220983
 31
0.0
  0
LINE
  5
297B
330
30EE
100
AcDbEntity
  8
0
 62
     0
100
AcDbLine
 10
-459.2245713089196
 20
-1035.0
 30
0.0
 11
556.499999999998
 21
-551.3218877779637
 31
0.0
  0
LINE
  5
297C
330
30EE
100
AcDbEntity
  8
0
 62
     0
100
AcDbLine
 10
-480.2244810459121
 20
-1035.0
 30
0.0
 11
556.5
 21
-541.321936033828
 31
0.0
  0
LINE
  5
297D
330
30EE
100
AcDbEntity
  8
0
 62
     0
100
AcDbLine
 10
-501.2243907829033
 20
-1035.000000000001
 30
0.0
 11
556.499999999998
 21
-531.3219842896942
 31
0.0
  0
LINE
  5
297E
330
30EE
100
AcDbEntity
  8
0
 62
     0
100
AcDbLine
 10
-522.2243005198961
 20
-1035.000000000001
 30
0.0
 11
556.499999999998
 21
-521.3220325455591
 31
0.0
  0
LINE
  5
297F
330
30EE
100
AcDbEntity
  8
0
 62
     0
100
AcDbLine
 10
-543.2242102568852
 20
-1035.000000000001
 30
0.0
 11
556.499999999998
 21
-511.3220808014257
 31
0.0
  0
LINE
  5
2980
330
30EE
100
AcDbEntity
  8
0
 62
     0
100
AcDbLine
 10
-556.4999619047612
 20
-1031.321831421059
 30
0.0
 11
556.499999999998
 21
-501.322129057291
 31
0.0
  0
LINE
  5
2981
330
30EE
100
AcDbEntity
  8
0
 62
     0
100
AcDbLine
 10
-556.499961904763
 20
-1021.321879676925
 30
0.0
 11
556.499999999998
 21
-491.3221773131572
 31
0.0
  0
LINE
  5
2982
330
30EE
100
AcDbEntity
  8
0
 62
     0
100
AcDbLine
 10
-556.4999619047612
 20
-1011.32192793279
 30
0.0
 11
556.499999999998
 21
-481.3222255690233
 31
0.0
  0
LINE
  5
2983
330
30EE
100
AcDbEntity
  8
0
 62
     0
100
AcDbLine
 10
-556.499961904763
 20
-1001.321976188656
 30
0.0
 11
556.5
 21
-471.3222738248878
 31
0.0
  0
LINE
  5
2984
330
30EE
100
AcDbEntity
  8
0
 62
     0
100
AcDbLine
 10
-556.499961904763
 20
-991.3220244445211
 30
0.0
 11
556.4999999999962
 21
-461.3223220807539
 31
0.0
  0
LINE
  5
2985
330
30EE
100
AcDbEntity
  8
0
 62
     0
100
AcDbLine
 10
-556.4999619047647
 20
-981.322072700388
 30
0.0
 11
556.499999999998
 21
-451.3223703366191
 31
0.0
  0
LINE
  5
2986
330
30EE
100
AcDbEntity
  8
0
 62
     0
100
AcDbLine
 10
-556.4999619047612
 20
-971.3221209562524
 30
0.0
 11
556.5
 21
-441.3224185924844
 31
0.0
  0
LINE
  5
2987
330
30EE
100
AcDbEntity
  8
0
 62
     0
100
AcDbLine
 10
-556.4999619047647
 20
-961.3221692121195
 30
0.0
 11
556.499999999998
 21
-431.3224668483508
 31
0.0
  0
LINE
  5
2988
330
30EE
100
AcDbEntity
  8
0
 62
     0
100
AcDbLine
 10
-556.499961904763
 20
-951.3222174679841
 30
0.0
 11
556.499999999998
 21
-421.3225151042159
 31
0.0
  0
LINE
  5
2989
330
30EE
100
AcDbEntity
  8
0
 62
     0
100
AcDbLine
 10
-556.4999619047612
 20
-941.3222657238494
 30
0.0
 11
556.499999999998
 21
-411.3225633600814
 31
0.0
  0
LINE
  5
298A
330
30EE
100
AcDbEntity
  8
0
 62
     0
100
AcDbLine
 10
-556.499961904763
 20
-931.3223139797155
 30
0.0
 11
556.5
 21
-401.3226116159465
 31
0.0
  0
LINE
  5
298B
330
30EE
100
AcDbEntity
  8
0
 62
     0
100
AcDbLine
 10
-556.499961904763
 20
-921.3223622355807
 30
0.0
 11
556.499999999998
 21
-391.3226598718129
 31
0.0
  0
LINE
  5
298C
330
30EE
100
AcDbEntity
  8
0
 62
     0
100
AcDbLine
 10
-556.4999619047647
 20
-911.3224104914459
 30
0.0
 11
556.499999999998
 21
-381.3227081276772
 31
0.0
  0
LINE
  5
298D
330
30EE
100
AcDbEntity
  8
0
 62
     0
100
AcDbLine
 10
-556.4999619047612
 20
-901.3224587473123
 30
0.0
 11
556.5
 21
-371.3227563835435
 31
0.0
  0
LINE
  5
298E
330
30EE
100
AcDbEntity
  8
0
 62
     0
100
AcDbLine
 10
-556.4999619047647
 20
-891.3225070031785
 30
0.0
 11
556.499999999998
 21
-361.3228046394088
 31
0.0
  0
LINE
  5
298F
330
30EE
100
AcDbEntity
  8
0
 62
     0
100
AcDbLine
 10
-556.499961904763
 20
-881.3225552590438
 30
0.0
 11
556.499999999998
 21
-351.322852895275
 31
0.0
  0
LINE
  5
2990
330
30EE
100
AcDbEntity
  8
0
 62
     0
100
AcDbLine
 10
-556.499961904763
 20
-871.3226035149101
 30
0.0
 11
556.5
 21
-341.3229011511402
 31
0.0
  0
LINE
  5
2991
330
30EE
100
AcDbEntity
  8
0
 62
     0
100
AcDbLine
 10
-556.499961904763
 20
-861.3226517707744
 30
0.0
 11
556.499999999998
 21
-331.3229494070057
 31
0.0
  0
LINE
  5
2992
330
30EE
100
AcDbEntity
  8
0
 62
     0
100
AcDbLine
 10
-556.4999619047612
 20
-851.3227000266395
 30
0.0
 11
556.499999999998
 21
-321.3229976628718
 31
0.0
  0
LINE
  5
2993
330
30EE
100
AcDbEntity
  8
0
 62
     0
100
AcDbLine
 10
-556.499961904763
 20
-841.3227482825059
 30
0.0
 11
556.499999999998
 21
-311.3230459187371
 31
0.0
  0
LINE
  5
2994
330
30EE
100
AcDbEntity
  8
0
 62
     0
100
AcDbLine
 10
-556.4999619047612
 20
-831.3227965383697
 30
0.0
 11
556.499999999998
 21
-301.3230941746024
 31
0.0
  0
LINE
  5
2995
330
30EE
100
AcDbEntity
  8
0
 62
     0
100
AcDbLine
 10
540.7985908238368
 20
-298.8000000000011
 30
0.0
 11
556.499999999998
 21
-291.3231424304686
 31
0.0
  0
LINE
  5
2996
330
30EE
100
AcDbEntity
  8
0
 62
     0
100
AcDbLine
 10
-556.499961904763
 20
-821.3228447942372
 30
0.0
 11
540.7985908238368
 21
-298.800000000002
 31
0.0
  0
LINE
  5
2997
330
30EE
100
AcDbEntity
  8
0
 62
     0
100
AcDbLine
 10
519.798681086846
 20
-298.8000000000011
 30
0.0
 11
556.4999999999962
 21
-281.3231906863339
 31
0.0
  0
LINE
  5
2998
330
30EE
100
AcDbEntity
  8
0
 62
     0
100
AcDbLine
 10
-556.499961904763
 20
-811.3228930501017
 30
0.0
 11
519.798681086846
 21
-298.8000000000011
 31
0.0
  0
LINE
  5
2999
330
30EE
100
AcDbEntity
  8
0
 62
     0
100
AcDbLine
 10
498.7987713498587
 20
-298.8000000000002
 30
0.0
 11
556.5
 21
-271.3232389422001
 31
0.0
  0
LINE
  5
299A
330
30EE
100
AcDbEntity
  8
0
 62
     0
100
AcDbLine
 10
-556.499961904763
 20
-801.3229413059688
 30
0.0
 11
498.7987713498568
 21
-298.8000000000011
 31
0.0
  0
LINE
  5
299B
330
30EE
100
AcDbEntity
  8
0
 62
     0
100
AcDbLine
 10
477.7988616128676
 20
-298.8000000000002
 30
0.0
 11
556.499999999998
 21
-261.3232871980654
 31
0.0
  0
LINE
  5
299C
330
30EE
100
AcDbEntity
  8
0
 62
     0
100
AcDbLine
 10
-556.499961904763
 20
-791.322989561833
 30
0.0
 11
477.7988616128657
 21
-298.8000000000002
 31
0.0
  0
LINE
  5
299D
330
30EE
100
AcDbEntity
  8
0
 62
     0
100
AcDbLine
 10
456.7989518758769
 20
-298.7999999999992
 30
0.0
 11
556.499999999998
 21
-251.3233354539307
 31
0.0
  0
LINE
  5
299E
330
30EE
100
AcDbEntity
  8
0
 62
     0
100
AcDbLine
 10
-556.4999619047647
 20
-781.3230378176994
 30
0.0
 11
456.7989518758747
 21
-298.8000000000002
 31
0.0
  0
LINE
  5
299F
330
30EE
100
AcDbEntity
  8
0
 62
     0
100
AcDbLine
 10
435.7990421388874
 20
-298.8000000000002
 30
0.0
 11
556.499999999998
 21
-241.3233837097969
 31
0.0
  0
LINE
  5
29A0
330
30EE
100
AcDbEntity
  8
0
 62
     0
100
AcDbLine
 10
-556.499961904763
 20
-771.3230860735648
 30
0.0
 11
435.799042138884
 21
-298.8000000000011
 31
0.0
  0
LINE
  5
29A1
330
30EE
100
AcDbEntity
  8
0
 62
     0
100
AcDbLine
 10
414.7991324018967
 20
-298.7999999999992
 30
0.0
 11
556.499999999998
 21
-231.3234319656622
 31
0.0
  0
LINE
  5
29A2
330
30EE
100
AcDbEntity
  8
0
 62
     0
100
AcDbLine
 10
-556.4999619047647
 20
-761.323134329431
 30
0.0
 11
414.7991324018948
 21
-298.8000000000002
 31
0.0
  0
LINE
  5
29A3
330
30EE
100
AcDbEntity
  8
0
 62
     0
100
AcDbLine
 10
393.7992226649058
 20
-298.7999999999992
 30
0.0
 11
556.499999999998
 21
-221.3234802215284
 31
0.0
  0
LINE
  5
29A4
330
30EE
100
AcDbEntity
  8
0
 62
     0
100
AcDbLine
 10
-556.499961904763
 20
-751.3231825852963
 30
0.0
 11
393.7992226649021
 21
-298.8000000000011
 31
0.0
  0
LINE
  5
29A5
330
30EE
100
AcDbEntity
  8
0
 62
     0
100
AcDbLine
 10
372.7993129279166
 20
-298.7999999999983
 30
0.0
 11
556.4999999999962
 21
-211.3235284773937
 31
0.0
  0
LINE
  5
29A6
330
30EE
100
AcDbEntity
  8
0
 62
     0
100
AcDbLine
 10
-556.4999619047664
 20
-741.3232308411624
 30
0.0
 11
372.7993129279129
 21
-298.8000000000002
 31
0.0
  0
LINE
  5
29A7
330
30EE
100
AcDbEntity
  8
0
 62
     0
100
AcDbLine
 10
351.7994031909257
 20
-298.7999999999983
 30
0.0
 11
556.5
 21
-201.323576733258
 31
0.0
  0
LINE
  5
29A8
330
30EE
100
AcDbEntity
  8
0
 62
     0
100
AcDbLine
 10
-556.499961904763
 20
-731.3232790970268
 30
0.0
 11
351.7994031909239
 21
-298.7999999999992
 31
0.0
  0
LINE
  5
29A9
330
30EE
100
AcDbEntity
  8
0
 62
     0
100
AcDbLine
 10
340.7000000000025
 20
-294.0854755595075
 30
0.0
 11
556.499999999998
 21
-191.3236249891241
 31
0.0
  0
LINE
  5
29AA
330
30EE
100
AcDbEntity
  8
0
 62
     0
100
AcDbLine
 10
-556.499961904763
 20
-721.3233273528921
 30
0.0
 11
340.6999999999971
 21
-294.0854755595101
 31
0.0
  0
LINE
  5
29AB
330
30EE
100
AcDbEntity
  8
0
 62
     0
100
AcDbLine
 10
340.7000000000025
 20
-284.0855238153726
 30
0.0
 11
556.499999999998
 21
-181.3236732449894
 31
0.0
  0
LINE
  5
29AC
330
30EE
100
AcDbEntity
  8
0
 62
     0
100
AcDbLine
 10
-556.4999619047647
 20
-711.3233756087583
 30
0.0
 11
340.6999999999971
 21
-284.0855238153754
 31
0.0
  0
LINE
  5
29AD
330
30EE
100
AcDbEntity
  8
0
 62
     0
100
AcDbLine
 10
340.7000000000025
 20
-274.0855720712379
 30
0.0
 11
556.5
 21
-171.3237215008548
 31
0.0
  0
LINE
  5
29AE
330
30EE
100
AcDbEntity
  8
0
 62
     0
100
AcDbLine
 10
-556.4999619047612
 20
-701.3234238646223
 30
0.0
 11
340.7000000000008
 21
-274.0855720712399
 31
0.0
  0
LINE
  5
29AF
330
30EE
100
AcDbEntity
  8
0
 62
     0
100
AcDbLine
 10
340.7000000000025
 20
-264.0856203271042
 30
0.0
 11
556.499999999998
 21
-161.323769756721
 31
0.0
  0
LINE
  5
29B0
330
30EE
100
AcDbEntity
  8
0
 62
     0
100
AcDbLine
 10
-556.4999619047647
 20
-691.3234721204896
 30
0.0
 11
340.6999999999989
 21
-264.085620327106
 31
0.0
  0
LINE
  5
29B1
330
30EE
100
AcDbEntity
  8
0
 62
     0
100
AcDbLine
 10
340.7000000000025
 20
-254.0856685829695
 30
0.0
 11
556.499999999998
 21
-151.3238180125863
 31
0.0
  0
LINE
  5
29B2
330
30EE
100
AcDbEntity
  8
0
 62
     0
100
AcDbLine
 10
-556.499961904763
 20
-681.3235203763553
 30
0.0
 11
340.6999999999989
 21
-254.0856685829713
 31
0.0
  0
LINE
  5
29B3
330
30EE
100
AcDbEntity
  8
0
 62
     0
100
AcDbLine
 10
340.7000000000008
 20
-244.0857168388366
 30
0.0
 11
556.499999999998
 21
-141.3238662684524
 31
0.0
  0
LINE
  5
29B4
330
30EE
100
AcDbEntity
  8
0
 62
     0
100
AcDbLine
 10
-556.4999619047647
 20
-671.3235686322214
 30
0.0
 11
340.7000000000008
 21
-244.0857168388366
 31
0.0
  0
LINE
  5
29B5
330
30EE
100
AcDbEntity
  8
0
 62
     0
100
AcDbLine
 10
340.7000000000008
 20
-234.0857650947019
 30
0.0
 11
556.499999999998
 21
-131.3239145243178
 31
0.0
  0
LINE
  5
29B6
330
30EE
100
AcDbEntity
  8
0
 62
     0
100
AcDbLine
 10
-556.499961904763
 20
-661.3236168880863
 30
0.0
 11
340.7000000000008
 21
-234.0857650947019
 31
0.0
  0
LINE
  5
29B7
330
30EE
100
AcDbEntity
  8
0
 62
     0
100
AcDbLine
 10
340.6999999999989
 20
-224.0858133505672
 30
0.0
 11
556.499999999998
 21
-121.3239627801831
 31
0.0
  0
LINE
  5
29B8
330
30EE
100
AcDbEntity
  8
0
 62
     0
100
AcDbLine
 10
-556.4999619047647
 20
-651.323665143952
 30
0.0
 11
340.6999999999989
 21
-224.0858133505672
 31
0.0
  0
LINE
  5
29B9
330
30EE
100
AcDbEntity
  8
0
 62
     0
100
AcDbLine
 10
340.7000000000008
 20
-214.0858616064325
 30
0.0
 11
556.499999999998
 21
-111.3240110360484
 31
0.0
  0
LINE
  5
29BA
330
30EE
100
AcDbEntity
  8
0
 62
     0
100
AcDbLine
 10
-556.4999619047647
 20
-641.3237133998181
 30
0.0
 11
340.6999999999989
 21
-214.0858616064333
 31
0.0
  0
LINE
  5
29BB
330
30EE
100
AcDbEntity
  8
0
 62
     0
100
AcDbLine
 10
340.7000000000008
 20
-204.0859098622985
 30
0.0
 11
548.7805204421492
 21
-105.0
 31
0.0
  0
LINE
  5
29BC
330
30EE
100
AcDbEntity
  8
0
 62
     0
100
AcDbLine
 10
-556.4999619047612
 20
-631.3237616556826
 30
0.0
 11
340.7000000000008
 21
-204.0859098622985
 31
0.0
  0
LINE
  5
29BD
330
30EE
100
AcDbEntity
  8
0
 62
     0
100
AcDbLine
 10
340.7000000000008
 20
-194.085958118163
 30
0.0
 11
527.7806107051564
 21
-105.0
 31
0.0
  0
LINE
  5
29BE
330
30EE
100
AcDbEntity
  8
0
 62
     0
100
AcDbLine
 10
-556.4999619047647
 20
-621.3238099115487
 30
0.0
 11
340.7000000000008
 21
-194.085958118163
 31
0.0
  0
LINE
  5
29BF
330
30EE
100
AcDbEntity
  8
0
 62
     0
100
AcDbLine
 10
340.7000000000008
 20
-184.0860063740292
 30
0.0
 11
506.7807009681671
 21
-105.0
 31
0.0
  0
LINE
  5
29C0
330
30EE
100
AcDbEntity
  8
0
 62
     0
100
AcDbLine
 10
-556.499961904763
 20
-611.323858167414
 30
0.0
 11
340.7000000000008
 21
-184.0860063740292
 31
0.0
  0
LINE
  5
29C1
330
30EE
100
AcDbEntity
  8
0
 62
     0
100
AcDbLine
 10
340.7000000000008
 20
-174.0860546298945
 30
0.0
 11
485.7807912311762
 21
-105.0
 31
0.0
  0
LINE
  5
29C2
330
30EE
100
AcDbEntity
  8
0
 62
     0
100
AcDbLine
 10
-556.499961904763
 20
-601.32390642328
 30
0.0
 11
340.7000000000008
 21
-174.0860546298945
 31
0.0
  0
LINE
  5
29C3
330
30EE
100
AcDbEntity
  8
0
 62
     0
100
AcDbLine
 10
340.7000000000008
 20
-164.0861028857607
 30
0.0
 11
464.7808814941853
 21
-105.0000000000009
 31
0.0
  0
LINE
  5
29C4
330
30EE
100
AcDbEntity
  8
0
 62
     0
100
AcDbLine
 10
-556.499961904763
 20
-591.3239546791452
 30
0.0
 11
340.7000000000008
 21
-164.0861028857607
 31
0.0
  0
LINE
  5
29C5
330
30EE
100
AcDbEntity
  8
0
 62
     0
100
AcDbLine
 10
340.7000000000008
 20
-154.086151141626
 30
0.0
 11
443.7809717571941
 21
-105.0000000000009
 31
0.0
  0
LINE
  5
29C6
330
30EE
100
AcDbEntity
  8
0
 62
     0
100
AcDbLine
 10
-556.4999619047647
 20
-581.3240029350118
 30
0.0
 11
340.6999999999989
 21
-154.0861511416269
 31
0.0
  0
LINE
  5
29C7
330
30EE
100
AcDbEntity
  8
0
 62
     0
100
AcDbLine
 10
340.7000000000008
 20
-144.0861993974913
 30
0.0
 11
422.7810620202017
 21
-105.0000000000009
 31
0.0
  0
LINE
  5
29C8
330
30EE
100
AcDbEntity
  8
0
 62
     0
100
AcDbLine
 10
-556.4999619047647
 20
-571.3240511908761
 30
0.0
 11
340.6999999999971
 21
-144.0861993974922
 31
0.0
  0
LINE
  5
29C9
330
30EE
100
AcDbEntity
  8
0
 62
     0
100
AcDbLine
 10
340.7000000000043
 20
-134.0862476533566
 30
0.0
 11
401.7811522832143
 21
-105.0000000000009
 31
0.0
  0
LINE
  5
29CA
330
30EE
100
AcDbEntity
  8
0
 62
     0
100
AcDbLine
 10
-556.4999619047647
 20
-561.3240994467433
 30
0.0
 11
340.6999999999989
 21
-134.0862476533584
 31
0.0
  0
LINE
  5
29CB
330
30EE
100
AcDbEntity
  8
0
 62
     0
100
AcDbLine
 10
340.7000000000008
 20
-124.0862959092228
 30
0.0
 11
380.7812425462216
 21
-105.0000000000009
 31
0.0
  0
LINE
  5
29CC
330
30EE
100
AcDbEntity
  8
0
 62
     0
100
AcDbLine
 10
-556.499961904763
 20
-551.3241477026077
 30
0.0
 11
340.6999999999971
 21
-124.0862959092237
 31
0.0
  0
LINE
  5
29CD
330
30EE
100
AcDbEntity
  8
0
 62
     0
100
AcDbLine
 10
340.7000000000025
 20
-114.0863441650872
 30
0.0
 11
359.7813328092325
 21
-105.0
 31
0.0
  0
LINE
  5
29CE
330
30EE
100
AcDbEntity
  8
0
 62
     0
100
AcDbLine
 10
-556.499961904763
 20
-541.324195958472
 30
0.0
 11
340.6999999999989
 21
-114.086344165088
 31
0.0
  0
LINE
  5
29CF
330
30EE
100
AcDbEntity
  8
0
 62
     0
100
AcDbLine
 10
-556.499961904763
 20
-531.3242442143391
 30
0.0
 11
338.7814230722415
 21
-105.0
 31
0.0
  0
LINE
  5
29D0
330
30EE
100
AcDbEntity
  8
0
 62
     0
100
AcDbLine
 10
-556.499961904763
 20
-521.3242924702036
 30
0.0
 11
317.7815133352506
 21
-105.0
 31
0.0
  0
LINE
  5
29D1
330
30EE
100
AcDbEntity
  8
0
 62
     0
100
AcDbLine
 10
-556.4999619047647
 20
-511.3243407260706
 30
0.0
 11
296.7816035982596
 21
-105.0000000000009
 31
0.0
  0
LINE
  5
29D2
330
30EE
100
AcDbEntity
  8
0
 62
     0
100
AcDbLine
 10
-556.4999619047647
 20
-501.3243889819348
 30
0.0
 11
275.7816938612668
 21
-105.0000000000009
 31
0.0
  0
LINE
  5
29D3
330
30EE
100
AcDbEntity
  8
0
 62
     0
100
AcDbLine
 10
-556.4999619047647
 20
-491.3244372378009
 30
0.0
 11
254.7817841242795
 21
-105.0
 31
0.0
  0
LINE
  5
29D4
330
30EE
100
AcDbEntity
  8
0
 62
     0
100
AcDbLine
 10
-556.499961904763
 20
-481.3244854936665
 30
0.0
 11
233.7818743872867
 21
-105.0000000000009
 31
0.0
  0
LINE
  5
29D5
330
30EE
100
AcDbEntity
  8
0
 62
     0
100
AcDbLine
 10
-556.4999619047664
 20
-471.3245337495327
 30
0.0
 11
212.7819646502958
 21
-105.0000000000009
 31
0.0
  0
LINE
  5
29D6
330
30EE
100
AcDbEntity
  8
0
 62
     0
100
AcDbLine
 10
-556.499961904763
 20
-461.3245820053967
 30
0.0
 11
191.7820549133065
 21
-105.0
 31
0.0
  0
LINE
  5
29D7
330
30EE
100
AcDbEntity
  8
0
 62
     0
100
AcDbLine
 10
-556.499961904763
 20
-451.3246302612633
 30
0.0
 11
170.7821451763157
 21
-105.0000000000009
 31
0.0
  0
LINE
  5
29D8
330
30EE
100
AcDbEntity
  8
0
 62
     0
100
AcDbLine
 10
-556.4999619047647
 20
-441.3246785171295
 30
0.0
 11
149.7822354393229
 21
-105.0000000000009
 31
0.0
  0
LINE
  5
29D9
330
30EE
100
AcDbEntity
  8
0
 62
     0
100
AcDbLine
 10
-556.4999619047612
 20
-431.3247267729948
 30
0.0
 11
128.7823257023356
 21
-105.0000000000009
 31
0.0
  0
LINE
  5
29DA
330
30EE
100
AcDbEntity
  8
0
 62
     0
100
AcDbLine
 10
-556.4999619047647
 20
-421.3247750288607
 30
0.0
 11
107.7824159653428
 21
-105.0000000000009
 31
0.0
  0
LINE
  5
29DB
330
30EE
100
AcDbEntity
  8
0
 62
     0
100
AcDbLine
 10
-556.499961904763
 20
-411.3248232847253
 30
0.0
 11
86.78250622835182
 21
-105.0
 31
0.0
  0
LINE
  5
29DC
330
30EE
100
AcDbEntity
  8
0
 62
     0
100
AcDbLine
 10
-556.4999619047647
 20
-401.3248715405923
 30
0.0
 11
65.78259649136089
 21
-105.0000000000009
 31
0.0
  0
LINE
  5
29DD
330
30EE
100
AcDbEntity
  8
0
 62
     0
100
AcDbLine
 10
-556.499961904763
 20
-391.3249197964569
 30
0.0
 11
44.78268675437173
 21
-105.0
 31
0.0
  0
LINE
  5
29DE
330
30EE
100
AcDbEntity
  8
0
 62
     0
100
AcDbLine
 10
-556.4999619047612
 20
-381.3249680523213
 30
0.0
 11
23.78277701738079
 21
-105.0
 31
0.0
  0
LINE
  5
29DF
330
30EE
100
AcDbEntity
  8
0
 62
     0
100
AcDbLine
 10
-556.4999619047647
 20
-371.3250163081884
 30
0.0
 11
2.782867280388018
 21
-105.0000000000009
 31
0.0
  0
LINE
  5
29E0
330
30EE
100
AcDbEntity
  8
0
 62
     0
100
AcDbLine
 10
-556.4999619047612
 20
-361.3250645640528
 30
0.0
 11
-18.2170424565993
 21
-105.0
 31
0.0
  0
LINE
  5
29E1
330
30EE
100
AcDbEntity
  8
0
 62
     0
100
AcDbLine
 10
-556.4999619047647
 20
-351.32511281992
 30
0.0
 11
-39.21695219359208
 21
-105.0000000000009
 31
0.0
  0
LINE
  5
29E2
330
30EE
100
AcDbEntity
  8
0
 62
     0
100
AcDbLine
 10
-556.499961904763
 20
-341.3251610757843
 30
0.0
 11
-60.21686193058304
 21
-105.0000000000009
 31
0.0
  0
LINE
  5
29E3
330
30EE
100
AcDbEntity
  8
0
 62
     0
100
AcDbLine
 10
-556.4999619047647
 20
-331.3252093316505
 30
0.0
 11
-81.21677166757399
 21
-105.0
 31
0.0
  0
LINE
  5
29E4
330
30EE
100
AcDbEntity
  8
0
 62
     0
100
AcDbLine
 10
-556.499961904763
 20
-321.3252575875158
 30
0.0
 11
-102.2166814045631
 21
-105.0000000000009
 31
0.0
  0
LINE
  5
29E5
330
30EE
100
AcDbEntity
  8
0
 62
     0
100
AcDbLine
 10
-556.4999619047647
 20
-311.325305843382
 30
0.0
 11
-123.2165911415541
 21
-105.0000000000009
 31
0.0
  0
LINE
  5
29E6
330
30EE
100
AcDbEntity
  8
0
 62
     0
100
AcDbLine
 10
-556.4999619047647
 20
-301.3253540992464
 30
0.0
 11
-144.216500878545
 21
-105.0
 31
0.0
  0
LINE
  5
29E7
330
30EE
100
AcDbEntity
  8
0
 62
     0
100
AcDbLine
 10
-556.4999619047612
 20
-291.3254023551117
 30
0.0
 11
-165.2164106155342
 21
-105.0000000000009
 31
0.0
  0
LINE
  5
29E8
330
30EE
100
AcDbEntity
  8
0
 62
     0
100
AcDbLine
 10
-556.499961904763
 20
-281.3254506109779
 30
0.0
 11
-186.216320352527
 21
-105.0000000000009
 31
0.0
  0
LINE
  5
29E9
330
30EE
100
AcDbEntity
  8
0
 62
     0
100
AcDbLine
 10
-556.499961904763
 20
-271.3254988668432
 30
0.0
 11
-207.2162300895179
 21
-105.0000000000009
 31
0.0
  0
LINE
  5
29EA
330
30EE
100
AcDbEntity
  8
0
 62
     0
100
AcDbLine
 10
-556.4999619047647
 20
-261.3255471227094
 30
0.0
 11
-228.2161398265089
 21
-105.0
 31
0.0
  0
LINE
  5
29EB
330
30EE
100
AcDbEntity
  8
0
 62
     0
100
AcDbLine
 10
-556.499961904763
 20
-251.3255953785747
 30
0.0
 11
-249.216049563498
 21
-105.0
 31
0.0
  0
LINE
  5
29EC
330
30EE
100
AcDbEntity
  8
0
 62
     0
100
AcDbLine
 10
-556.4999619047647
 20
-241.3256436344409
 30
0.0
 11
-270.2159593004908
 21
-105.0000000000009
 31
0.0
  0
LINE
  5
29ED
330
30EE
100
AcDbEntity
  8
0
 62
     0
100
AcDbLine
 10
-556.499961904763
 20
-231.3256918903062
 30
0.0
 11
-291.2158690374799
 21
-105.0
 31
0.0
  0
LINE
  5
29EE
330
30EE
100
AcDbEntity
  8
0
 62
     0
100
AcDbLine
 10
-556.4999619047612
 20
-221.3257401461715
 30
0.0
 11
-312.2157787744709
 21
-105.0000000000009
 31
0.0
  0
LINE
  5
29EF
330
30EE
100
AcDbEntity
  8
0
 62
     0
100
AcDbLine
 10
-556.499961904763
 20
-211.3257884020377
 30
0.0
 11
-333.2156885114617
 21
-105.0000000000009
 31
0.0
  0
LINE
  5
29F0
330
30EE
100
AcDbEntity
  8
0
 62
     0
100
AcDbLine
 10
-556.4999619047647
 20
-201.325836657903
 30
0.0
 11
-354.2155982484509
 21
-105.0
 31
0.0
  0
LINE
  5
29F1
330
30EE
100
AcDbEntity
  8
0
 62
     0
100
AcDbLine
 10
-556.499961904763
 20
-191.3258849137692
 30
0.0
 11
-375.215507985442
 21
-105.0000000000009
 31
0.0
  0
LINE
  5
29F2
330
30EE
100
AcDbEntity
  8
0
 62
     0
100
AcDbLine
 10
-556.499961904763
 20
-181.3259331696334
 30
0.0
 11
-396.2154177224329
 21
-105.0000000000009
 31
0.0
  0
LINE
  5
29F3
330
30EE
100
AcDbEntity
  8
0
 62
     0
100
AcDbLine
 10
-556.4999619047647
 20
-171.3259814254997
 30
0.0
 11
-417.2153274594236
 21
-105.0
 31
0.0
  0
LINE
  5
29F4
330
30EE
100
AcDbEntity
  8
0
 62
     0
100
AcDbLine
 10
-556.499961904763
 20
-161.326029681365
 30
0.0
 11
-438.2152371964147
 21
-105.0000000000009
 31
0.0
  0
LINE
  5
29F5
330
30EE
100
AcDbEntity
  8
0
 62
     0
100
AcDbLine
 10
-556.499961904763
 20
-151.3260779372303
 30
0.0
 11
-459.2151469334058
 21
-105.0000000000009
 31
0.0
  0
LINE
  5
29F6
330
30EE
100
AcDbEntity
  8
0
 62
     0
100
AcDbLine
 10
-556.499961904763
 20
-141.3261261930954
 30
0.0
 11
-480.2150566703967
 21
-105.0
 31
0.0
  0
LINE
  5
29F7
330
30EE
100
AcDbEntity
  8
0
 62
     0
100
AcDbLine
 10
-556.4999619047647
 20
-131.3261744489617
 30
0.0
 11
-501.2149664073876
 21
-105.0
 31
0.0
  0
LINE
  5
29F8
330
30EE
100
AcDbEntity
  8
0
 62
     0
100
AcDbLine
 10
-556.499961904763
 20
-121.3262227048271
 30
0.0
 11
-522.2148761443768
 21
-105.0
 31
0.0
  0
LINE
  5
29F9
330
30EE
100
AcDbEntity
  8
0
 62
     0
100
AcDbLine
 10
-556.499961904763
 20
-111.3262709606932
 30
0.0
 11
-543.2147858813676
 21
-105.0000000000009
 31
0.0
  0
ENDBLK
  5
29FA
330
30EE
100
AcDbEntity
  8
0
100
AcDbBlockEnd
  0
ENDSEC
  0
SECTION
  2
ENTITIES
  0
TEXT
  5
953
330
3014
100
AcDbEntity
  8
OUTLINE
  6
Continuous
 62
     3
100
AcDbText
 10
-418.231467
 20
13.715189
 30
0.0
 40
64.0
  1
 
 41
0.9
100
AcDbText
  0
TEXT
  5
954
330
3014
100
AcDbEntity
  8
OUTLINE
  6
Continuous
 62
     3
100
AcDbText
 10
-418.231467
 20
13.715189
 30
0.0
 40
64.0
  1
 
 41
0.9
100
AcDbText
  0
TEXT
  5
955
330
3014
100
AcDbEntity
  8
OUTLINE
  6
Continuous
 62
     3
100
AcDbText
 10
1341.41903
 20
-706.0588199999997
 30
0.0
 40
64.0
  1
 
 41
0.9
100
AcDbText
  0
TEXT
  5
956
330
3014
100
AcDbEntity
  8
OUTLINE
  6
Continuous
 62
     3
100
AcDbText
 10
1341.41903
 20
-706.0588199999997
 30
0.0
 40
64.0
  1
 
 41
0.9
100
AcDbText
  0
TEXT
  5
957
330
3014
100
AcDbEntity
  8
OUTLINE
  6
Continuous
 62
     3
100
AcDbText
 10
1341.41903
 20
-706.0588199999997
 30
0.0
 40
64.0
  1
 
 41
0.9
100
AcDbText
  0
TEXT
  5
958
330
3014
100
AcDbEntity
  8
OUTLINE
  6
Continuous
 62
     3
100
AcDbText
 10
1341.41903
 20
-706.0588199999997
 30
0.0
 40
64.0
  1
 
 41
0.9
100
AcDbText
  0
TEXT
  5
2A4B
330
3014
100
AcDbEntity
  8
ETC
100
AcDbText
 10
972.9903614194318
 20
289.1962291764757
 30
0.0
 40
64.0
  1
システム部材
 41
0.9
100
AcDbText
  0
TEXT
  5
2A4C
330
3014
100
AcDbEntity
  8
ETC
100
AcDbText
 10
979.1983594194316
 20
390.0795551764759
 30
0.0
 40
64.0
  1
W-105TDAC-A_6
 41
0.9
100
AcDbText
  0
TEXT
  5
2A4D
330
3014
100
AcDbEntity
  8
ETC
100
AcDbText
 10
979.1983594194316
 20
190.0795551764757
 30
0.0
 40
64.0
  1
W-105TDAC-A
 41
0.9
100
AcDbText
  0
CIRCLE
  5
2A4E
330
3014
100
AcDbEntity
  8
ARRANGE
100
AcDbCircle
 10
-0.0000004251696737
 20
-0.0000000986728992
 30
0.0
 40
40.0
  0
LINE
  5
2A4F
330
3014
100
AcDbEntity
  8
BASIS
100
AcDbLine
 10
-0.0000004251696737
 20
25.0
 30
0.0
 11
0.0000186224488061
 21
-1095.0
 31
0.0
  0
LINE
  5
2A50
330
3014
100
AcDbEntity
  8
DETAIL
100
AcDbLine
 10
591.4999995748304
 20
-1.5
 30
0.0
 11
591.4999995748304
 21
-1070.0
 31
0.0
  0
LINE
  5
2A51
330
3014
100
AcDbEntity
  8
DETAIL
100
AcDbLine
 10
-591.4999623299328
 20
-1.5
 30
0.0
 11
-591.4999623299328
 21
-1070.0
 31
0.0
  0
LINE
  5
2A52
330
3014
100
AcDbEntity
  8
DETAIL
100
AcDbLine
 10
-556.4999623299327
 20
-105.0
 30
0.0
 11
-556.4999623299327
 21
-1035.0
 31
0.0
  0
LINE
  5
2A53
330
3014
100
AcDbEntity
  8
DETAIL
100
AcDbLine
 10
556.4999995748303
 20
-105.0
 30
0.0
 11
556.4999995748303
 21
-1035.0
 31
0.0
  0
LINE
  5
2A54
330
3014
100
AcDbEntity
  8
DETAIL
100
AcDbLine
 10
629.9999995748304
 20
-1.5
 30
0.0
 11
-630.0000004251695
 21
-1.5
 31
0.0
  0
LINE
  5
2A55
330
3014
100
AcDbEntity
  8
DETAIL
100
AcDbLine
 10
629.9999995748304
 20
0.0
 30
0.0
 11
-630.0000004251695
 21
0.0
 31
0.0
  0
LINE
  5
2A56
330
3014
100
AcDbEntity
  8
DETAIL
100
AcDbLine
 10
556.4999995748303
 20
-105.0
 30
0.0
 11
-556.4999623299327
 21
-105.0
 31
0.0
  0
LINE
  5
2A57
330
3014
100
AcDbEntity
  8
NOTE
100
AcDbLine
 10
-605.0000004251695
 20
-12.5
 30
0.0
 11
-605.0000004251695
 21
12.5
 31
0.0
  0
LINE
  5
2A58
330
3014
100
AcDbEntity
  8
DETAIL
100
AcDbLine
 10
-630.0000004251695
 20
-1.5
 30
0.0
 11
-630.0000004251695
 21
0.0
 31
0.0
  0
LINE
  5
2A59
330
3014
100
AcDbEntity
  8
NOTE
100
AcDbLine
 10
604.9999995748304
 20
-12.5
 30
0.0
 11
604.9999995748304
 21
12.5
 31
0.0
  0
LINE
  5
2A5A
330
3014
100
AcDbEntity
  8
DETAIL
100
AcDbLine
 10
629.9999995748304
 20
-1.5
 30
0.0
 11
629.9999995748304
 21
0.0
 31
0.0
  0
LINE
  5
2A5B
330
3014
100
AcDbEntity
  8
DETAIL
100
AcDbLine
 10
-591.4999623299328
 20
-1070.0
 30
0.0
 11
591.4999995748304
 21
-1070.0
 31
0.0
  0
LINE
  5
2A5C
330
3014
100
AcDbEntity
  8
DETAIL
100
AcDbLine
 10
-556.4999623299327
 20
-1035.0
 30
0.0
 11
556.4999995748303
 21
-1035.0
 31
0.0
  0
POINT
  5
2A5D
330
3014
100
AcDbEntity
  8
ARRANGE
100
AcDbPoint
 10
-0.0000004251696737
 20
0.0
 30
0.0
 39
50.0
  0
LINE
  5
2A5E
330
3014
100
AcDbEntity
  8
DETAIL
100
AcDbLine
 10
-591.4999623299328
 20
-40.0
 30
0.0
 11
591.4999995748304
 21
-40.0
 31
0.0
  0
LINE
  5
2A5F
330
3014
100
AcDbEntity
  8
DETAIL
100
AcDbLine
 10
-591.4999623299328
 20
-70.0
 30
0.0
 11
591.4999995748304
 21
-70.0
 31
0.0
  0
INSERT
  5
2A60
330
3014
100
AcDbEntity
  8
0
100
AcDbBlockReference
  2
*U68
 10
-0.0000004251696737
 20
0.0
 30
0.0
1001
ACAD
1000
DSTYLE
1002
{
1070
    41
1040
12.0
1070
    42
1040
20.0
1070
    43
1040
200.0
1070
    44
1040
20.0
1070
    73
1070
     0
1070
    74
1070
     0
1070
    77
1070
     1
1070
    78
1070
     8
1070
   140
1040
64.0
1070
   147
1040
50.0
1070
   172
1070
     1
1070
   174
1070
     1
1070
   275
1070
     0
1070
   284
1070
     0
1070
   285
1070
     0
1070
   286
1070
     0
1070
   341
1005
0
1070
   342
1005
0
1002
}
  0
INSERT
  5
2A61
330
3014
100
AcDbEntity
  8
0
100
AcDbBlockReference
  2
*U69
 10
-0.0000004251696737
 20
0.0
 30
0.0
  0
LINE
  5
2A62
330
3014
100
AcDbEntity
  8
NOTE
100
AcDbLine
 39
50.0
 10
-617.5000004251695
 20
0.0
 30
0.0
 11
-592.5000004251695
 21
0.0
 31
0.0
  0
LINE
  5
2A63
330
3014
100
AcDbEntity
  8
NOTE
100
AcDbLine
 39
50.0
 10
592.4999995748295
 20
0.0
 30
0.0
 11
617.4999995748295
 21
0.0
 31
0.0
  0
LINE
  5
2A64
330
3014
100
AcDbEntity
  8
OUTLINE
100
AcDbLine
 39
50.0
 10
-630.0000004251695
 20
0.0
 30
0.0
 11
629.9999995748304
 21
0.0
 31
0.0
  0
LINE
  5
2A65
330
3014
100
AcDbEntity
  8
OUTLINE
100
AcDbLine
 10
591.4999995748304
 20
-1.5
 30
0.0
 11
591.4999995748304
 21
-1070.0
 31
0.0
  0
LINE
  5
2A66
330
3014
100
AcDbEntity
  8
OUTLINE
100
AcDbLine
 10
-591.4999623299328
 20
-1.5
 30
0.0
 11
-591.4999623299328
 21
-1070.0
 31
0.0
  0
LINE
  5
2A67
330
3014
100
AcDbEntity
  8
OUTLINE
100
AcDbLine
 10
629.9999995748304
 20
-1.5
 30
0.0
 11
-630.0000004251695
 21
-1.5
 31
0.0
  0
LINE
  5
2A68
330
3014
100
AcDbEntity
  8
OUTLINE
100
AcDbLine
 10
-630.0000004251695
 20
-1.5
 30
0.0
 11
-630.0000004251695
 21
0.0
 31
0.0
  0
LINE
  5
2A69
330
3014
100
AcDbEntity
  8
OUTLINE
100
AcDbLine
 10
629.9999995748304
 20
-1.5
 30
0.0
 11
629.9999995748304
 21
0.0
 31
0.0
  0
LINE
  5
2A6A
330
3014
100
AcDbEntity
  8
OUTLINE
100
AcDbLine
 10
-591.4999623299328
 20
-1070.0
 30
0.0
 11
591.4999995748304
 21
-1070.0
 31
0.0
  0
LINE
  5
2A6B
330
3014
100
AcDbEntity
  8
OUTLINE
100
AcDbLine
 10
-591.4999623299328
 20
-40.0
 30
0.0
 11
591.4999995748304
 21
-40.0
 31
0.0
  0
LINE
  5
2A6C
330
3014
100
AcDbEntity
  8
OUTLINE
100
AcDbLine
 10
-591.4999623299328
 20
-70.0
 30
0.0
 11
591.4999995748304
 21
-70.0
 31
0.0
  0
LINE
  5
2A6D
330
3014
100
AcDbEntity
  8
DETAIL
100
AcDbLine
 10
-556.4999623299327
 20
-105.0
 30
0.0
 11
-556.4999623299327
 21
-1035.0
 31
0.0
  0
LINE
  5
2A6E
330
3014
100
AcDbEntity
  8
DETAIL
100
AcDbLine
 10
556.4999995748303
 20
-105.0
 30
0.0
 11
556.4999995748303
 21
-1035.0
 31
0.0
  0
LINE
  5
2A6F
330
3014
100
AcDbEntity
  8
DETAIL
100
AcDbLine
 10
556.4999995748303
 20
-105.0
 30
0.0
 11
-556.4999623299327
 21
-105.0
 31
0.0
  0
LINE
  5
2A70
330
3014
100
AcDbEntity
  8
DETAIL
100
AcDbLine
 10
-556.4999623299327
 20
-1035.0
 30
0.0
 11
556.4999995748303
 21
-1035.0
 31
0.0
  0
LINE
  5
2A71
330
3014
100
AcDbEntity
  8
DETAIL
100
AcDbLine
 10
-556.4999623299327
 20
-105.0
 30
0.0
 11
-556.4999623299327
 21
-1035.0
 31
0.0
  0
LINE
  5
2A72
330
3014
100
AcDbEntity
  8
DETAIL
100
AcDbLine
 10
556.4999995748303
 20
-105.0
 30
0.0
 11
556.4999995748303
 21
-1035.0
 31
0.0
  0
LINE
  5
2A73
330
3014
100
AcDbEntity
  8
DETAIL
100
AcDbLine
 10
556.4999995748303
 20
-105.0
 30
0.0
 11
-556.4999623299327
 21
-105.0
 31
0.0
  0
LINE
  5
2A74
330
3014
100
AcDbEntity
  8
DETAIL
100
AcDbLine
 10
-556.4999623299327
 20
-1035.0
 30
0.0
 11
556.4999995748303
 21
-1035.0
 31
0.0
  0
INSERT
  5
2A75
330
3014
100
AcDbEntity
  8
DETAIL
100
AcDbBlockReference
  2
*X70
 10
-0.0000004251696737
 20
0.0
 30
0.0
1001
ACADANNOTATIVE
1000
AnnotativeData
1002
{
1070
     1
1070
     0
1002
}
1001
ACAD
1000
HATCH
1002
{
1070
    19
1000
LINE
1040
72.22849999999998
1040
5.838766301980093
1000
R14_HATCH_DATA
1000
8D4C
1011
0.9999995748303264
1021
0.0
1031
0.0
1011
-0.0000004251696737
1021
1.0
1031
0.0
1011
-0.0000004251696737
1021
0.0
1031
1.0
1040
0.0
1010
0.0
1020
0.0
1030
1.0
1000
LINE
1070
     0
1070
     0
1071
        2
1071
        7
1070
     0
1070
     1
1071
        6
1040
556.5
1040
-298.8000000000002
1040
340.6999999999989
1040
-298.8000000000002
1040
340.7000000000008
1040
-104.9999999999991
1040
-556.499961904763
1040
-104.9999999999991
1040
-556.499961904763
1040
-1034.999999999999
1040
556.5
1040
-1035.0
1071
        0
1071
       23
1070
     0
1070
     1
1071
        4
1040
556.499999999998
1040
-298.8000000000002
1040
556.5
1040
-105.0
1040
340.6999999999989
1040
-105.0
1040
340.6999999999989
1040
-298.8000000000002
1071
        0
1070
     0
1070
     1
1040
5.838766301980093
1040
72.22849999999998
1070
     0
1070
     1
1040
5.838766301980093
1040
14462.70756333623
1040
6360.676822275127
1040
3.881680532789153
1040
8.151533417570705
1070
     0
1040
2.571534151965094
1071
        2
1040
-86.92516700550186
1040
-406.8781045450577
1040
0.0
1040
454.8751664770968
1040
-221.7013186024042
1040
0.0
1002
}
  0
INSERT
  5
2A76
330
3014
100
AcDbEntity
  8
DETAIL
100
AcDbBlockReference
  2
*X71
 10
-0.0000004251696737
 20
0.0
 30
0.0
1001
ACADANNOTATIVE
1000
AnnotativeData
1002
{
1070
     1
1070
     0
1002
}
1001
ACAD
1000
HATCH
1002
{
1070
    19
1000
LINE
1040
72.22849999999998
1040
0.4444190051994898
1000
R14_HATCH_DATA
1000
8D52
1011
0.9999995748303264
1021
0.0
1031
0.0
1011
-0.0000004251696737
1021
1.0
1031
0.0
1011
-0.0000004251696737
1021
0.0
1031
1.0
1040
0.0
1010
0.0
1020
0.0
1030
1.0
1000
LINE
1070
     0
1070
     0
1071
        2
1071
        7
1070
     0
1070
     1
1071
        6
1040
556.499999999998
1040
-298.8000000000011
1040
340.6999999999989
1040
-298.7999999999983
1040
340.7000000000025
1040
-105.0000000000009
1040
-556.499961904763
1040
-105.0000000000009
1040
-556.499961904763
1040
-1035.000000000001
1040
556.5
1040
-1035.0
1071
        0
1071
        7
1070
     0
1070
     1
1071
        4
1040
556.499999999998
1040
-105.0
1040
340.6999999999989
1040
-105.0000000000009
1040
340.7000000000025
1040
-298.8000000000002
1040
556.499999999998
1040
-298.800000000002
1071
        0
1070
     0
1070
     1
1040
0.4444190051994898
1040
72.22849999999998
1070
     0
1070
     1
1040
0.4444190051994898
1040
14462.70756333623
1040
6360.676822275127
1040
-3.881680532789157
1040
8.151533417570702
1070
     0
1040
4.032466171683577
1071
        2
1040
-100.6130436040548
1040
-574.3550395138496
1040
0.0
1040
479.8675573120708
1040
-221.3238295722176
1040
0.0
1002
}
  0
LINE
  5
2A77
330
3014
100
AcDbEntity
  8
SIZE
100
AcDbLine
 10
629.9999995748304
 20
20.0
 30
0.0
 11
629.9999995748304
 21
298.8865929365175
 31
0.0
  0
LINE
  5
2A78
330
3014
100
AcDbEntity
  8
SIZE
100
AcDbLine
 10
-630.0000004251695
 20
20.0
 30
0.0
 11
-630.0000004251695
 21
298.8865929365175
 31
0.0
  0
LINE
  5
2A79
330
3014
100
AcDbEntity
  8
SIZE
100
AcDbLine
 10
617.9999995748304
 20
278.8865929365174
 30
0.0
 11
-618.0000004251695
 21
278.8865929365174
 31
0.0
  0
INSERT
  5
2A7A
330
3014
100
AcDbEntity
  8
SIZE
100
AcDbBlockReference
  2
_DOTBLANK
 10
629.9999995748304
 20
278.8865929365174
 30
0.0
 41
12.0
 42
12.0
 43
12.0
  0
INSERT
  5
2A7B
330
3014
100
AcDbEntity
  8
SIZE
100
AcDbBlockReference
  2
_DOTBLANK
 10
-630.0000004251695
 20
278.8865929365174
 30
0.0
 41
12.0
 42
12.0
 43
12.0
 50
180.0
  0
LINE
  5
2A7C
330
3014
100
AcDbEntity
  8
SIZE
100
AcDbLine
 10
604.9999995748304
 20
32.5
 30
0.0
 11
604.9999995748304
 21
180.3320910096181
 31
0.0
  0
LINE
  5
2A7D
330
3014
100
AcDbEntity
  8
SIZE
100
AcDbLine
 10
-605.0000004251695
 20
32.5
 30
0.0
 11
-605.0000004251695
 21
180.3320910096181
 31
0.0
  0
LINE
  5
2A7E
330
3014
100
AcDbEntity
  8
SIZE
100
AcDbLine
 10
592.9999995748302
 20
160.3320910096181
 30
0.0
 11
-593.0000004251695
 21
160.3320910096181
 31
0.0
  0
INSERT
  5
2A7F
330
3014
100
AcDbEntity
  8
SIZE
100
AcDbBlockReference
  2
_DOTBLANK
 10
604.9999995748304
 20
160.3320910096181
 30
0.0
 41
12.0
 42
12.0
 43
12.0
  0
INSERT
  5
2A80
330
3014
100
AcDbEntity
  8
SIZE
100
AcDbBlockReference
  2
_DOTBLANK
 10
-605.0000004251695
 20
160.3320910096181
 30
0.0
 41
12.0
 42
12.0
 43
12.0
 50
180.0
  0
LINE
  5
2A81
330
3014
100
AcDbEntity
  8
SIZE
100
AcDbLine
 10
-611.4999623299326
 20
-1070.0
 30
0.0
 11
-873.2165304566542
 21
-1070.0
 31
0.0
  0
LINE
  5
2A82
330
3014
100
AcDbEntity
  8
SIZE
100
AcDbLine
 10
-650.0000004251695
 20
0.0
 30
0.0
 11
-873.2165304566542
 21
0.0
 31
0.0
  0
LINE
  5
2A83
330
3014
100
AcDbEntity
  8
SIZE
100
AcDbLine
 10
-853.2165304566548
 20
-1058.0
 30
0.0
 11
-853.2165304566543
 21
-12.0
 31
0.0
  0
INSERT
  5
2A84
330
3014
100
AcDbEntity
  8
SIZE
100
AcDbBlockReference
  2
_DOTBLANK
 10
-853.2165304566548
 20
-1070.0
 30
0.0
 41
12.0
 42
12.0
 43
12.0
 50
270.0
  0
INSERT
  5
2A85
330
3014
100
AcDbEntity
  8
SIZE
100
AcDbBlockReference
  2
_DOTBLANK
 10
-853.2165304566543
 20
0.0
 30
0.0
 41
12.0
 42
12.0
 43
12.0
 50
90.0
  0
LINE
  5
2A86
330
3014
100
AcDbEntity
  8
SIZE
100
AcDbLine
 10
591.4999995748304
 20
-1090.0
 30
0.0
 11
591.4999995748304
 21
-1352.864089238022
 31
0.0
  0
LINE
  5
2A87
330
3014
100
AcDbEntity
  8
SIZE
100
AcDbLine
 10
-591.4999623299328
 20
-1090.0
 30
0.0
 11
-591.4999623299328
 21
-1352.864089238022
 31
0.0
  0
LINE
  5
2A88
330
3014
100
AcDbEntity
  8
SIZE
100
AcDbLine
 10
579.4999995748295
 20
-1332.864089238023
 30
0.0
 11
-579.4999623299328
 21
-1332.864089238023
 31
0.0
  0
INSERT
  5
2A89
330
3014
100
AcDbEntity
  8
SIZE
100
AcDbBlockReference
  2
_DOTBLANK
 10
591.4999995748304
 20
-1332.864089238023
 30
0.0
 41
12.0
 42
12.0
 43
12.0
  0
INSERT
  5
2A8A
330
3014
100
AcDbEntity
  8
SIZE
100
AcDbBlockReference
  2
_DOTBLANK
 10
-591.4999623299328
 20
-1332.864089238023
 30
0.0
 41
12.0
 42
12.0
 43
12.0
 50
180.0
  0
TEXT
  5
2A8B
330
3014
100
AcDbEntity
  8
SIZE
100
AcDbText
 10
-80.15961693981944
 20
-1322.864089238022
 30
0.0
 40
64.0
  1
1183
 41
0.9
100
AcDbText
  0
TEXT
  5
2A8C
330
3014
100
AcDbEntity
  8
SIZE
100
AcDbText
 10
-863.2165304566543
 20
-631.0
 30
0.0
 40
64.0
  1
1070
 50
90.0
 41
0.9
100
AcDbText
  0
TEXT
  5
2A8D
330
3014
100
AcDbEntity
  8
SIZE
100
AcDbText
 10
-96.0000004251697
 20
288.8865929365175
 30
0.0
 40
64.0
  1
1260
 41
0.9
100
AcDbText
  0
TEXT
  5
2A8E
330
3014
100
AcDbEntity
  8
SIZE
100
AcDbText
 10
-91.0701637734505
 20
170.3320910096181
 30
0.0
 40
64.0
  1
1210
 41
0.9
100
AcDbText
  0
ENDSEC
  0
SECTION
  2
OBJECTS
  0
DICTIONARY
  5
2FAC
330
0
100
AcDbDictionary
281
     1
  3
ACAD_2007HEADERVARS_RT
350
31FB
  3
ACAD_COLOR
350
300A
  3
ACAD_GROUP
350
2FAD
  3
ACAD_LAYOUT
350
3009
  3
ACAD_MATERIAL
350
2FB0
  3
ACAD_MLEADERSTYLE
350
300D
  3
ACAD_MLINESTYLE
350
3006
  3
ACAD_PLOTSETTINGS
350
3008
  3
ACAD_PLOTSTYLENAME
350
2FAE
  3
ACAD_SCALELIST
350
2FDA
  3
ACAD_TABLESTYLE
350
300B
  3
ACAD_VISUALSTYLE
350
2FC9
  3
ACDB_RECOMPOSE_DATA
350
31F9
  3
AcDbVariableDictionary
350
31F0
  3
AcmDictionary
350
31A3
  3
AMG
350
30F0
  3
DWGPROPS
350
31FA
  3
MAPISURF_MODULE
350
3170
  0
DICTIONARY
  5
31CB
330
2FFC
100
AcDbDictionary
280
     1
281
     1
  3
ADSK_XREC_LAYER_RECONCILED
360
31CC
  0
DICTIONARY
  5
31CD
330
302B
100
AcDbDictionary
280
     1
281
     1
  3
ADSK_XREC_LAYER_RECONCILED
360
31CE
  0
DICTIONARY
  5
31CF
330
302C
100
AcDbDictionary
280
     1
281
     1
  3
ADSK_XREC_LAYER_RECONCILED
360
31D0
  0
DICTIONARY
  5
31D1
330
302D
100
AcDbDictionary
280
     1
281
     1
  3
ADSK_XREC_LAYER_RECONCILED
360
31D2
  0
DICTIONARY
  5
31D3
330
302E
100
AcDbDictionary
280
     1
281
     1
  3
ADSK_XREC_LAYER_RECONCILED
360
31D4
  0
DICTIONARY
  5
31D5
330
302F
100
AcDbDictionary
280
     1
281
     1
  3
ADSK_XREC_LAYER_RECONCILED
360
31D6
  0
DICTIONARY
  5
31D7
330
3031
100
AcDbDictionary
280
     1
281
     1
  3
ADSK_XREC_LAYER_RECONCILED
360
31D8
  0
DICTIONARY
  5
31D9
330
3032
100
AcDbDictionary
280
     1
281
     1
  3
ADSK_XREC_LAYER_RECONCILED
360
31DA
  0
DICTIONARY
  5
31DB
330
3033
100
AcDbDictionary
280
     1
281
     1
  3
ADSK_XREC_LAYER_RECONCILED
360
31DC
  0
DICTIONARY
  5
31DD
330
3034
100
AcDbDictionary
280
     1
281
     1
  3
ADSK_XREC_LAYER_RECONCILED
360
31DE
  0
DICTIONARY
  5
31DF
330
3035
100
AcDbDictionary
280
     1
281
     1
  3
ADSK_XREC_LAYER_RECONCILED
360
31E0
  0
DICTIONARY
  5
31E1
330
3014
100
AcDbDictionary
280
     1
281
     1
  3
ACAD_INDEX
360
31E2
  0
DICTIONARY
  5
31FB
102
{ACAD_REACTORS
330
2FAC
102
}
330
2FAC
100
AcDbDictionary
281
     1
  3
DIMARCSYM
350
31FC
  3
DIMLTEX1
350
31FE
  3
DIMLTEX2
350
31FF
  3
DIMLTYPE
350
31FD
  0
DICTIONARY
  5
300A
102
{ACAD_REACTORS
330
2FAC
102
}
330
2FAC
100
AcDbDictionary
281
     1
  0
DICTIONARY
  5
2FAD
102
{ACAD_REACTORS
330
2FAC
102
}
330
2FAC
100
AcDbDictionary
281
     1
  0
DICTIONARY
  5
3009
102
{ACAD_REACTORS
330
2FAC
102
}
330
2FAC
100
AcDbDictionary
281
     1
  3
Model
350
3017
  3
レイアウト1
350
3013
  0
DICTIONARY
  5
2FB0
102
{ACAD_REACTORS
330
2FAC
102
}
330
2FAC
100
AcDbDictionary
281
     1
  3
ByBlock
350
2FB9
  3
ByLayer
350
2FB1
  3
Global
350
2FC1
  0
DICTIONARY
  5
300D
102
{ACAD_REACTORS
330
2FAC
102
}
330
2FAC
100
AcDbDictionary
281
     1
  3
Standard
350
300E
  0
DICTIONARY
  5
3006
102
{ACAD_REACTORS
330
2FAC
102
}
330
2FAC
100
AcDbDictionary
281
     1
  3
Standard
350
3007
  0
DICTIONARY
  5
3008
102
{ACAD_REACTORS
330
2FAC
102
}
330
2FAC
100
AcDbDictionary
281
     1
  0
ACDBDICTIONARYWDFLT
  5
2FAE
102
{ACAD_REACTORS
330
2FAC
102
}
330
2FAC
100
AcDbDictionary
281
     1
  3
Normal
350
2FAF
100
AcDbDictionaryWithDefault
340
2FAF
  0
DICTIONARY
  5
2FDA
102
{ACAD_REACTORS
330
2FAC
102
}
330
2FAC
100
AcDbDictionary
281
     1
  3
A0
350
2FDB
  3
A1
350
2FDC
  3
A2
350
2FDD
  3
A3
350
2FDE
  3
A4
350
2FDF
  3
A5
350
2FE0
  3
A6
350
2FE1
  3
A7
350
2FE2
  3
A8
350
2FE3
  3
A9
350
2FE4
  3
B0
350
2FE5
  3
B1
350
2FE6
  3
B2
350
2FE7
  3
B3
350
2FE8
  3
B4
350
2FE9
  3
B5
350
2FEA
  3
B6
350
2FEB
  3
B7
350
2FEC
  3
B8
350
2FED
  3
B9
350
2FEE
  3
C0
350
2FEF
  3
C1
350
2FF0
  3
C2
350
2FF1
  3
C3
350
2FF2
  3
C4
350
2FF3
  3
C5
350
2FF4
  3
C6
350
2FF5
  3
C7
350
2FF6
  3
C8
350
2FF7
  3
C9
350
2FF8
  3
D0
350
2FF9
  3
D1
350
2FFA
  3
D2
350
2FFB
  0
DICTIONARY
  5
300B
102
{ACAD_REACTORS
330
2FAC
102
}
330
2FAC
100
AcDbDictionary
281
     1
  3
Standard
350
300C
  0
DICTIONARY
  5
2FC9
102
{ACAD_REACTORS
330
2FAC
102
}
330
2FAC
100
AcDbDictionary
281
     1
  3
2dWireframe
350
2FCF
  3
3D Hidden
350
2FD1
  3
3dWireframe
350
2FD0
  3
Basic
350
2FCE
  3
Brighten
350
2FD5
  3
ColorChange
350
2FD9
  3
Conceptual
350
2FD2
  3
Dim
350
2FD4
  3
Facepattern
350
2FD8
  3
Flat
350
2FCA
  3
FlatWithEdges
350
2FCB
  3
Gouraud
350
2FCC
  3
GouraudWithEdges
350
2FCD
  3
Linepattern
350
2FD7
  3
Realistic
350
2FD3
  3
Thicken
350
2FD6
  0
XRECORD
  5
31F9
102
{ACAD_REACTORS
330
2FAC
102
}
330
2FAC
100
AcDbXrecord
280
     1
 90
        1
330
300C
  0
DICTIONARY
  5
31F0
102
{ACAD_REACTORS
330
2FAC
102
}
330
2FAC
100
AcDbDictionary
281
     1
  3
CANNOSCALE
350
31F3
  3
CMLEADERSTYLE
350
31F2
  3
CTABLESTYLE
350
31F1
  3
DIMASSOC
350
31F6
  3
INDEXCTL
350
31F5
  3
SORTENTS
350
31F4
  0
DICTIONARY
  5
31A3
102
{ACAD_REACTORS
330
2FAC
102
}
330
2FAC
100
AcDbDictionary
281
     1
  3
AcmStdDictionary
350
31B1
  0
DICTIONARY
  5
30F0
102
{ACAD_REACTORS
330
2FAC
102
}
330
2FAC
100
AcDbDictionary
281
     1
  3
AcMgSettings
350
30F1
  0
XRECORD
  5
31FA
102
{ACAD_REACTORS
330
2FAC
102
}
330
2FAC
100
AcDbXrecord
280
     1
  1
DWGPROPS COOKIE
  2

  3

  4

  6

  7

  8
A090053
  9

300
AmdtFileType=84
301
=
302
=
303
=
304
=
305
=
306
=
307
=
308
=
309
=
 40
1.041883923611111
 41
2452321.396199653
 42
2456211.494521401
  1

 90
        1
  0
XRECORD
  5
31CC
102
{ACAD_REACTORS
330
31CB
102
}
330
31CB
100
AcDbXrecord
280
     1
290
     1
  0
XRECORD
  5
31CE
102
{ACAD_REACTORS
330
31CD
102
}
330
31CD
100
AcDbXrecord
280
     1
290
     1
  0
XRECORD
  5
31D0
102
{ACAD_REACTORS
330
31CF
102
}
330
31CF
100
AcDbXrecord
280
     1
290
     1
  0
XRECORD
  5
31D2
102
{ACAD_REACTORS
330
31D1
102
}
330
31D1
100
AcDbXrecord
280
     1
290
     1
  0
XRECORD
  5
31D4
102
{ACAD_REACTORS
330
31D3
102
}
330
31D3
100
AcDbXrecord
280
     1
290
     1
  0
XRECORD
  5
31D6
102
{ACAD_REACTORS
330
31D5
102
}
330
31D5
100
AcDbXrecord
280
     1
290
     1
  0
XRECORD
  5
31D8
102
{ACAD_REACTORS
330
31D7
102
}
330
31D7
100
AcDbXrecord
280
     1
290
     1
  0
XRECORD
  5
31DA
102
{ACAD_REACTORS
330
31D9
102
}
330
31D9
100
AcDbXrecord
280
     1
290
     1
  0
XRECORD
  5
31DC
102
{ACAD_REACTORS
330
31DB
102
}
330
31DB
100
AcDbXrecord
280
     1
290
     1
  0
XRECORD
  5
31DE
102
{ACAD_REACTORS
330
31DD
102
}
330
31DD
100
AcDbXrecord
280
     1
290
     1
  0
XRECORD
  5
31E0
102
{ACAD_REACTORS
330
31DF
102
}
330
31DF
100
AcDbXrecord
280
     1
290
     1
  0
DICTIONARY
  5
31E2
102
{ACAD_REACTORS
330
31E1
102
}
330
31E1
100
AcDbDictionary
281
     1
  3
*A1
350
31E3
  0
XRECORD
  5
31FC
102
{ACAD_REACTORS
330
31FB
102
}
330
31FB
100
AcDbXrecord
280
     1
 70
     1
  0
XRECORD
  5
31FE
102
{ACAD_REACTORS
330
31FB
102
}
330
31FB
100
AcDbXrecord
280
     1
340
3002
  0
XRECORD
  5
31FF
102
{ACAD_REACTORS
330
31FB
102
}
330
31FB
100
AcDbXrecord
280
     1
340
3002
  0
XRECORD
  5
31FD
102
{ACAD_REACTORS
330
31FB
102
}
330
31FB
100
AcDbXrecord
280
     1
340
3002
  0
LAYOUT
  5
3017
102
{ACAD_XDICTIONARY
360
3206
102
}
102
{ACAD_REACTORS
330
3009
102
}
330
3009
100
AcDbPlotSettings
  1

  2
自動 EPSON LP-9600S (W2450527 上)
  4

  6

 40
0.0
 41
0.0
 42
0.0
 43
0.0
 44
0.0
 45
0.0
 46
0.0
 47
0.0
 48
0.0
 49
0.0
140
0.0
141
0.0
142
1.0
143
1.0
 70
  1712
 72
     0
 73
     0
 74
     0
  7

 75
     0
147
1.0
148
0.0
149
0.0
100
AcDbLayout
  1
Model
 70
     1
 71
     0
 10
0.0
 20
0.0
 11
12.0
 21
9.0
 12
0.0
 22
0.0
 32
0.0
 14
0.0
 24
0.0
 34
0.0
 15
0.0
 25
0.0
 35
0.0
146
0.0
 13
0.0
 23
0.0
 33
0.0
 16
1.0
 26
0.0
 36
0.0
 17
0.0
 27
1.0
 37
0.0
 76
     0
330
3014
331
3018
  0
LAYOUT
  5
3013
102
{ACAD_XDICTIONARY
360
3204
102
}
102
{ACAD_REACTORS
330
3009
102
}
330
3009
100
AcDbPlotSettings
  1

  2
自動 EPSON LP-9600S (W2450527 上)
  4

  6

 40
0.0
 41
0.0
 42
0.0
 43
0.0
 44
0.0
 45
0.0
 46
0.0
 47
0.0
 48
0.0
 49
0.0
140
0.0
141
0.0
142
1.0
143
1.0
 70
   688
 72
     0
 73
     0
 74
     5
  7

 75
    16
147
1.0
148
0.0
149
0.0
100
AcDbLayout
  1
レイアウト1
 70
     1
 71
     1
 10
0.0
 20
0.0
 11
12.0
 21
9.0
 12
0.0
 22
0.0
 32
0.0
 14
1.000000000000000E+20
 24
1.000000000000000E+20
 34
1.000000000000000E+20
 15
-1.000000000000000E+20
 25
-1.000000000000000E+20
 35
-1.000000000000000E+20
146
0.0
 13
0.0
 23
0.0
 33
0.0
 16
1.0
 26
0.0
 36
0.0
 17
0.0
 27
1.0
 37
0.0
 76
     0
330
3010
  0
MATERIAL
  5
2FB9
102
{ACAD_XDICTIONARY
360
2FBA
102
}
102
{ACAD_REACTORS
330
2FB0
102
}
330
2FB0
100
AcDbMaterial
  1
ByBlock
 72
     0
 43
0.0208333333333333
 43
0.0
 43
0.0
 43
0.0
 43
0.0
 43
0.0208333333333333
 43
0.0
 43
0.0
 43
0.0
 43
0.0
 43
1.0
 43
0.0
 43
0.0
 43
0.0
 43
0.0
 43
1.0
 77
     0
 47
0.0208333333333333
 47
0.0
 47
0.0
 47
0.0
 47
0.0
 47
0.0208333333333333
 47
0.0
 47
0.0
 47
0.0
 47
0.0
 47
1.0
 47
0.0
 47
0.0
 47
0.0
 47
0.0
 47
1.0
171
     0
 49
0.0208333333333333
 49
0.0
 49
0.0
 49
0.0
 49
0.0
 49
0.0208333333333333
 49
0.0
 49
0.0
 49
0.0
 49
0.0
 49
1.0
 49
0.0
 49
0.0
 49
0.0
 49
0.0
 49
1.0
175
     0
142
0.0208333333333333
142
0.0
142
0.0
142
0.0
142
0.0
142
0.0208333333333333
142
0.0
142
0.0
142
0.0
142
0.0
142
1.0
142
0.0
142
0.0
142
0.0
142
0.0
142
1.0
179
     0
144
0.0208333333333333
144
0.0
144
0.0
144
0.0
144
0.0
144
0.0208333333333333
144
0.0
144
0.0
144
0.0
144
0.0
144
1.0
144
0.0
144
0.0
144
0.0
144
0.0
144
1.0
147
0.0208333333333333
147
0.0
147
0.0
147
0.0
147
0.0
147
0.0208333333333333
147
0.0
147
0.0
147
0.0
147
0.0
147
1.0
147
0.0
147
0.0
147
0.0
147
0.0
147
1.0
  0
MATERIAL
  5
2FB1
102
{ACAD_XDICTIONARY
360
2FB2
102
}
102
{ACAD_REACTORS
330
2FB0
102
}
330
2FB0
100
AcDbMaterial
  1
ByLayer
 72
     0
 43
0.0208333333333333
 43
0.0
 43
0.0
 43
0.0
 43
0.0
 43
0.0208333333333333
 43
0.0
 43
0.0
 43
0.0
 43
0.0
 43
1.0
 43
0.0
 43
0.0
 43
0.0
 43
0.0
 43
1.0
 77
     0
 47
0.0208333333333333
 47
0.0
 47
0.0
 47
0.0
 47
0.0
 47
0.0208333333333333
 47
0.0
 47
0.0
 47
0.0
 47
0.0
 47
1.0
 47
0.0
 47
0.0
 47
0.0
 47
0.0
 47
1.0
171
     0
 49
0.0208333333333333
 49
0.0
 49
0.0
 49
0.0
 49
0.0
 49
0.0208333333333333
 49
0.0
 49
0.0
 49
0.0
 49
0.0
 49
1.0
 49
0.0
 49
0.0
 49
0.0
 49
0.0
 49
1.0
175
     0
142
0.0208333333333333
142
0.0
142
0.0
142
0.0
142
0.0
142
0.0208333333333333
142
0.0
142
0.0
142
0.0
142
0.0
142
1.0
142
0.0
142
0.0
142
0.0
142
0.0
142
1.0
179
     0
144
0.0208333333333333
144
0.0
144
0.0
144
0.0
144
0.0
144
0.0208333333333333
144
0.0
144
0.0
144
0.0
144
0.0
144
1.0
144
0.0
144
0.0
144
0.0
144
0.0
144
1.0
147
0.0208333333333333
147
0.0
147
0.0
147
0.0
147
0.0
147
0.0208333333333333
147
0.0
147
0.0
147
0.0
147
0.0
147
1.0
147
0.0
147
0.0
147
0.0
147
0.0
147
1.0
  0
MATERIAL
  5
2FC1
102
{ACAD_XDICTIONARY
360
2FC2
102
}
102
{ACAD_REACTORS
330
2FB0
102
}
330
2FB0
100
AcDbMaterial
  1
Global
 72
     0
 43
0.0208333333333333
 43
0.0
 43
0.0
 43
0.0
 43
0.0
 43
0.0208333333333333
 43
0.0
 43
0.0
 43
0.0
 43
0.0
 43
1.0
 43
0.0
 43
0.0
 43
0.0
 43
0.0
 43
1.0
 77
     0
 47
0.0208333333333333
 47
0.0
 47
0.0
 47
0.0
 47
0.0
 47
0.0208333333333333
 47
0.0
 47
0.0
 47
0.0
 47
0.0
 47
1.0
 47
0.0
 47
0.0
 47
0.0
 47
0.0
 47
1.0
171
     0
 49
0.0208333333333333
 49
0.0
 49
0.0
 49
0.0
 49
0.0
 49
0.0208333333333333
 49
0.0
 49
0.0
 49
0.0
 49
0.0
 49
1.0
 49
0.0
 49
0.0
 49
0.0
 49
0.0
 49
1.0
175
     0
142
0.0208333333333333
142
0.0
142
0.0
142
0.0
142
0.0
142
0.0208333333333333
142
0.0
142
0.0
142
0.0
142
0.0
142
1.0
142
0.0
142
0.0
142
0.0
142
0.0
142
1.0
179
     0
144
0.0208333333333333
144
0.0
144
0.0
144
0.0
144
0.0
144
0.0208333333333333
144
0.0
144
0.0
144
0.0
144
0.0
144
1.0
144
0.0
144
0.0
144
0.0
144
0.0
144
1.0
147
0.0208333333333333
147
0.0
147
0.0
147
0.0
147
0.0
147
0.0208333333333333
147
0.0
147
0.0
147
0.0
147
0.0
147
1.0
147
0.0
147
0.0
147
0.0
147
0.0
147
1.0
  0
MLEADERSTYLE
  5
300E
102
{ACAD_REACTORS
330
300D
102
}
330
300D
100
AcDbMLeaderStyle
170
     2
171
     1
172
     0
 90
        2
 40
0.0
 41
0.0
173
     1
 91
-1056964608
340
3002
 92
       -2
290
     1
 42
0.09
291
     1
 43
0.36
  3
Standard
 44
0.18
300

342
2FFD
174
     1
178
     6
175
     1
176
     0
 93
-1056964608
 45
0.18
292
     0
297
     0
 46
0.18
 94
-1056964608
 47
1.0
 49
1.0
140
1.0
293
     1
141
0.0
294
     1
177
     0
142
1.0
295
     0
296
     0
143
0.125
1001
ACAD_MLEADERVER
1070
     2
  0
MLINESTYLE
  5
3007
102
{ACAD_REACTORS
330
3006
102
}
330
3006
100
AcDbMlineStyle
  2
STANDARD
 70
     0
  3

 62
   256
 51
90.0
 52
90.0
 71
     2
 49
0.5
 62
   256
  6
BYLAYER
 49
-0.5
 62
   256
  6
BYLAYER
  0
ACDBPLACEHOLDER
  5
2FAF
102
{ACAD_REACTORS
330
2FAE
102
}
330
2FAE
  0
SCALE
  5
2FDB
102
{ACAD_REACTORS
330
2FDA
102
}
330
2FDA
100
AcDbScale
 70
     0
300
1:1
140
1.0
141
1.0
290
     1
  0
SCALE
  5
2FDC
102
{ACAD_REACTORS
330
2FDA
102
}
330
2FDA
100
AcDbScale
 70
     0
300
1:2
140
1.0
141
2.0
290
     0
  0
SCALE
  5
2FDD
102
{ACAD_REACTORS
330
2FDA
102
}
330
2FDA
100
AcDbScale
 70
     0
300
1:4
140
1.0
141
4.0
290
     0
  0
SCALE
  5
2FDE
102
{ACAD_REACTORS
330
2FDA
102
}
330
2FDA
100
AcDbScale
 70
     0
300
1:5
140
1.0
141
5.0
290
     0
  0
SCALE
  5
2FDF
102
{ACAD_REACTORS
330
2FDA
102
}
330
2FDA
100
AcDbScale
 70
     0
300
1:8
140
1.0
141
8.0
290
     0
  0
SCALE
  5
2FE0
102
{ACAD_REACTORS
330
2FDA
102
}
330
2FDA
100
AcDbScale
 70
     0
300
1:10
140
1.0
141
10.0
290
     0
  0
SCALE
  5
2FE1
102
{ACAD_REACTORS
330
2FDA
102
}
330
2FDA
100
AcDbScale
 70
     0
300
1:16
140
1.0
141
16.0
290
     0
  0
SCALE
  5
2FE2
102
{ACAD_REACTORS
330
2FDA
102
}
330
2FDA
100
AcDbScale
 70
     0
300
1:20
140
1.0
141
20.0
290
     0
  0
SCALE
  5
2FE3
102
{ACAD_REACTORS
330
2FDA
102
}
330
2FDA
100
AcDbScale
 70
     0
300
1:30
140
1.0
141
30.0
290
     0
  0
SCALE
  5
2FE4
102
{ACAD_REACTORS
330
2FDA
102
}
330
2FDA
100
AcDbScale
 70
     0
300
1:40
140
1.0
141
40.0
290
     0
  0
SCALE
  5
2FE5
102
{ACAD_REACTORS
330
2FDA
102
}
330
2FDA
100
AcDbScale
 70
     0
300
1:50
140
1.0
141
50.0
290
     0
  0
SCALE
  5
2FE6
102
{ACAD_REACTORS
330
2FDA
102
}
330
2FDA
100
AcDbScale
 70
     0
300
1:100
140
1.0
141
100.0
290
     0
  0
SCALE
  5
2FE7
102
{ACAD_REACTORS
330
2FDA
102
}
330
2FDA
100
AcDbScale
 70
     0
300
2:1
140
2.0
141
1.0
290
     0
  0
SCALE
  5
2FE8
102
{ACAD_REACTORS
330
2FDA
102
}
330
2FDA
100
AcDbScale
 70
     0
300
4:1
140
4.0
141
1.0
290
     0
  0
SCALE
  5
2FE9
102
{ACAD_REACTORS
330
2FDA
102
}
330
2FDA
100
AcDbScale
 70
     0
300
8:1
140
8.0
141
1.0
290
     0
  0
SCALE
  5
2FEA
102
{ACAD_REACTORS
330
2FDA
102
}
330
2FDA
100
AcDbScale
 70
     0
300
10:1
140
10.0
141
1.0
290
     0
  0
SCALE
  5
2FEB
102
{ACAD_REACTORS
330
2FDA
102
}
330
2FDA
100
AcDbScale
 70
     0
300
100:1
140
100.0
141
1.0
290
     0
  0
SCALE
  5
2FEC
102
{ACAD_REACTORS
330
2FDA
102
}
330
2FDA
100
AcDbScale
 70
     0
300
1/128" = 1'-0"
140
0.0078125
141
12.0
290
     0
  0
SCALE
  5
2FED
102
{ACAD_REACTORS
330
2FDA
102
}
330
2FDA
100
AcDbScale
 70
     0
300
1/64" = 1'-0"
140
0.015625
141
12.0
290
     0
  0
SCALE
  5
2FEE
102
{ACAD_REACTORS
330
2FDA
102
}
330
2FDA
100
AcDbScale
 70
     0
300
1/32" = 1'-0"
140
0.03125
141
12.0
290
     0
  0
SCALE
  5
2FEF
102
{ACAD_REACTORS
330
2FDA
102
}
330
2FDA
100
AcDbScale
 70
     0
300
1/16" = 1'-0"
140
0.0625
141
12.0
290
     0
  0
SCALE
  5
2FF0
102
{ACAD_REACTORS
330
2FDA
102
}
330
2FDA
100
AcDbScale
 70
     0
300
3/32" = 1'-0"
140
0.09375
141
12.0
290
     0
  0
SCALE
  5
2FF1
102
{ACAD_REACTORS
330
2FDA
102
}
330
2FDA
100
AcDbScale
 70
     0
300
1/8" = 1'-0"
140
0.125
141
12.0
290
     0
  0
SCALE
  5
2FF2
102
{ACAD_REACTORS
330
2FDA
102
}
330
2FDA
100
AcDbScale
 70
     0
300
3/16" = 1'-0"
140
0.1875
141
12.0
290
     0
  0
SCALE
  5
2FF3
102
{ACAD_REACTORS
330
2FDA
102
}
330
2FDA
100
AcDbScale
 70
     0
300
1/4" = 1'-0"
140
0.25
141
12.0
290
     0
  0
SCALE
  5
2FF4
102
{ACAD_REACTORS
330
2FDA
102
}
330
2FDA
100
AcDbScale
 70
     0
300
3/8" = 1'-0"
140
0.375
141
12.0
290
     0
  0
SCALE
  5
2FF5
102
{ACAD_REACTORS
330
2FDA
102
}
330
2FDA
100
AcDbScale
 70
     0
300
1/2" = 1'-0"
140
0.5
141
12.0
290
     0
  0
SCALE
  5
2FF6
102
{ACAD_REACTORS
330
2FDA
102
}
330
2FDA
100
AcDbScale
 70
     0
300
3/4" = 1'-0"
140
0.75
141
12.0
290
     0
  0
SCALE
  5
2FF7
102
{ACAD_REACTORS
330
2FDA
102
}
330
2FDA
100
AcDbScale
 70
     0
300
1" = 1'-0"
140
1.0
141
12.0
290
     0
  0
SCALE
  5
2FF8
102
{ACAD_REACTORS
330
2FDA
102
}
330
2FDA
100
AcDbScale
 70
     0
300
1-1/2" = 1'-0"
140
1.5
141
12.0
290
     0
  0
SCALE
  5
2FF9
102
{ACAD_REACTORS
330
2FDA
102
}
330
2FDA
100
AcDbScale
 70
     0
300
3" = 1'-0"
140
3.0
141
12.0
290
     0
  0
SCALE
  5
2FFA
102
{ACAD_REACTORS
330
2FDA
102
}
330
2FDA
100
AcDbScale
 70
     0
300
6" = 1'-0"
140
6.0
141
12.0
290
     0
  0
SCALE
  5
2FFB
102
{ACAD_REACTORS
330
2FDA
102
}
330
2FDA
100
AcDbScale
 70
     0
300
1'-0" = 1'-0"
140
12.0
141
12.0
290
     0
  0
TABLESTYLE
  5
300C
102
{ACAD_XDICTIONARY
360
31F7
102
}
102
{ACAD_REACTORS
330
300B
102
}
330
300B
100
AcDbTableStyle
  3
Standard
 70
     0
 71
     0
 40
0.06
 41
0.06
280
     0
281
     0
  7
STANDARD
140
0.18
170
     2
 62
     0
 63
     7
283
     0
274
    -2
284
     1
 64
     0
275
    -2
285
     1
 65
     0
276
    -2
286
     1
 66
     0
277
    -2
287
     1
 67
     0
278
    -2
288
     1
 68
     0
279
    -2
289
     1
 69
     0
  7
STANDARD
140
0.25
170
     5
 62
     0
 63
     7
283
     0
274
    -2
284
     1
 64
     0
275
    -2
285
     1
 65
     0
276
    -2
286
     1
 66
     0
277
    -2
287
     1
 67
     0
278
    -2
288
     1
 68
     0
279
    -2
289
     1
 69
     0
  7
STANDARD
140
0.18
170
     5
 62
     0
 63
     7
283
     0
274
    -2
284
     1
 64
     0
275
    -2
285
     1
 65
     0
276
    -2
286
     1
 66
     0
277
    -2
287
     1
 67
     0
278
    -2
288
     1
 68
     0
279
    -2
289
     1
 69
     0
  0
VISUALSTYLE
  5
2FCF
102
{ACAD_REACTORS
330
2FC9
102
}
330
2FC9
100
AcDbVisualStyle
  2
2dWireframe
 70
     4
 71
     0
 72
     2
 73
     0
 90
        0
 40
-0.6
 41
-30.0
 62
     5
 63
     7
 74
     1
 91
        4
 64
     7
 65
   257
 75
     1
175
     1
 42
1.0
 92
        0
 66
   257
 43
1.0
 76
     1
 77
     6
 78
     2
 67
     7
 79
     5
170
     0
171
     0
290
     0
174
     0
 93
        1
 44
0.0
173
     0
291
     0
 45
0.0
1001
ACAD
1000
AcDbSavedByObjectVersion
1070
     0
  0
VISUALSTYLE
  5
2FD1
102
{ACAD_REACTORS
330
2FC9
102
}
330
2FC9
100
AcDbVisualStyle
  2
3D Hidden
 70
     6
 71
     1
 72
     2
 73
     2
 90
        0
 40
-0.6
 41
-30.0
 62
     5
 63
     7
 74
     2
 91
        2
 64
     7
 65
   257
 75
     2
175
     1
 42
40.0
 92
        0
 66
   257
 43
1.0
 76
     1
 77
     6
 78
     2
 67
     7
 79
     3
170
     0
171
     0
290
     0
174
     0
 93
        1
 44
0.0
173
     0
291
     0
 45
0.0
1001
ACAD
1000
AcDbSavedByObjectVersion
1070
     0
  0
VISUALSTYLE
  5
2FD0
102
{ACAD_REACTORS
330
2FC9
102
}
330
2FC9
100
AcDbVisualStyle
  2
3dWireframe
 70
     5
 71
     0
 72
     2
 73
     0
 90
        0
 40
-0.6
 41
-30.0
 62
     5
 63
     7
 74
     1
 91
        4
 64
     7
 65
   257
 75
     1
175
     1
 42
1.0
 92
        0
 66
   257
 43
1.0
 76
     1
 77
     6
 78
     2
 67
     7
 79
     5
170
     0
171
     0
290
     0
174
     0
 93
        1
 44
0.0
173
     0
291
     0
 45
0.0
1001
ACAD
1000
AcDbSavedByObjectVersion
1070
     0
  0
VISUALSTYLE
  5
2FCE
102
{ACAD_REACTORS
330
2FC9
102
}
330
2FC9
100
AcDbVisualStyle
  2
Basic
 70
     7
 71
     1
 72
     0
 73
     1
 90
        0
 40
-0.6
 41
-30.0
 62
     5
 63
     7
 74
     0
 91
        4
 64
     7
 65
   257
 75
     1
175
     1
 42
1.0
 92
        8
 66
     7
 43
1.0
 76
     1
 77
     6
 78
     2
 67
     7
 79
     5
170
     0
171
     0
290
     0
174
     0
 93
        1
 44
0.0
173
     0
291
     1
 45
0.0
1001
ACAD
1000
AcDbSavedByObjectVersion
1070
     0
  0
VISUALSTYLE
  5
2FD5
102
{ACAD_REACTORS
330
2FC9
102
}
330
2FC9
100
AcDbVisualStyle
  2
Brighten
 70
    12
 71
     2
 72
     2
 73
     0
 90
        0
 40
-0.6
 41
-30.0
 62
     5
 63
     7
 74
     1
 91
        4
 64
     7
 65
   257
 75
     1
175
     1
 42
1.0
 92
        8
 66
     7
 43
1.0
 76
     1
 77
     6
 78
     2
 67
     7
 79
     5
170
     0
171
     0
290
     0
174
     0
 93
        1
 44
50.0
173
     0
291
     1
 45
0.0
1001
ACAD
1000
AcDbSavedByObjectVersion
1070
     0
  0
VISUALSTYLE
  5
2FD9
102
{ACAD_REACTORS
330
2FC9
102
}
330
2FC9
100
AcDbVisualStyle
  2
ColorChange
 70
    16
 71
     2
 72
     2
 73
     3
 90
        0
 40
-0.6
 41
-30.0
 62
     5
 63
     8
 74
     1
 91
        4
 64
     7
 65
   257
 75
     1
175
     1
 42
1.0
 92
        8
 66
     8
 43
1.0
 76
     1
 77
     6
 78
     2
 67
     7
 79
     5
170
     0
171
     0
290
     0
174
     0
 93
        1
 44
0.0
173
     0
291
     1
 45
0.0
1001
ACAD
1000
AcDbSavedByObjectVersion
1070
     0
  0
VISUALSTYLE
  5
2FD2
102
{ACAD_REACTORS
330
2FC9
102
}
330
2FC9
100
AcDbVisualStyle
  2
Conceptual
 70
     9
 71
     3
 72
     2
 73
     0
 90
        0
 40
-0.6
 41
-30.0
 62
     5
 63
     7
 74
     2
 91
        2
 64
     7
 65
   257
 75
     1
175
     1
 42
40.0
 92
        8
 66
     7
 43
1.0
 76
     1
 77
     6
 78
     2
 67
     7
 79
     3
170
     0
171
     0
290
     0
174
     0
 93
        1
 44
0.0
173
     0
291
     0
 45
0.0
1001
ACAD
1000
AcDbSavedByObjectVersion
1070
     0
  0
VISUALSTYLE
  5
2FD4
102
{ACAD_REACTORS
330
2FC9
102
}
330
2FC9
100
AcDbVisualStyle
  2
Dim
 70
    11
 71
     2
 72
     2
 73
     0
 90
        0
 40
-0.6
 41
-30.0
 62
     5
 63
     7
 74
     1
 91
        4
 64
     7
 65
   257
 75
     1
175
     1
 42
1.0
 92
        8
 66
     7
 43
1.0
 76
     1
 77
     6
 78
     2
 67
     7
 79
     5
170
     0
171
     0
290
     0
174
     0
 93
        1
 44
-50.0
173
     0
291
     1
 45
0.0
1001
ACAD
1000
AcDbSavedByObjectVersion
1070
     0
  0
VISUALSTYLE
  5
2FD8
102
{ACAD_REACTORS
330
2FC9
102
}
330
2FC9
100
AcDbVisualStyle
  2
Facepattern
 70
    15
 71
     2
 72
     2
 73
     0
 90
        0
 40
-0.6
 41
-30.0
 62
     5
 63
     7
 74
     1
 91
        4
 64
     7
 65
   257
 75
     1
175
     1
 42
1.0
 92
        8
 66
     7
 43
1.0
 76
     1
 77
     6
 78
     2
 67
     7
 79
     5
170
     0
171
     0
290
     0
174
     0
 93
        1
 44
0.0
173
     0
291
     1
 45
0.0
1001
ACAD
1000
AcDbSavedByObjectVersion
1070
     0
  0
VISUALSTYLE
  5
2FCA
102
{ACAD_REACTORS
330
2FC9
102
}
330
2FC9
100
AcDbVisualStyle
  2
Flat
 70
     0
 71
     2
 72
     1
 73
     1
 90
        2
 40
-0.6
 41
30.0
 62
     5
 63
     7
 74
     0
 91
        4
 64
     7
 65
   257
 75
     1
175
     1
 42
1.0
 92
        8
 66
     7
 43
1.0
 76
     1
 77
     6
 78
     2
 67
     7
 79
     5
170
     0
171
     0
290
     0
174
     0
 93
       13
 44
0.0
173
     0
291
     1
 45
0.0
1001
ACAD
1000
AcDbSavedByObjectVersion
1070
     0
  0
VISUALSTYLE
  5
2FCB
102
{ACAD_REACTORS
330
2FC9
102
}
330
2FC9
100
AcDbVisualStyle
  2
FlatWithEdges
 70
     1
 71
     2
 72
     1
 73
     1
 90
        2
 40
-0.6
 41
30.0
 62
     5
 63
     7
 74
     1
 91
        4
 64
     7
 65
   257
 75
     1
175
     1
 42
1.0
 92
        0
 66
   257
 43
1.0
 76
     1
 77
     6
 78
     2
 67
     7
 79
     5
170
     0
171
     0
290
     0
174
     0
 93
       13
 44
0.0
173
     0
291
     1
 45
0.0
1001
ACAD
1000
AcDbSavedByObjectVersion
1070
     0
  0
VISUALSTYLE
  5
2FCC
102
{ACAD_REACTORS
330
2FC9
102
}
330
2FC9
100
AcDbVisualStyle
  2
Gouraud
 70
     2
 71
     2
 72
     2
 73
     1
 90
        2
 40
-0.6
 41
30.0
 62
     5
 63
     7
 74
     0
 91
        4
 64
     7
 65
   257
 75
     1
175
     1
 42
1.0
 92
        0
 66
     7
 43
1.0
 76
     1
 77
     6
 78
     2
 67
     7
 79
     5
170
     0
171
     0
290
     0
174
     0
 93
       13
 44
0.0
173
     0
291
     1
 45
0.0
1001
ACAD
1000
AcDbSavedByObjectVersion
1070
     0
  0
VISUALSTYLE
  5
2FCD
102
{ACAD_REACTORS
330
2FC9
102
}
330
2FC9
100
AcDbVisualStyle
  2
GouraudWithEdges
 70
     3
 71
     2
 72
     2
 73
     1
 90
        2
 40
-0.6
 41
30.0
 62
     5
 63
     7
 74
     1
 91
        4
 64
     7
 65
   257
 75
     1
175
     1
 42
1.0
 92
        0
 66
   257
 43
1.0
 76
     1
 77
     6
 78
     2
 67
     7
 79
     5
170
     0
171
     0
290
     0
174
     0
 93
       13
 44
0.0
173
     0
291
     1
 45
0.0
1001
ACAD
1000
AcDbSavedByObjectVersion
1070
     0
  0
VISUALSTYLE
  5
2FD7
102
{ACAD_REACTORS
330
2FC9
102
}
330
2FC9
100
AcDbVisualStyle
  2
Linepattern
 70
    14
 71
     2
 72
     2
 73
     0
 90
        0
 40
-0.6
 41
-30.0
 62
     5
 63
     7
 74
     1
 91
        4
 64
     7
 65
   257
 75
     7
175
     7
 42
1.0
 92
        8
 66
     7
 43
1.0
 76
     1
 77
     6
 78
     2
 67
     7
 79
     5
170
     0
171
     0
290
     0
174
     0
 93
        1
 44
0.0
173
     0
291
     1
 45
0.0
1001
ACAD
1000
AcDbSavedByObjectVersion
1070
     0
  0
VISUALSTYLE
  5
2FD3
102
{ACAD_REACTORS
330
2FC9
102
}
330
2FC9
100
AcDbVisualStyle
  2
Realistic
 70
     8
 71
     2
 72
     2
 73
     0
 90
        0
 40
-0.6
 41
-30.0
 62
     5
 63
     7
 74
     1
 91
        0
 64
     7
 65
   257
 75
     1
175
     1
 42
1.0
 92
        8
 66
     8
 43
1.0
 76
     1
 77
     6
 78
     2
 67
     7
 79
     5
170
     0
171
     0
290
     0
174
     0
 93
       13
 44
0.0
173
     0
291
     0
 45
0.0
1001
ACAD
1000
AcDbSavedByObjectVersion
1070
     0
  0
VISUALSTYLE
  5
2FD6
102
{ACAD_REACTORS
330
2FC9
102
}
330
2FC9
100
AcDbVisualStyle
  2
Thicken
 70
    13
 71
     2
 72
     2
 73
     0
 90
        0
 40
-0.6
 41
-30.0
 62
     5
 63
     7
 74
     1
 91
        4
 64
     7
 65
   257
 75
     1
175
     1
 42
1.0
 92
       12
 66
     7
 43
1.0
 76
     1
 77
     6
 78
     2
 67
     7
 79
     5
170
     0
171
     0
290
     0
174
     0
 93
        1
 44
0.0
173
     0
291
     1
 45
0.0
1001
ACAD
1000
AcDbSavedByObjectVersion
1070
     0
  0
DICTIONARYVAR
  5
31F3
102
{ACAD_REACTORS
330
31F0
102
}
330
31F0
100
DictionaryVariables
280
     0
  1
1:1
  0
DICTIONARYVAR
  5
31F2
102
{ACAD_REACTORS
330
31F0
102
}
330
31F0
100
DictionaryVariables
280
     0
  1
STANDARD
  0
DICTIONARYVAR
  5
31F1
102
{ACAD_REACTORS
330
31F0
102
}
330
31F0
100
DictionaryVariables
280
     0
  1
STANDARD
  0
DICTIONARYVAR
  5
31F6
102
{ACAD_REACTORS
330
31F0
102
}
330
31F0
100
DictionaryVariables
280
     0
  1
1
  0
DICTIONARYVAR
  5
31F5
102
{ACAD_REACTORS
330
31F0
102
}
330
31F0
100
DictionaryVariables
280
     0
  1
1
  0
DICTIONARYVAR
  5
31F4
102
{ACAD_REACTORS
330
31F0
102
}
330
31F0
100
DictionaryVariables
280
     0
  1
127
  0
DICTIONARY
  5
31B1
102
{ACAD_REACTORS
330
31A3
102
}
330
31A3
100
AcDbDictionary
281
     1
  0
DICTIONARY
  5
30F1
102
{ACAD_REACTORS
330
30F0
102
}
330
30F0
100
AcDbDictionary
281
     1
  3
DWGSETTINGS
350
30F2
  3
TRANSSETTINGS
350
30F3
  0
LAYER_INDEX
  5
31E3
102
{ACAD_REACTORS
330
31E2
102
}
330
31E2
100
AcDbIndex
 40
2456211.494521401
100
AcDbLayerIndex
  8
0
360
31E4
 90
        2
  8
OUTLINE
360
31E5
 90
       15
  8
SIZE
360
31E6
 90
       24
  8
BASIS
360
31E7
 90
        1
  8
DETAIL
360
31E8
 90
       23
  8
ARRANGE
360
31E9
 90
        2
  8
DEFPOINTS
360
31EA
 90
        0
  8
ETC
360
31EB
 90
        3
  8
FIX
360
31EC
 90
        0
  8
NOTE
360
31ED
 90
        4
  8
SERVICESPACE
360
31EE
 90
        0
  8
SYMBOLLINE
360
31EF
 90
        0
  0
DICTIONARY
  5
3206
330
3017
100
AcDbDictionary
280
     1
281
     1
  3
ACAD_XREC_ROUNDTRIP
360
3207
  0
DICTIONARY
  5
3204
330
3013
100
AcDbDictionary
280
     1
281
     1
  3
ACAD_XREC_ROUNDTRIP
360
3205
  0
DICTIONARY
  5
2FBA
330
2FB9
100
AcDbDictionary
280
     1
281
     1
  3
ACAD_XREC_ROUNDTRIP
360
3201
  3
BUMPTILE
360
2FBC
  3
DIFFUSETILE
360
2FBB
  3
OPACITYTILE
360
2FBF
  3
REFLECTIONTILE
360
2FBE
  3
REFRACTIONTILE
360
2FC0
  3
SPECULARTILE
360
2FBD
  0
DICTIONARY
  5
2FB2
330
2FB1
100
AcDbDictionary
280
     1
281
     1
  3
ACAD_XREC_ROUNDTRIP
360
3200
  3
BUMPTILE
360
2FB4
  3
DIFFUSETILE
360
2FB3
  3
OPACITYTILE
360
2FB7
  3
REFLECTIONTILE
360
2FB6
  3
REFRACTIONTILE
360
2FB8
  3
SPECULARTILE
360
2FB5
  0
DICTIONARY
  5
2FC2
330
2FC1
100
AcDbDictionary
280
     1
281
     1
  3
ACAD_XREC_ROUNDTRIP
360
3202
  3
BUMPTILE
360
2FC4
  3
DIFFUSETILE
360
2FC3
  3
OPACITYTILE
360
2FC7
  3
REFLECTIONTILE
360
2FC6
  3
REFRACTIONTILE
360
2FC8
  3
SPECULARTILE
360
2FC5
  0
DICTIONARY
  5
31F7
330
300C
100
AcDbDictionary
280
     1
281
     1
  3
ACAD_ROUNDTRIP_2008_TABLESTYLE_CELLSTYLEMAP
360
31F8
  3
ACAD_XREC_ROUNDTRIP
360
3203
  0
IDBUFFER
  5
31E4
330
0
100
AcDbIdBuffer
330
2A60
330
2A61
  0
IDBUFFER
  5
31E5
330
0
100
AcDbIdBuffer
330
953
330
954
330
955
330
956
330
957
330
958
330
2A64
330
2A65
330
2A66
330
2A67
330
2A68
330
2A69
330
2A6A
330
2A6B
330
2A6C
  0
IDBUFFER
  5
31E6
330
0
100
AcDbIdBuffer
330
2A87
330
2A88
330
2A89
330
2A8A
330
2A8B
330
2A8C
330
2A8D
330
2A8E
330
2A77
330
2A78
330
2A79
330
2A7A
330
2A7B
330
2A7C
330
2A7D
330
2A7E
330
2A7F
330
2A80
330
2A81
330
2A82
330
2A83
330
2A84
330
2A85
330
2A86
  0
IDBUFFER
  5
31E7
330
0
100
AcDbIdBuffer
330
2A4F
  0
IDBUFFER
  5
31E8
330
0
100
AcDbIdBuffer
330
2A70
330
2A71
330
2A72
330
2A73
330
2A74
330
2A75
330
2A76
330
2A50
330
2A51
330
2A52
330
2A53
330
2A54
330
2A55
330
2A56
330
2A58
330
2A5A
330
2A5B
330
2A5C
330
2A5E
330
2A5F
330
2A6D
330
2A6E
330
2A6F
  0
IDBUFFER
  5
31E9
330
0
100
AcDbIdBuffer
330
2A4E
330
2A5D
  0
IDBUFFER
  5
31EA
330
0
100
AcDbIdBuffer
  0
IDBUFFER
  5
31EB
330
0
100
AcDbIdBuffer
330
2A4B
330
2A4C
330
2A4D
  0
IDBUFFER
  5
31EC
330
0
100
AcDbIdBuffer
  0
IDBUFFER
  5
31ED
330
0
100
AcDbIdBuffer
330
2A57
330
2A59
330
2A62
330
2A63
  0
IDBUFFER
  5
31EE
330
0
100
AcDbIdBuffer
  0
IDBUFFER
  5
31EF
330
0
100
AcDbIdBuffer
  0
XRECORD
  5
3207
102
{ACAD_REACTORS
330
3206
102
}
330
3206
100
AcDbXrecord
280
     1
102
SHADEPLOT
 70
     0
102
SHADEPLOTRESLEVEL
 70
     2
102
SHADEPLOTCUSTOMDPI
 70
   300
  0
XRECORD
  5
3205
102
{ACAD_REACTORS
330
3204
102
}
330
3204
100
AcDbXrecord
280
     1
102
SHADEPLOT
 70
     0
102
SHADEPLOTRESLEVEL
 70
     2
102
SHADEPLOTCUSTOMDPI
 70
   300
  0
XRECORD
  5
3201
102
{ACAD_REACTORS
330
2FBA
102
}
330
2FBA
100
AcDbXrecord
280
     1
102
MATERIAL
148
0.0
149
0.0
149
0.0
 93
        0
 94
      127
282
     0
 72
     0
 77
     0
171
     0
175
     0
179
     0
273
     0
  0
XRECORD
  5
2FBC
102
{ACAD_REACTORS
330
2FBA
102
}
330
2FBA
100
AcDbXrecord
280
     1
270
     1
271
     1
  0
XRECORD
  5
2FBB
102
{ACAD_REACTORS
330
2FBA
102
}
330
2FBA
100
AcDbXrecord
280
     1
270
     1
271
     1
  0
XRECORD
  5
2FBF
102
{ACAD_REACTORS
330
2FBA
102
}
330
2FBA
100
AcDbXrecord
280
     1
270
     1
271
     1
  0
XRECORD
  5
2FBE
102
{ACAD_REACTORS
330
2FBA
102
}
330
2FBA
100
AcDbXrecord
280
     1
270
     1
271
     1
  0
XRECORD
  5
2FC0
102
{ACAD_REACTORS
330
2FBA
102
}
330
2FBA
100
AcDbXrecord
280
     1
270
     1
271
     1
  0
XRECORD
  5
2FBD
102
{ACAD_REACTORS
330
2FBA
102
}
330
2FBA
100
AcDbXrecord
280
     1
270
     1
271
     1
  0
XRECORD
  5
3200
102
{ACAD_REACTORS
330
2FB2
102
}
330
2FB2
100
AcDbXrecord
280
     1
102
MATERIAL
148
0.0
149
0.0
149
0.0
 93
        0
 94
      127
282
     0
 72
     0
 77
     0
171
     0
175
     0
179
     0
273
     0
  0
XRECORD
  5
2FB4
102
{ACAD_REACTORS
330
2FB2
102
}
330
2FB2
100
AcDbXrecord
280
     1
270
     1
271
     1
  0
XRECORD
  5
2FB3
102
{ACAD_REACTORS
330
2FB2
102
}
330
2FB2
100
AcDbXrecord
280
     1
270
     1
271
     1
  0
XRECORD
  5
2FB7
102
{ACAD_REACTORS
330
2FB2
102
}
330
2FB2
100
AcDbXrecord
280
     1
270
     1
271
     1
  0
XRECORD
  5
2FB6
102
{ACAD_REACTORS
330
2FB2
102
}
330
2FB2
100
AcDbXrecord
280
     1
270
     1
271
     1
  0
XRECORD
  5
2FB8
102
{ACAD_REACTORS
330
2FB2
102
}
330
2FB2
100
AcDbXrecord
280
     1
270
     1
271
     1
  0
XRECORD
  5
2FB5
102
{ACAD_REACTORS
330
2FB2
102
}
330
2FB2
100
AcDbXrecord
280
     1
270
     1
271
     1
  0
XRECORD
  5
3202
102
{ACAD_REACTORS
330
2FC2
102
}
330
2FC2
100
AcDbXrecord
280
     1
102
MATERIAL
148
0.0
149
0.0
149
0.0
 93
        0
 94
      127
282
     0
 72
     0
 77
     0
171
     0
175
     0
179
     0
273
     0
  0
XRECORD
  5
2FC4
102
{ACAD_REACTORS
330
2FC2
102
}
330
2FC2
100
AcDbXrecord
280
     1
270
     1
271
     1
  0
XRECORD
  5
2FC3
102
{ACAD_REACTORS
330
2FC2
102
}
330
2FC2
100
AcDbXrecord
280
     1
270
     1
271
     1
  0
XRECORD
  5
2FC7
102
{ACAD_REACTORS
330
2FC2
102
}
330
2FC2
100
AcDbXrecord
280
     1
270
     1
271
     1
  0
XRECORD
  5
2FC6
102
{ACAD_REACTORS
330
2FC2
102
}
330
2FC2
100
AcDbXrecord
280
     1
270
     1
271
     1
  0
XRECORD
  5
2FC8
102
{ACAD_REACTORS
330
2FC2
102
}
330
2FC2
100
AcDbXrecord
280
     1
270
     1
271
     1
  0
XRECORD
  5
2FC5
102
{ACAD_REACTORS
330
2FC2
102
}
330
2FC2
100
AcDbXrecord
280
     1
270
     1
271
     1
  0
CELLSTYLEMAP
  5
31F8
102
{ACAD_REACTORS
330
31F7
102
}
330
31F7
100
AcDbCellStyleMap
 90
        3
300
CELLSTYLE
  1
TABLEFORMAT_BEGIN
 90
        5
170
     1
 91
        0
 92
    32768
 62
   257
 93
        1
300
CONTENTFORMAT
  1
CONTENTFORMAT_BEGIN
 90
        0
 91
        0
 92
      512
 93
        0
300

 40
0.0
140
1.0
 94
        5
 62
     0
340
2FFD
144
0.25
309
CONTENTFORMAT_END
171
     0
 94
        0
309
TABLEFORMAT_END
  1
CELLSTYLE_BEGIN
 90
        1
 91
        1
300
_TITLE
309
CELLSTYLE_END
300
CELLSTYLE
  1
TABLEFORMAT_BEGIN
 90
        5
170
     1
 91
        0
 92
        0
 62
   257
 93
        1
300
CONTENTFORMAT
  1
CONTENTFORMAT_BEGIN
 90
        0
 91
        0
 92
      512
 93
        0
300

 40
0.0
140
1.0
 94
        5
 62
     0
340
2FFD
144
0.18
309
CONTENTFORMAT_END
171
     0
 94
        0
309
TABLEFORMAT_END
  1
CELLSTYLE_BEGIN
 90
        2
 91
        1
300
_HEADER
309
CELLSTYLE_END
300
CELLSTYLE
  1
TABLEFORMAT_BEGIN
 90
        5
170
     1
 91
        0
 92
        0
 62
   257
 93
        1
300
CONTENTFORMAT
  1
CONTENTFORMAT_BEGIN
 90
        0
 91
        0
 92
      512
 93
        0
300

 40
0.0
140
1.0
 94
        2
 62
     0
340
2FFD
144
0.18
309
CONTENTFORMAT_END
171
     0
 94
        0
309
TABLEFORMAT_END
  1
CELLSTYLE_BEGIN
 90
        3
 91
        2
300
_DATA
309
CELLSTYLE_END
  0
XRECORD
  5
3203
102
{ACAD_REACTORS
330
31F7
102
}
330
31F7
100
AcDbXrecord
280
     1
102
ACAD_ROUNDTRIP_PRE2007_TABLESTYLE
 90
      512
 91
        0
  1

 92
      512
 93
        0
  2

 94
      512
 95
        0
  3

  0
ENDSEC
  0
EOF
