  0
SECTION
  2
HEADER
  9
$ACADVER
  1
AC1015
  9
$ACADMAINTVER
 70
    20
  9
$DWGCODEPAGE
  3
ANSI_932
  9
$INSBASE
 10
0.0
 20
0.0
 30
0.0
  9
$EXTMIN
 10
-1077.595114277968
 20
-951.1579934542924
 30
0.0
  9
$EXTMAX
 10
1304.632466841654
 20
730.759701241778
 30
50.0
  9
$LIMMIN
 10
-2970.0
 20
-2100.0
  9
$LIMMAX
 10
2970.0
 20
2100.0
  9
$ORTHOMODE
 70
     1
  9
$REGENMODE
 70
     0
  9
$FILLMODE
 70
     1
  9
$QTEXTMODE
 70
     0
  9
$MIRRTEXT
 70
     0
  9
$LTSCALE
 40
20.0
  9
$ATTMODE
 70
     1
  9
$TEXTSIZE
 40
64.0
  9
$TRACEWID
 40
0.05
  9
$TEXTSTYLE
  7
STANDARD
  9
$CLAYER
  8
0
  9
$CELTYPE
  6
ByLayer
  9
$CECOLOR
 62
   256
  9
$CELTSCALE
 40
1.0
  9
$DISPSILH
 70
     0
  9
$DIMSCALE
 40
1.0
  9
$DIMASZ
 40
0.12
  9
$DIMEXO
 40
0.05
  9
$DIMDLI
 40
0.5
  9
$DIMRND
 40
0.0
  9
$DIMDLE
 40
0.0
  9
$DIMEXE
 40
0.1
  9
$DIMTP
 40
0.1
  9
$DIMTM
 40
0.1
  9
$DIMTXT
 40
0.12
  9
$DIMCEN
 40
0.0
  9
$DIMTSZ
 40
0.0
  9
$DIMTOL
 70
     0
  9
$DIMLIM
 70
     0
  9
$DIMTIH
 70
     1
  9
$DIMTOH
 70
     1
  9
$DIMSE1
 70
     0
  9
$DIMSE2
 70
     0
  9
$DIMTAD
 70
     0
  9
$DIMZIN
 70
     7
  9
$DIMBLK
  1

  9
$DIMASO
 70
     1
  9
$DIMSHO
 70
     0
  9
$DIMPOST
  1

  9
$DIMAPOST
  1
mm
  9
$DIMALT
 70
     0
  9
$DIMALTD
 70
     2
  9
$DIMALTF
 40
25.4
  9
$DIMLFAC
 40
1.0
  9
$DIMTOFL
 70
     0
  9
$DIMTVP
 40
0.0
  9
$DIMTIX
 70
     0
  9
$DIMSOXD
 70
     0
  9
$DIMSAH
 70
     0
  9
$DIMBLK1
  1

  9
$DIMBLK2
  1

  9
$DIMSTYLE
  2
AM_ANSI
  9
$DIMCLRD
 70
   256
  9
$DIMCLRE
 70
   256
  9
$DIMCLRT
 70
     2
  9
$DIMTFAC
 40
0.71
  9
$DIMGAP
 40
0.06
  9
$DIMJUST
 70
     0
  9
$DIMSD1
 70
     0
  9
$DIMSD2
 70
     0
  9
$DIMTOLJ
 70
     1
  9
$DIMTZIN
 70
     7
  9
$DIMALTZ
 70
     0
  9
$DIMALTTZ
 70
     0
  9
$DIMUPT
 70
     0
  9
$DIMDEC
 70
     4
  9
$DIMTDEC
 70
     4
  9
$DIMALTU
 70
     2
  9
$DIMALTTD
 70
     4
  9
$DIMTXSTY
  7
STANDARD
  9
$DIMAUNIT
 70
     0
  9
$DIMADEC
 70
     0
  9
$DIMALTRND
 40
0.0
  9
$DIMAZIN
 70
     2
  9
$DIMDSEP
 70
    46
  9
$DIMATFIT
 70
     3
  9
$DIMFRAC
 70
     0
  9
$DIMLDRBLK
  1

  9
$DIMLUNIT
 70
     2
  9
$DIMLWD
 70
    -1
  9
$DIMLWE
 70
    -1
  9
$DIMTMOVE
 70
     0
  9
$LUNITS
 70
     2
  9
$LUPREC
 70
     4
  9
$SKETCHINC
 40
0.1
  9
$FILLETRAD
 40
4.0
  9
$AUNITS
 70
     1
  9
$AUPREC
 70
     3
  9
$MENU
  1
ACAD
  9
$ELEVATION
 40
0.0
  9
$PELEVATION
 40
0.0
  9
$THICKNESS
 40
50.0
  9
$LIMCHECK
 70
     0
  9
$CHAMFERA
 40
0.0
  9
$CHAMFERB
 40
0.0
  9
$CHAMFERC
 40
0.0
  9
$CHAMFERD
 40
0.0
  9
$SKPOLY
 70
     0
  9
$TDCREATE
 40
2452321.396199653
  9
$TDUCREATE
 40
2452321.021199653
  9
$TDUPDATE
 40
2456211.481757835
  9
$TDUUPDATE
 40
2456211.106757836
  9
$TDINDWG
 40
1.0410539815
  9
$TDUSRTIMER
 40
1.0410484028
  9
$USRTIMER
 70
     1
  9
$ANGBASE
 50
0.0
  9
$ANGDIR
 70
     0
  9
$PDMODE
 70
     3
  9
$PDSIZE
 40
-2.0
  9
$PLINEWID
 40
0.0
  9
$SPLFRAME
 70
     0
  9
$SPLINETYPE
 70
     6
  9
$SPLINESEGS
 70
     8
  9
$HANDSEED
  5
2F03
  9
$SURFTAB1
 70
     6
  9
$SURFTAB2
 70
     6
  9
$SURFTYPE
 70
     6
  9
$SURFU
 70
     6
  9
$SURFV
 70
     6
  9
$UCSBASE
  2

  9
$UCSNAME
  2

  9
$UCSORG
 10
0.0
 20
0.0
 30
0.0
  9
$UCSXDIR
 10
1.0
 20
0.0
 30
0.0
  9
$UCSYDIR
 10
0.0
 20
1.0
 30
0.0
  9
$UCSORTHOREF
  2

  9
$UCSORTHOVIEW
 70
     0
  9
$UCSORGTOP
 10
0.0
 20
0.0
 30
0.0
  9
$UCSORGBOTTOM
 10
0.0
 20
0.0
 30
0.0
  9
$UCSORGLEFT
 10
0.0
 20
0.0
 30
0.0
  9
$UCSORGRIGHT
 10
0.0
 20
0.0
 30
0.0
  9
$UCSORGFRONT
 10
0.0
 20
0.0
 30
0.0
  9
$UCSORGBACK
 10
0.0
 20
0.0
 30
0.0
  9
$PUCSBASE
  2

  9
$PUCSNAME
  2

  9
$PUCSORG
 10
0.0
 20
0.0
 30
0.0
  9
$PUCSXDIR
 10
1.0
 20
0.0
 30
0.0
  9
$PUCSYDIR
 10
0.0
 20
1.0
 30
0.0
  9
$PUCSORTHOREF
  2

  9
$PUCSORTHOVIEW
 70
     0
  9
$PUCSORGTOP
 10
0.0
 20
0.0
 30
0.0
  9
$PUCSORGBOTTOM
 10
0.0
 20
0.0
 30
0.0
  9
$PUCSORGLEFT
 10
0.0
 20
0.0
 30
0.0
  9
$PUCSORGRIGHT
 10
0.0
 20
0.0
 30
0.0
  9
$PUCSORGFRONT
 10
0.0
 20
0.0
 30
0.0
  9
$PUCSORGBACK
 10
0.0
 20
0.0
 30
0.0
  9
$USERI1
 70
     0
  9
$USERI2
 70
     0
  9
$USERI3
 70
     0
  9
$USERI4
 70
     0
  9
$USERI5
 70
     0
  9
$USERR1
 40
20.0
  9
$USERR2
 40
0.0
  9
$USERR3
 40
0.0
  9
$USERR4
 40
0.0
  9
$USERR5
 40
0.0
  9
$WORLDVIEW
 70
     1
  9
$SHADEDGE
 70
     3
  9
$SHADEDIF
 70
    70
  9
$TILEMODE
 70
     1
  9
$MAXACTVP
 70
    64
  9
$PINSBASE
 10
0.0
 20
0.0
 30
0.0
  9
$PLIMCHECK
 70
     0
  9
$PEXTMIN
 10
1.000000000000000E+20
 20
1.000000000000000E+20
 30
1.000000000000000E+20
  9
$PEXTMAX
 10
-1.000000000000000E+20
 20
-1.000000000000000E+20
 30
-1.000000000000000E+20
  9
$PLIMMIN
 10
0.0
 20
0.0
  9
$PLIMMAX
 10
12.0
 20
9.0
  9
$UNITMODE
 70
     0
  9
$VISRETAIN
 70
     1
  9
$PLINEGEN
 70
     0
  9
$PSLTSCALE
 70
     1
  9
$TREEDEPTH
 70
  3020
  9
$CMLSTYLE
  2
Standard
  9
$CMLJUST
 70
     0
  9
$CMLSCALE
 40
1.0
  9
$PROXYGRAPHICS
 70
     1
  9
$MEASUREMENT
 70
     0
  9
$CELWEIGHT
370
    -1
  9
$ENDCAPS
280
     0
  9
$JOINSTYLE
280
     0
  9
$LWDISPLAY
290
     0
  9
$INSUNITS
 70
     0
  9
$HYPERLINKBASE
  1

  9
$STYLESHEET
  1

  9
$XEDIT
290
     1
  9
$CEPSNTYPE
380
     0
  9
$PSTYLEMODE
290
     1
  9
$FINGERPRINTGUID
  2
{F3669659-67BA-436E-89CC-37D054ADD10C}
  9
$VERSIONGUID
  2
{B0F23760-77BA-4E4F-BA5C-9A4CDDD30F93}
  9
$EXTNAMES
290
     1
  9
$PSVPSCALE
 40
0.0
  9
$OLESTARTUP
290
     0
  0
ENDSEC
  0
SECTION
  2
CLASSES
  0
CLASS
  1
ACDBDICTIONARYWDFLT
  2
AcDbDictionaryWithDefault
  3
ObjectDBX Classes
 90
        0
280
     0
281
     0
  0
CLASS
  1
MATERIAL
  2
AcDbMaterial
  3
ObjectDBX Classes
 90
     1153
280
     0
281
     0
  0
CLASS
  1
VISUALSTYLE
  2
AcDbVisualStyle
  3
ObjectDBX Classes
 90
     4095
280
     0
281
     0
  0
CLASS
  1
SCALE
  2
AcDbScale
  3
ObjectDBX Classes
 90
     1153
280
     0
281
     0
  0
CLASS
  1
TABLESTYLE
  2
AcDbTableStyle
  3
ObjectDBX Classes
 90
     4095
280
     0
281
     0
  0
CLASS
  1
MLEADERSTYLE
  2
AcDbMLeaderStyle
  3
ACDB_MLEADERSTYLE_CLASS
 90
     4095
280
     0
281
     0
  0
CLASS
  1
AMGSETTINGSOBJ
  2
AmgSettingsObj
  3
"AcadM|Product Description: AutoCAD Mechanical|Company: Autodesk, Inc."
 90
     1024
280
     0
281
     0
  0
CLASS
  1
ACME_DOCUMENT
  2
AcMeDbDoc
  3
AcMeServices
 90
     1024
280
     0
281
     0
  0
CLASS
  1
ACMESCOPE
  2
AcMeScope
  3
AcMeServices
 90
     1024
280
     0
281
     0
  0
CLASS
  1
ACMECOMMANDHISTORY
  2
AcMeCommandHistory
  3
AcMeServices
 90
     1024
280
     0
281
     0
  0
CLASS
  1
ACIMSYSVARMAN
  2
AcImSysVarManager
  3
AcMeServices
 90
     1024
280
     0
281
     0
  0
CLASS
  1
ACIMREALSYSVAR
  2
AcImRealSysVar
  3
AcMeServices
 90
     1024
280
     0
281
     0
  0
CLASS
  1
ACIMINTSYSVAR
  2
AcImIntSysVar
  3
AcMeServices
 90
     1024
280
     0
281
     0
  0
CLASS
  1
ACMEDRAWINGMAN
  2
AcMeDrawingMan
  3
AcMeServices
 90
     1024
280
     0
281
     0
  0
CLASS
  1
ACMEVIEW
  2
AcMeView
  3
AcMeServices
 90
     1024
280
     0
281
     0
  0
CLASS
  1
ACDBENTITYCACHE
  2
AcMeEntityCache
  3
AcMeServices
 90
     1024
280
     0
281
     0
  0
CLASS
  1
GSMANAGER
  2
AcMeGSManager
  3
AcMeServices
 90
     1024
280
     0
281
     0
  0
CLASS
  1
AMDTINTERNALREACTOR
  2
AmdtInternalReactor
  3
AcMeServices
 90
     1024
280
     0
281
     0
  0
CLASS
  1
ACMESTATEMGR
  2
AcMeStateMgr
  3
AcMeServices
 90
     1024
280
     0
281
     0
  0
CLASS
  1
ACGREFMASTER
  2
AcGrefMaster
  3
AcAttribServices
 90
     1024
280
     0
281
     0
  0
CLASS
  1
AM_DRAWING_MGR
  2
AcDmDwgMgr
  3
AcMechDwgViewMgmt
 90
     1024
280
     0
281
     0
  0
CLASS
  1
AM_DWG_DOCUMENT
  2
AcDmDwgDocument
  3
AcMechDwgViewMgmt
 90
     1024
280
     0
281
     0
  0
CLASS
  1
AM_DWG_SHEET
  2
AcDmSheet
  3
AcMechDwgViewMgmt
 90
     1024
280
     0
281
     0
  0
CLASS
  1
AM_VIEWDIMPARMAP
  2
AcDmViewDimParMap
  3
AcMechDwgViewMgmt
 90
     1024
280
     0
281
     0
  0
CLASS
  1
AM_DWGMGR_NAME
  2
AcDmDwgMgrName
  3
AcMechDwgViewMgmt
 90
     1024
280
     0
281
     0
  0
CLASS
  1
ACME_DATABASE
  2
AcMeDbDatabase
  3
AcMeServices
 90
     1024
280
     0
281
     0
  0
CLASS
  1
ACRFINSADJUSTERMGR
  2
AcRfInsAdjusterMgr
  3
AcMeServices
 90
     1024
280
     0
281
     0
  0
CLASS
  1
ACGREFACADMASTER
  2
AcGrefacadMaster
  3
AcGrefServices
 90
     1024
280
     0
281
     0
  0
CLASS
  1
AMDTMENUSTATEMGR
  2
AmdtMenuStateMgr
  3
McadcomServices
 90
     1024
280
     0
281
     0
  0
CLASS
  1
AMDTMCOMMENUSTATE
  2
AmdtMcomMenuState
  3
McadcomServices
 90
     1024
280
     0
281
     0
  0
CLASS
  1
AMIMASTER
  2
AmiMaster
  3
AmiServices
 90
     1024
280
     0
281
     0
  0
CLASS
  1
ASAPP
  2
AcAsAppObject
  3
AutoSurfServices
 90
     1024
280
     0
281
     0
  0
CLASS
  1
IM_STATIC_MAN
  2
AcImStaticVarManager
  3
AcMeServices
 90
     1024
280
     0
281
     0
  0
CLASS
  1
ACIMSTRSYSVAR
  2
AcImStrSysVar
  3
AcMeServices
 90
     1024
280
     0
281
     0
  0
CLASS
  1
ACIMDBLSTATICVAR
  2
AcImDblStaticVar
  3
AcMeServices
 90
     1024
280
     0
281
     0
  0
CLASS
  1
ACIMSTRSTATICVAR
  2
AcImStrStaticVar
  3
AcMeServices
 90
     1024
280
     0
281
     0
  0
CLASS
  1
ACIMINTSTATICVAR
  2
AcImIntStaticVar
  3
AcMeServices
 90
     1024
280
     0
281
     0
  0
CLASS
  1
ACASGREFMASTER
  2
AcAsGrefMaster
  3
AutoSurfResolverServices
 90
     1024
280
     0
281
     0
  0
CLASS
  1
ACADGREFMODULE
  2
AcAdGrefModule
  3
AdGrefServices
 90
     1024
280
     0
281
     0
  0
CLASS
  1
AMDTMAPISURFMOUDULE
  2
AmdtMApiSurfModule
  3
MApiSurfServices
 90
     1024
280
     0
281
     0
  0
CLASS
  1
MAPIAMMOUDLE
  2
MApiAmModule
  3
MApiAmServices
 90
     1024
280
     0
281
     0
  0
CLASS
  1
AMDTADMENUSTATE
  2
AmdtAdMenuState
  3
DesignerServices
 90
     1024
280
     0
281
     0
  0
CLASS
  1
ADAPPL
  2
AcAdAppl
  3
DesignerServices
 90
     1024
280
     0
281
     0
  0
CLASS
  1
DEPMGR
  2
AcAdDepMgr
  3
DesignerServices
 90
     1024
280
     0
281
     0
  0
CLASS
  1
PARAMMGR
  2
AcAdParamMgr
  3
DesignerServices
 90
     1024
280
     0
281
     0
  0
CLASS
  1
PARAMSCOPE
  2
AcAdParamScope
  3
DesignerServices
 90
     1024
280
     0
281
     0
  0
CLASS
  1
NAMEDAPPL
  2
AcAdNamedAppl
  3
DesignerServices
 90
     1024
280
     0
281
     0
  0
CLASS
  1
AMDTDMMENUSTATE
  2
AmdtDmMenuState
  3
AcMechDwgViewMgmt
 90
     1024
280
     0
281
     0
  0
CLASS
  1
MAPIADMODULE
  2
MApiAdModule
  3
MApiAdServices
 90
     1024
280
     0
281
     0
  0
CLASS
  1
AMDTAMMENUSTATE
  2
AmdtAmMenuState
  3
DesignerAssemblies
 90
     1024
280
     0
281
     0
  0
CLASS
  1
ACAMPROJECT
  2
AcAmProject
  3
DesignerAssemblies
 90
     1024
280
     0
281
     0
  0
CLASS
  1
ACAMGRCOMPDEF
  2
AcAmGrCompDef
  3
DesignerAssemblies
 90
     1024
280
     0
281
     0
  0
CLASS
  1
ACCMCONTEXT
  2
AcCmContext
  3
DesignerAssemblies
 90
     1024
280
     0
281
     0
  0
CLASS
  1
ACAMCOMPDEF
  2
AcAmCompDef
  3
DesignerAssemblies
 90
     1024
280
     0
281
     0
  0
CLASS
  1
ACAMCOMPDEFMGR
  2
AcAmCompDefMgr
  3
DesignerAssemblies
 90
     1024
280
     0
281
     0
  0
CLASS
  1
AMCONTEXTMGR
  2
AcAmContextMgr
  3
DesignerAssemblies
 90
     1024
280
     0
281
     0
  0
CLASS
  1
ACAMCONTEXTMODELER
  2
AcAmContextModeler
  3
DesignerAssemblies
 90
     1024
280
     0
281
     0
  0
CLASS
  1
ACMDATADICTIONARY
  2
AcmDataDictionary
  3
"AcmSymBB|Product Description: AutoCAD Mechanical|Company: Autodesk, Inc."
 90
     1024
280
     0
281
     0
  0
CLASS
  1
ACMDATAENTRYBLOCK
  2
AcmDataEntryBlock
  3
AcmSymBB|Product Description: AutoCAD Mechanical|Company: Autodesk, Inc.
 90
     1024
280
     0
281
     0
  0
CLASS
  1
ACRFATTGENMGR
  2
AcRfAttGeneralMgr
  3
AcAttribServices
 90
     1024
280
     0
281
     0
  0
CLASS
  1
ACRFOBJATTMGR
  2
AcRfObjAttGroupMgr
  3
AcAttribServices
 90
     1024
280
     0
281
     0
  0
CLASS
  1
ACRFMCADAPIATTHOLDER
  2
AcRfMCADAPIAttHolder
  3
AcAttribServices
 90
     1024
280
     0
281
     0
  0
CLASS
  1
AMDTSYSATTR
  2
AmdtSystemAttribute
  3
AcAttribServices
 90
     1024
280
     0
281
     0
  0
CLASS
  1
CATALOGSTATE
  2
AcAmCatalogState
  3
DesignerAssemblies
 90
     1024
280
     0
281
     0
  0
CLASS
  1
ACAMGRCOMPDEFSET
  2
AcAmGrCompDefSet
  3
DesignerAssemblies
 90
     1024
280
     0
281
     0
  0
CLASS
  1
AMDTBROWSERDBTAB
  2
AmdtBrowserDbTab
  3
McadcomServices
 90
     1024
280
     0
281
     0
  0
CLASS
  1
CBROWSERAPPOBJECT
  2
CBrowserAppObject
  3
McadcomServices
 90
     1024
280
     0
281
     0
  0
CLASS
  1
DM_PLACEHOLDER
  2
AcDmSelsetPlaceholder
  3
AcMechDwgViewMgmt
 90
     1024
280
     0
281
     0
  0
CLASS
  1
ACMSTANDARDANSI
  2
AcmStandardANSI
  3
"Amdt_StdImp|Product Description: AutoCAD Mechanical|Company: Autodesk, Inc."
 90
     1024
280
     0
281
     0
  0
CLASS
  1
ACMSURFSTANDARDANSI
  2
AcmSurfTextStdANSI
  3
"Amdt_StdImp|Product Description: AutoCAD Mechanical|Company: Autodesk, Inc."
 90
     1024
280
     0
281
     0
  0
CLASS
  1
ACMFCFSTANDARDANSI
  2
AcmFCFStdANSI
  3
"Amdt_StdImp|Product Description: AutoCAD Mechanical|Company: Autodesk, Inc."
 90
     1024
280
     0
281
     0
  0
CLASS
  1
ACMWELDSTANDARDANSI
  2
AcmWeldingStdANSI
  3
"Amdt_StdImp|Product Description: AutoCAD Mechanical|Company: Autodesk, Inc."
 90
     1024
280
     0
281
     0
  0
CLASS
  1
ACMIDSTANDARDANSI
  2
AcmIdStdANSI
  3
"Amdt_StdImp|Product Description: AutoCAD Mechanical|Company: Autodesk, Inc."
 90
     1024
280
     0
281
     0
  0
CLASS
  1
ACMDATUMSTANDARDANSI
  2
AcmDatumStdANSI
  3
"Amdt_StdImp|Product Description: AutoCAD Mechanical|Company: Autodesk, Inc."
 90
     1024
280
     0
281
     0
  0
CLASS
  1
ACMBOMSTANDARDANSI
  2
AcmBOMStdANSI
  3
"Amdt_StdImp|Product Description: AutoCAD Mechanical|Company: Autodesk, Inc."
 90
     1024
280
     0
281
     0
  0
CLASS
  1
ACMDETAILSTANDARDANSI
  2
AmdtDetailSymStdANSI
  3
"Amdt_StdImp|Product Description: AutoCAD Mechanical|Company: Autodesk, Inc."
 90
     1024
280
     0
281
     0
  0
CLASS
  1
ACMSECTIONSTANDARDANSI
  2
AmdtSectionSymStdANSI
  3
"Amdt_StdImp|Product Description: AutoCAD Mechanical|Company: Autodesk, Inc."
 90
     1024
280
     0
281
     0
  0
CLASS
  1
ACMCENTERLINESTANDARDANSI
  2
AmdtCenterLineStdANSI
  3
"Amdt_StdImp|Product Description: AutoCAD Mechanical|Company: Autodesk, Inc."
 90
     1024
280
     0
281
     0
  0
CLASS
  1
ACMTHREADLINESTANDARDANSI
  2
AmdtThreadLineStdANSI
  3
"Amdt_StdImp|Product Description: AutoCAD Mechanical|Company: Autodesk, Inc."
 90
     1024
280
     0
281
     0
  0
CLASS
  1
ACMNOTESTANDARDANSI
  2
AmdtNoteStdANSI
  3
"Amdt_StdImp|Product Description: AutoCAD Mechanical|Company: Autodesk, Inc."
 90
     1024
280
     0
281
     0
  0
CLASS
  1
ACMTAPERSTANDARDANSI
  2
AcmTaperStdANSI
  3
"Amdt_StdImp|Product Description: AutoCAD Mechanical|Company: Autodesk, Inc."
 90
     1024
280
     0
281
     0
  0
CLASS
  1
ACMANOOTATIONVIEWSTANDARDANSI
  2
AmdtAnViewStdANSI
  3
"Amdt_StdImp|Product Description: AutoCAD Mechanical|Company: Autodesk, Inc."
 90
     1024
280
     0
281
     0
  0
CLASS
  1
ACAMGLAYSTD
  2
AcAmgLayStd
  3
"AmgLay|Product Description: AutoCAD Mechanical|Company: Autodesk, Inc."
 90
     1024
280
     0
281
     0
  0
CLASS
  1
ACAMGDIMSTD
  2
AcAmgDimStd
  3
"AmgDim|Product Description: AutoCAD Mechanical|Company: Autodesk, Inc."
 90
     1024
280
     0
281
     0
  0
CLASS
  1
ACAMGHOLECHARTSTDANSI
  2
AcAmgHoleChartStdANSI
  3
AmgDim|Product Description: AutoCAD Mechanical|Company: Autodesk, Inc.
 90
     1024
280
     0
281
     0
  0
CLASS
  1
AMGOBJPROPCFG
  2
AmgObjPropCfg
  3
"AmgLay|Product Description: AutoCAD Mechanical|Company: Autodesk, Inc."
 90
     1025
280
     0
281
     0
  0
CLASS
  1
ACAMGTITLESTD
  2
AcAmgTitleStd
  3
"AmgTitle|Product Description: AutoCAD Mechanical|Company: Autodesk, Inc."
 90
     4095
280
     0
281
     0
  0
CLASS
  1
AMDTNOTETEMPLATEDB
  2
AmdtNoteTemplateDB
  3
AcmSymBB|Product Description: AutoCAD Mechanical|Company: Autodesk, Inc.
 90
     1024
280
     0
281
     0
  0
CLASS
  1
LAYER_INDEX
  2
AcDbLayerIndex
  3
ObjectDBX Classes
 90
        0
280
     0
281
     0
  0
CLASS
  1
IDBUFFER
  2
AcDbIdBuffer
  3
ObjectDBX Classes
 90
        0
280
     0
281
     0
  0
CLASS
  1
DICTIONARYVAR
  2
AcDbDictionaryVar
  3
ObjectDBX Classes
 90
        0
280
     0
281
     0
  0
CLASS
  1
CELLSTYLEMAP
  2
AcDbCellStyleMap
  3
ObjectDBX Classes
 90
     1152
280
     0
281
     0
  0
CLASS
  1
ACDBPLACEHOLDER
  2
AcDbPlaceHolder
  3
ObjectDBX Classes
 90
        0
280
     0
281
     0
  0
CLASS
  1
LAYOUT
  2
AcDbLayout
  3
ObjectDBX Classes
 90
        0
280
     0
281
     0
  0
ENDSEC
  0
SECTION
  2
TABLES
  0
TABLE
  2
VPORT
  5
2CA5
330
0
100
AcDbSymbolTable
 70
     1
  0
VPORT
  5
2D15
330
2CA5
100
AcDbSymbolTableRecord
100
AcDbViewportTableRecord
  2
*ACTIVE
 70
     0
 10
0.0
 20
0.0
 11
1.0
 21
1.0
 12
0.0
 22
0.0
 13
0.0
 23
0.0
 14
1.0
 24
1.0
 15
0.0
 25
0.0
 16
0.0
 26
0.0
 36
1.0
 17
116.2422319830413
 27
-110.2294825369371
 37
0.0
 40
1693.385659468424
 41
1.712555066079295
 42
50.0
 43
0.0
 44
0.0
 50
0.0
 51
0.0
 71
     0
 72
   100
 73
     1
 74
     0
 75
     0
 76
     0
 77
     0
 78
     0
281
     0
 65
     0
110
0.0
120
0.0
130
0.0
111
1.0
121
0.0
131
0.0
112
0.0
122
1.0
132
0.0
 79
     0
146
0.0
  0
ENDTAB
  0
TABLE
  2
LTYPE
  5
2CA2
330
0
100
AcDbSymbolTable
 70
    19
  0
LTYPE
  5
2CFF
330
2CA2
100
AcDbSymbolTableRecord
100
AcDbLinetypeTableRecord
  2
ByBlock
 70
     0
  3

 72
    65
 73
     0
 40
0.0
  0
LTYPE
  5
2D00
330
2CA2
100
AcDbSymbolTableRecord
100
AcDbLinetypeTableRecord
  2
ByLayer
 70
     0
  3

 72
    65
 73
     0
 40
0.0
  0
LTYPE
  5
2D01
330
2CA2
100
AcDbSymbolTableRecord
100
AcDbLinetypeTableRecord
  2
CONTINUOUS
 70
     0
  3
実線
 72
    65
 73
     0
 40
0.0
  0
LTYPE
  5
2D16
330
2CA2
100
AcDbSymbolTableRecord
100
AcDbLinetypeTableRecord
  2
DASHDOT
 70
     0
  3
____ _ ____ _ ____ _ ____ _ ____ _ ____ _ ____
 72
    65
 73
     4
 40
5.5
 49
4.0
 74
     0
 49
-0.6
 74
     0
 49
0.3
 74
     0
 49
-0.6
 74
     0
  0
LTYPE
  5
2D17
330
2CA2
100
AcDbSymbolTableRecord
100
AcDbLinetypeTableRecord
  2
HIDDEN
 70
     0
  3
Hidden __ __ __ __ __ __ __ __ __ __ __ __ __ _
 72
    65
 73
     2
 40
0.375
 49
0.25
 74
     0
 49
-0.125
 74
     0
  0
LTYPE
  5
2D18
330
2CA2
100
AcDbSymbolTableRecord
100
AcDbLinetypeTableRecord
  2
PHANTOM2
 70
     0
  3
Phantom (.5x) ___ _ _ ___ _ _ ___ _ _ ___ _ _
 72
    65
 73
     6
 40
1.25
 49
0.625
 74
     0
 49
-0.125
 74
     0
 49
0.125
 74
     0
 49
-0.125
 74
     0
 49
0.125
 74
     0
 49
-0.125
 74
     0
  0
LTYPE
  5
2D19
330
2CA2
100
AcDbSymbolTableRecord
100
AcDbLinetypeTableRecord
  2
CENTER
 70
     0
  3
Center ____ _ ____ _ ____ _ ____ _ ____ _ ____
 72
    65
 73
     4
 40
2.0
 49
1.25
 74
     0
 49
-0.25
 74
     0
 49
0.25
 74
     0
 49
-0.25
 74
     0
  0
LTYPE
  5
2D1A
330
2CA2
100
AcDbSymbolTableRecord
100
AcDbLinetypeTableRecord
  2
ASULTYPE
 70
     0
  3
実線
 72
    65
 73
     2
 40
3.0
 49
2.5
 74
     0
 49
0.5
 74
     0
  0
LTYPE
  5
2D1B
330
2CA2
100
AcDbSymbolTableRecord
100
AcDbLinetypeTableRecord
  2
ASVLTYPE
 70
     0
  3
__ __ __ __ __ __ __ __ __ __ __ __ __ __ __ __ __ __ __ __ __
 72
    65
 73
     2
 40
0.75
 49
0.5
 74
     0
 49
-0.25
 74
     0
  0
LTYPE
  5
2D1C
330
2CA2
100
AcDbSymbolTableRecord
100
AcDbLinetypeTableRecord
  2
AM_ISO02W050
 70
     0
  3
__ __ __ __ __ __ __ __ __ __ __ __ __ __ __
 72
    65
 73
     2
 40
7.5
 49
6.0
 74
     0
 49
-1.5
 74
     0
  0
LTYPE
  5
2D1D
330
2CA2
100
AcDbSymbolTableRecord
100
AcDbLinetypeTableRecord
  2
AM_ISO08W050
 70
     0
  3
____ . ____ . ____ . ____ . ____ . ____ . ____
 72
    65
 73
     4
 40
18.0
 49
12.0
 74
     0
 49
-1.5
 74
     0
 49
3.0
 74
     0
 49
-1.5
 74
     0
  0
LTYPE
  5
2D1E
330
2CA2
100
AcDbSymbolTableRecord
100
AcDbLinetypeTableRecord
  2
AM_ISO09W050
 70
     0
  3
_____ . . _____ . . _____ . . ____ .. ____
 72
    65
 73
     6
 40
22.5
 49
12.0
 74
     0
 49
-1.5
 74
     0
 49
3.0
 74
     0
 49
-1.5
 74
     0
 49
3.0
 74
     0
 49
-1.5
 74
     0
  0
LTYPE
  5
2D1F
330
2CA2
100
AcDbSymbolTableRecord
100
AcDbLinetypeTableRecord
  2
AMCONSTR
 70
     0
  3
_______________________
 72
    65
 73
     2
 40
9999.0
 49
9999.0
 74
     0
 49
0.0
 74
     0
  0
LTYPE
  5
2D20
330
2CA2
100
AcDbSymbolTableRecord
100
AcDbLinetypeTableRecord
  2
AM_ISO08W050X2
 70
     0
  3
__ . __ . __ . __ . __ . __
 72
    65
 73
     4
 40
9.0
 49
6.0
 74
     0
 49
-0.75
 74
     0
 49
1.5
 74
     0
 49
-0.75
 74
     0
  0
LTYPE
  5
2D21
330
2CA2
100
AcDbSymbolTableRecord
100
AcDbLinetypeTableRecord
  2
AM_ISO02W050X2
 70
     0
  3
 _ _ _ _ _ _ _ _ _ _ _ _
 72
    65
 73
     2
 40
3.75
 49
3.0
 74
     0
 49
-0.75
 74
     0
  0
LTYPE
  5
2D22
330
2CA2
100
AcDbSymbolTableRecord
100
AcDbLinetypeTableRecord
  2
AMZIGZAG
 70
     0
  3
/\/-/\/-/\/-/\/-/\/-/\/
 72
    65
 73
     2
 40
11.0001
 49
0.0001
 74
     0
 49
-11.0
 74
     0
  0
LTYPE
  5
2D23
330
2CA2
100
AcDbSymbolTableRecord
100
AcDbLinetypeTableRecord
  2
CENTER2
 70
     0
  3
Center (.5x) ___ _ ___ _ ___ _ ___ _ ___ _ ___
 72
    65
 73
     4
 40
1.125
 49
0.75
 74
     0
 49
-0.125
 74
     0
 49
0.125
 74
     0
 49
-0.125
 74
     0
  0
LTYPE
  5
2D24
330
2CA2
100
AcDbSymbolTableRecord
100
AcDbLinetypeTableRecord
  2
HIDDEN2
 70
     0
  3
Hidden (.5x) _ _ _ _ _ _ _ _ _ _ _ _ _ _ _ _ _
 72
    65
 73
     2
 40
0.1875
 49
0.125
 74
     0
 49
-0.0625
 74
     0
  0
LTYPE
  5
2D25
330
2CA2
100
AcDbSymbolTableRecord
100
AcDbLinetypeTableRecord
  2
AMZIGZAG2
 70
     0
  3
/\/-/\/-/\/-/\/-/\/-/\/
 72
    65
 73
     2
 40
0.4401
 49
0.0001
 74
     0
 49
-0.4400000000000003
 74
     0
  0
LTYPE
  5
2D26
330
2CA2
100
AcDbSymbolTableRecord
100
AcDbLinetypeTableRecord
  2
ACANSTGB
 70
     0
  3
__ . . __ . .
 72
    65
 73
     6
 40
0.35433070866
 49
0.15748031496
 74
     0
 49
-0.03937007874
 74
     0
 49
0.03937007874
 74
     0
 49
-0.03937007874
 74
     0
 49
0.03937007874
 74
     0
 49
-0.03937007874
 74
     0
  0
LTYPE
  5
2D27
330
2CA2
100
AcDbSymbolTableRecord
100
AcDbLinetypeTableRecord
  2
ACANSTGL
 70
     0
  3
_ _ _ _ _
 72
    65
 73
     2
 40
0.11811023622
 49
0.07874015748
 74
     0
 49
-0.03937007874
 74
     0
  0
ENDTAB
  0
TABLE
  2
LAYER
  5
2C9F
330
0
100
AcDbSymbolTable
 70
    12
  0
LAYER
  5
2CF9
102
{ACAD_XDICTIONARY
360
2EC2
102
}
330
2C9F
100
AcDbSymbolTableRecord
100
AcDbLayerTableRecord
  2
0
 70
     0
 62
     7
  6
CONTINUOUS
370
    -3
390
2CAC
  0
LAYER
  5
2D28
102
{ACAD_XDICTIONARY
360
2EC4
102
}
330
2C9F
100
AcDbSymbolTableRecord
100
AcDbLayerTableRecord
  2
OUTLINE
 70
     0
 62
     3
  6
CONTINUOUS
370
    -3
390
2CAC
  0
LAYER
  5
2D29
102
{ACAD_XDICTIONARY
360
2EC6
102
}
330
2C9F
100
AcDbSymbolTableRecord
100
AcDbLayerTableRecord
  2
SIZE
 70
     0
 62
    30
  6
CONTINUOUS
370
    -3
390
2CAC
  0
LAYER
  5
2D2A
102
{ACAD_XDICTIONARY
360
2EC8
102
}
330
2C9F
100
AcDbSymbolTableRecord
100
AcDbLayerTableRecord
  2
BASIS
 70
     0
 62
     6
  6
DASHDOT
370
    -3
390
2CAC
  0
LAYER
  5
2D2B
102
{ACAD_XDICTIONARY
360
2ECA
102
}
330
2C9F
100
AcDbSymbolTableRecord
100
AcDbLayerTableRecord
  2
DETAIL
 70
     0
 62
     5
  6
CONTINUOUS
370
    -3
390
2CAC
  0
LAYER
  5
2D2C
102
{ACAD_XDICTIONARY
360
2ECC
102
}
330
2C9F
100
AcDbSymbolTableRecord
100
AcDbLayerTableRecord
  2
ARRANGE
 70
     0
 62
     1
  6
CONTINUOUS
370
    -3
390
2CAC
  0
LAYER
  5
2D2D
330
2C9F
100
AcDbSymbolTableRecord
100
AcDbLayerTableRecord
  2
DEFPOINTS
 70
     0
 62
     7
  6
CONTINUOUS
290
     0
370
    -3
390
2CAC
  0
LAYER
  5
2D2E
102
{ACAD_XDICTIONARY
360
2ECE
102
}
330
2C9F
100
AcDbSymbolTableRecord
100
AcDbLayerTableRecord
  2
ETC
 70
     0
 62
    61
  6
CONTINUOUS
370
    -3
390
2CAC
  0
LAYER
  5
2D2F
102
{ACAD_XDICTIONARY
360
2ED0
102
}
330
2C9F
100
AcDbSymbolTableRecord
100
AcDbLayerTableRecord
  2
FIX
 70
     0
 62
    11
  6
CONTINUOUS
370
    -3
390
2CAC
  0
LAYER
  5
2D30
102
{ACAD_XDICTIONARY
360
2ED2
102
}
330
2C9F
100
AcDbSymbolTableRecord
100
AcDbLayerTableRecord
  2
NOTE
 70
     0
 62
     4
  6
CONTINUOUS
370
    -3
390
2CAC
  0
LAYER
  5
2D31
102
{ACAD_XDICTIONARY
360
2ED4
102
}
330
2C9F
100
AcDbSymbolTableRecord
100
AcDbLayerTableRecord
  2
SERVICESPACE
 70
     0
 62
     2
  6
DASHDOT
370
    -3
390
2CAC
  0
LAYER
  5
2D32
102
{ACAD_XDICTIONARY
360
2ED6
102
}
330
2C9F
100
AcDbSymbolTableRecord
100
AcDbLayerTableRecord
  2
SYMBOLLINE
 70
     0
 62
    15
  6
CONTINUOUS
370
    -3
390
2CAC
  0
ENDTAB
  0
TABLE
  2
STYLE
  5
2CA0
330
0
100
AcDbSymbolTable
 70
     5
  0
STYLE
  5
2CFA
330
2CA0
100
AcDbSymbolTableRecord
100
AcDbTextStyleTableRecord
  2
STANDARD
 70
     0
 40
64.0
 41
0.9
 50
0.0
 71
     0
 42
64.0
  3
SIMPLEX.shx
  4
BIGFONT.shx
  0
STYLE
  5
2CFE
330
2CA0
100
AcDbSymbolTableRecord
100
AcDbTextStyleTableRecord
  2
ANNOTATIVE
 70
     0
 40
0.0
 41
1.0
 50
0.0
 71
     0
 42
0.2
  3
txt
  4

1001
ACADANNOTATIVE
1000
AnnotativeData
1002
{
1070
     1
1070
     1
1002
}
  0
STYLE
  5
2D33
330
2CA0
100
AcDbSymbolTableRecord
100
AcDbTextStyleTableRecord
  2

 70
     1
 40
0.0
 41
1.0
 50
0.0
 71
     0
 42
64.0
  3
genltshp.shx
  4

  0
STYLE
  5
2D34
330
2CA0
100
AcDbSymbolTableRecord
100
AcDbTextStyleTableRecord
  2
ACANSTS
 70
     0
 40
1.0
 41
1.0
 50
0.0
 71
     0
 42
64.0
  3
romans.shx
  4
extfont.shx
  0
STYLE
  5
2D35
330
2CA0
100
AcDbSymbolTableRecord
100
AcDbTextStyleTableRecord
  2
ACANSGDT
 70
     0
 40
0.0
 41
1.0
 50
0.0
 71
     0
 42
64.0
  3
amgdt.shx
  4

  0
ENDTAB
  0
TABLE
  2
VIEW
  5
2CA3
330
0
100
AcDbSymbolTable
 70
     1
  0
VIEW
  5
2D36
330
2CA3
100
AcDbSymbolTableRecord
100
AcDbViewTableRecord
  2
ALL
 70
     0
 40
4282.619807999997
 10
0.0
 20
41.30990399999999
 41
5940.0
 11
0.0
 21
0.0
 31
1.0
 12
0.0
 22
0.0
 32
0.0
 42
50.0
 43
0.0
 44
0.0
 50
0.0
 71
     0
281
     0
 72
     1
110
0.0
120
0.0
130
0.0
111
1.0
121
0.0
131
0.0
112
0.0
122
1.0
132
0.0
 79
     0
146
0.0
  0
ENDTAB
  0
TABLE
  2
UCS
  5
2CA4
330
0
100
AcDbSymbolTable
 70
     0
  0
ENDTAB
  0
TABLE
  2
APPID
  5
2CA6
330
0
100
AcDbSymbolTable
 70
    29
  0
APPID
  5
2CFB
330
2CA6
100
AcDbSymbolTableRecord
100
AcDbRegAppTableRecord
  2
ACAD
 70
     0
  0
APPID
  5
2D02
330
2CA6
100
AcDbSymbolTableRecord
100
AcDbRegAppTableRecord
  2
ACADANNOTATIVE
 70
     0
  0
APPID
  5
2D0C
330
2CA6
100
AcDbSymbolTableRecord
100
AcDbRegAppTableRecord
  2
ACAD_MLEADERVER
 70
     0
  0
APPID
  5
2D37
330
2CA6
100
AcDbSymbolTableRecord
100
AcDbRegAppTableRecord
  2
GENIUS_GENDIM_13
 70
     0
  0
APPID
  5
2D38
330
2CA6
100
AcDbSymbolTableRecord
100
AcDbRegAppTableRecord
  2
GENIUS_GENDTOL_13
 70
     0
  0
APPID
  5
2D39
330
2CA6
100
AcDbSymbolTableRecord
100
AcDbRegAppTableRecord
  2
GENIUS_GE3DTOL_13
 70
     0
  0
APPID
  5
2D3A
330
2CA6
100
AcDbSymbolTableRecord
100
AcDbRegAppTableRecord
  2
MCAD_NO_VIS
 70
     0
  0
APPID
  5
2D3B
330
2CA6
100
AcDbSymbolTableRecord
100
AcDbRegAppTableRecord
  2
ACAD_TEMP_GRAPHIC
 70
     0
  0
APPID
  5
2D3C
330
2CA6
100
AcDbSymbolTableRecord
100
AcDbRegAppTableRecord
  2
AD_DRAW
 70
     0
  0
APPID
  5
2D3D
330
2CA6
100
AcDbSymbolTableRecord
100
AcDbRegAppTableRecord
  2
ACATTRIBSERVICES
 70
     0
  0
APPID
  5
2D3E
330
2CA6
100
AcDbSymbolTableRecord
100
AcDbRegAppTableRecord
  2
ASURF_PCURVE_APPNAME
 70
     0
  0
APPID
  5
2D3F
330
2CA6
100
AcDbSymbolTableRecord
100
AcDbRegAppTableRecord
  2
AMG_3D2D_5_0
 70
     0
  0
APPID
  5
2D40
330
2CA6
100
AcDbSymbolTableRecord
100
AcDbRegAppTableRecord
  2
DESIGNERASSEMBLIES
 70
     0
  0
APPID
  5
2D41
330
2CA6
100
AcDbSymbolTableRecord
100
AcDbRegAppTableRecord
  2
ACADM_DIM_EDIT
 70
     0
  0
APPID
  5
2D42
330
2CA6
100
AcDbSymbolTableRecord
100
AcDbRegAppTableRecord
  2
AMDT_DM_ADJ
 70
     0
  0
APPID
  5
2D43
330
2CA6
100
AcDbSymbolTableRecord
100
AcDbRegAppTableRecord
  2
ACAD_DSTYLE_DIMARC_LENGTH_
 70
     0
  0
APPID
  5
2D44
330
2CA6
100
AcDbSymbolTableRecord
100
AcDbRegAppTableRecord
  2
ACAD_DSTYLE_DIMJOGGED_JOGA
 70
     0
  0
APPID
  5
2D45
330
2CA6
100
AcDbSymbolTableRecord
100
AcDbRegAppTableRecord
  2
ACAD_PSEXT
 70
     0
  0
APPID
  5
2D46
330
2CA6
100
AcDbSymbolTableRecord
100
AcDbRegAppTableRecord
  2
ACAD_EXEMPT_FROM_CAD_STANDARDS
 70
     0
  0
APPID
  5
2D47
330
2CA6
100
AcDbSymbolTableRecord
100
AcDbRegAppTableRecord
  2
ACAD_DSTYLE_DIMJAG
 70
     0
  0
APPID
  5
2D48
330
2CA6
100
AcDbSymbolTableRecord
100
AcDbRegAppTableRecord
  2
ACAD_DSTYLE_DIMTALN
 70
     0
  0
APPID
  5
2D49
330
2CA6
100
AcDbSymbolTableRecord
100
AcDbRegAppTableRecord
  2
AMG_3D2D_5_00
 70
     0
  0
APPID
  5
2D4A
330
2CA6
100
AcDbSymbolTableRecord
100
AcDbRegAppTableRecord
  2
AMG_3D2D_5_01
 70
     0
  0
APPID
  5
2D4B
330
2CA6
100
AcDbSymbolTableRecord
100
AcDbRegAppTableRecord
  2
AMG_3D2D_5_02
 70
     0
  0
APPID
  5
2E69
330
2CA6
100
AcDbSymbolTableRecord
100
AcDbRegAppTableRecord
  2
AMG_3D2D_5.0
 70
     0
  0
APPID
  5
2EFF
330
2CA6
100
AcDbSymbolTableRecord
100
AcDbRegAppTableRecord
  2
ACAD_DSTYLE_DIMARC_LENGTH_SYMBOL
 70
     0
  0
APPID
  5
2F00
330
2CA6
100
AcDbSymbolTableRecord
100
AcDbRegAppTableRecord
  2
ACAD_DSTYLE_DIM_LINETYPE
 70
     0
  0
APPID
  5
2F01
330
2CA6
100
AcDbSymbolTableRecord
100
AcDbRegAppTableRecord
  2
ACAD_DSTYLE_DIM_EXT1_LINETYPE
 70
     0
  0
APPID
  5
2F02
330
2CA6
100
AcDbSymbolTableRecord
100
AcDbRegAppTableRecord
  2
ACAD_DSTYLE_DIM_EXT2_LINETYPE
 70
     0
  0
ENDTAB
  0
TABLE
  2
DIMSTYLE
  5
2CA7
330
0
100
AcDbSymbolTable
 70
    10
100
AcDbDimStyleTable
 71
     1
340
2D4C
  0
DIMSTYLE
105
2CFC
330
2CA7
100
AcDbSymbolTableRecord
100
AcDbDimStyleTableRecord
  2
STANDARD
 70
     0
 41
12.0
 42
20.0
 44
20.0
 77
     1
 78
     8
140
64.0
141
0.0
147
10.0
275
     1
279
     2
284
     7
285
     7
286
     7
340
2CFA
  0
DIMSTYLE
105
2CFD
330
2CA7
100
AcDbSymbolTableRecord
100
AcDbDimStyleTableRecord
  2
ANNOTATIVE
 70
     0
275
     1
279
     2
284
     7
285
     7
286
     7
340
2CFA
1001
ACADANNOTATIVE
1000
AnnotativeData
1002
{
1070
     1
1070
     1
1002
}
  0
DIMSTYLE
105
2D4C
330
2CA7
100
AcDbSymbolTableRecord
100
AcDbDimStyleTableRecord
  2
AM_ANSI
 70
     0
  4
mm
 41
0.12
 42
0.05
 43
0.5
 44
0.1
 47
0.1
 48
0.1
 78
     7
 79
     2
140
0.12
141
0.0
146
0.71
147
0.06
176
   256
177
   256
178
     2
274
     4
284
     7
340
2CFA
371
    -1
372
    -1
1001
ACAD_DSTYLE_DIMARC_LENGTH_SYMBOL
1070
   379
1070
     1
1001
ACAD_DSTYLE_DIM_LINETYPE
1070
   380
1005
2CFF
1001
ACAD_DSTYLE_DIM_EXT1_LINETYPE
1070
   381
1005
2CFF
1001
ACAD_DSTYLE_DIM_EXT2_LINETYPE
1070
   382
1005
2CFF
  0
DIMSTYLE
105
2D4D
330
2CA7
100
AcDbSymbolTableRecord
100
AcDbDimStyleTableRecord
  2
AM_ANSI$3
 70
     0
  4
mm
 41
0.12
 42
0.05
 43
0.5
 44
0.1
 47
0.1
 48
0.1
 78
     7
 79
     2
140
0.12
141
0.0
146
0.71
147
0.06
176
   256
177
   256
178
     2
274
     4
284
     7
288
     1
289
     0
340
2CFA
371
    -1
372
    -1
1001
ACAD_DSTYLE_DIMARC_LENGTH_SYMBOL
1070
   379
1070
     1
1001
ACAD_DSTYLE_DIM_LINETYPE
1070
   380
1005
2CFF
1001
ACAD_DSTYLE_DIM_EXT1_LINETYPE
1070
   381
1005
2CFF
1001
ACAD_DSTYLE_DIM_EXT2_LINETYPE
1070
   382
1005
2CFF
  0
DIMSTYLE
105
2D4E
330
2CA7
100
AcDbSymbolTableRecord
100
AcDbDimStyleTableRecord
  2
AM_ANSI$4
 70
     0
  4
mm
 41
0.12
 42
0.05
 43
0.5
 44
0.1
 47
0.1
 48
0.1
 78
     7
 79
     2
140
0.12
141
0.0
146
0.71
147
0.06
176
   256
177
   256
178
     2
274
     4
284
     7
340
2CFA
371
    -1
372
    -1
1001
ACAD_DSTYLE_DIMARC_LENGTH_SYMBOL
1070
   379
1070
     1
1001
ACAD_DSTYLE_DIM_LINETYPE
1070
   380
1005
2CFF
1001
ACAD_DSTYLE_DIM_EXT1_LINETYPE
1070
   381
1005
2CFF
1001
ACAD_DSTYLE_DIM_EXT2_LINETYPE
1070
   382
1005
2CFF
  0
DIMSTYLE
105
2D4F
330
2CA7
100
AcDbSymbolTableRecord
100
AcDbDimStyleTableRecord
  2
AM_ANSI$7
 70
     0
  4
mm
 41
0.12
 42
0.05
 43
0.5
 44
0.1
 47
0.1
 48
0.1
 78
     7
 79
     2
140
0.12
141
0.0
146
0.71
147
0.06
176
   256
177
   256
178
     2
274
     4
284
     7
340
2CFA
371
    -1
372
    -1
1001
ACAD_DSTYLE_DIMARC_LENGTH_SYMBOL
1070
   379
1070
     1
1001
ACAD_DSTYLE_DIM_LINETYPE
1070
   380
1005
2CFF
1001
ACAD_DSTYLE_DIM_EXT1_LINETYPE
1070
   381
1005
2CFF
1001
ACAD_DSTYLE_DIM_EXT2_LINETYPE
1070
   382
1005
2CFF
  0
DIMSTYLE
105
2D50
330
2CA7
100
AcDbSymbolTableRecord
100
AcDbDimStyleTableRecord
  2
AM_ANSI$SF
 70
     0
  4
mm
 41
0.12
 42
0.05
 43
0.5
 44
0.1
 47
0.1
 48
0.1
 75
     1
 76
     1
 78
     7
 79
     2
140
0.12
141
0.0
146
0.71
147
0.06
176
   256
177
   256
178
     2
274
     4
284
     7
340
2CFA
371
    -1
372
    -1
1001
ACAD_DSTYLE_DIMARC_LENGTH_SYMBOL
1070
   379
1070
     1
1001
ACAD_DSTYLE_DIM_LINETYPE
1070
   380
1005
2CFF
1001
ACAD_DSTYLE_DIM_EXT1_LINETYPE
1070
   381
1005
2CFF
1001
ACAD_DSTYLE_DIM_EXT2_LINETYPE
1070
   382
1005
2CFF
  0
DIMSTYLE
105
2D51
330
2CA7
100
AcDbSymbolTableRecord
100
AcDbDimStyleTableRecord
  2
AM_ANSI$SH
 70
     0
  4
mm
 41
0.12
 42
0.05
 43
0.5
 44
0.1
 47
0.1
 48
0.1
 75
     1
 76
     1
 78
     7
 79
     2
140
0.12
141
0.0
146
0.71
147
0.06
173
     1
176
   256
177
   256
178
     2
274
     4
284
     7
340
2CFA
343
2D71
371
    -1
372
    -1
1001
ACAD_DSTYLE_DIMARC_LENGTH_SYMBOL
1070
   379
1070
     1
1001
ACAD_DSTYLE_DIM_LINETYPE
1070
   380
1005
2CFF
1001
ACAD_DSTYLE_DIM_EXT1_LINETYPE
1070
   381
1005
2CFF
1001
ACAD_DSTYLE_DIM_EXT2_LINETYPE
1070
   382
1005
2CFF
  0
DIMSTYLE
105
2D52
330
2CA7
100
AcDbSymbolTableRecord
100
AcDbDimStyleTableRecord
  2
STANDARD1
 70
     0
 40
6.0
 41
2.5
 42
0.625
 43
6.0
 44
1.25
 47
1.0
 48
0.5
 77
     1
 78
     8
140
2.5
141
0.0
146
0.6
147
1.0
173
     1
275
     1
279
     2
284
     7
285
     7
286
     7
340
2CFA
  0
DIMSTYLE
105
2D53
330
2CA7
100
AcDbSymbolTableRecord
100
AcDbDimStyleTableRecord
  2
STANDARD$0
 70
     0
 41
12.0
 42
20.0
 44
20.0
 73
     0
 74
     0
 77
     1
 78
     8
140
64.0
141
0.0
147
10.0
275
     1
279
     2
284
     7
285
     7
286
     7
340
2CFA
  0
ENDTAB
  0
TABLE
  2
BLOCK_RECORD
  5
2C9E
330
0
100
AcDbSymbolTable
 70
    71
  0
BLOCK_RECORD
  5
2D11
102
{ACAD_XDICTIONARY
360
2ED8
102
}
330
2C9E
100
AcDbSymbolTableRecord
100
AcDbBlockTableRecord
  2
*Model_Space
340
2D14
  0
BLOCK_RECORD
  5
2D0D
330
2C9E
100
AcDbSymbolTableRecord
100
AcDbBlockTableRecord
  2
*Paper_Space
340
2D10
  0
BLOCK_RECORD
  5
2D5B
330
2C9E
100
AcDbSymbolTableRecord
100
AcDbBlockTableRecord
  2
$MODEL_SPACE
340
0
  0
BLOCK_RECORD
  5
2D5D
330
2C9E
100
AcDbSymbolTableRecord
100
AcDbBlockTableRecord
  2
$PAPER_SPACE
340
0
  0
BLOCK_RECORD
  5
2D5F
330
2C9E
100
AcDbSymbolTableRecord
100
AcDbBlockTableRecord
  2
_ORIGIN
340
0
  0
BLOCK_RECORD
  5
2D61
330
2C9E
100
AcDbSymbolTableRecord
100
AcDbBlockTableRecord
  2
_DOTBLANK
340
0
102
{BLKREFS
331
1299
331
129A
331
11AA
331
11AB
331
E80
331
E81
331
1123
331
1124
331
11C2
331
11C3
331
11EC
331
11ED
331
11F9
331
11FA
331
1287
331
1288
331
1417
331
1418
331
1423
331
1424
331
142F
331
1430
331
143B
331
143C
331
166E
331
166F
331
1677
331
1678
331
1680
331
1681
331
1689
331
168A
331
1696
331
1697
331
16A3
331
16A4
331
16AF
331
16B0
331
16BB
331
16BC
331
16C7
331
16C8
331
16D3
331
16D4
331
1D86
331
1D87
331
1D8F
331
1D90
331
1D98
331
1D99
331
1DA1
331
1DA2
331
1DAB
331
1DAC
331
1DB5
331
1DB6
331
29E8
331
29E9
331
29ED
331
29EE
331
29F2
331
29F3
331
29F7
331
29F8
102
}
  0
BLOCK_RECORD
  5
2D63
330
2C9E
100
AcDbSymbolTableRecord
100
AcDbBlockTableRecord
  2
_OPEN30
340
0
102
{BLKREFS
331
2088
331
25A0
102
}
  0
BLOCK_RECORD
  5
2D65
330
2C9E
100
AcDbSymbolTableRecord
100
AcDbBlockTableRecord
  2
*D5
340
0
  0
BLOCK_RECORD
  5
2D67
330
2C9E
100
AcDbSymbolTableRecord
100
AcDbBlockTableRecord
  2
*U6
340
0
102
{BLKREFS
331
129B
102
}
  0
BLOCK_RECORD
  5
2D69
330
2C9E
100
AcDbSymbolTableRecord
100
AcDbBlockTableRecord
  2
*D7
340
0
  0
BLOCK_RECORD
  5
2D6B
330
2C9E
100
AcDbSymbolTableRecord
100
AcDbBlockTableRecord
  2
*U8
340
0
102
{BLKREFS
331
11AC
102
}
  0
BLOCK_RECORD
  5
2D6D
330
2C9E
100
AcDbSymbolTableRecord
100
AcDbBlockTableRecord
  2
*D9
340
0
  0
BLOCK_RECORD
  5
2D6F
330
2C9E
100
AcDbSymbolTableRecord
100
AcDbBlockTableRecord
  2
*U10
340
0
102
{BLKREFS
331
E82
102
}
  0
BLOCK_RECORD
  5
2D71
330
2C9E
100
AcDbSymbolTableRecord
100
AcDbBlockTableRecord
  2
GENAXEH
340
0
  0
BLOCK_RECORD
  5
2D73
330
2C9E
100
AcDbSymbolTableRecord
100
AcDbBlockTableRecord
  2
*D12
340
0
  0
BLOCK_RECORD
  5
2D75
330
2C9E
100
AcDbSymbolTableRecord
100
AcDbBlockTableRecord
  2
*U13
340
0
102
{BLKREFS
331
1125
102
}
  0
BLOCK_RECORD
  5
2D77
330
2C9E
100
AcDbSymbolTableRecord
100
AcDbBlockTableRecord
  2
*D14
340
0
  0
BLOCK_RECORD
  5
2D79
330
2C9E
100
AcDbSymbolTableRecord
100
AcDbBlockTableRecord
  2
*U15
340
0
102
{BLKREFS
331
11C4
102
}
  0
BLOCK_RECORD
  5
2D7B
330
2C9E
100
AcDbSymbolTableRecord
100
AcDbBlockTableRecord
  2
*D16
340
0
  0
BLOCK_RECORD
  5
2D7D
330
2C9E
100
AcDbSymbolTableRecord
100
AcDbBlockTableRecord
  2
*U17
340
0
102
{BLKREFS
331
11EE
102
}
  0
BLOCK_RECORD
  5
2D7F
330
2C9E
100
AcDbSymbolTableRecord
100
AcDbBlockTableRecord
  2
*D18
340
0
  0
BLOCK_RECORD
  5
2D81
330
2C9E
100
AcDbSymbolTableRecord
100
AcDbBlockTableRecord
  2
*U19
340
0
102
{BLKREFS
331
11FB
102
}
  0
BLOCK_RECORD
  5
2D83
330
2C9E
100
AcDbSymbolTableRecord
100
AcDbBlockTableRecord
  2
*D20
340
0
  0
BLOCK_RECORD
  5
2D85
330
2C9E
100
AcDbSymbolTableRecord
100
AcDbBlockTableRecord
  2
*U21
340
0
102
{BLKREFS
331
1289
102
}
  0
BLOCK_RECORD
  5
2D87
330
2C9E
100
AcDbSymbolTableRecord
100
AcDbBlockTableRecord
  2
*D22
340
0
  0
BLOCK_RECORD
  5
2D89
330
2C9E
100
AcDbSymbolTableRecord
100
AcDbBlockTableRecord
  2
*U23
340
0
102
{BLKREFS
331
1419
102
}
  0
BLOCK_RECORD
  5
2D8B
330
2C9E
100
AcDbSymbolTableRecord
100
AcDbBlockTableRecord
  2
*D24
340
0
  0
BLOCK_RECORD
  5
2D8D
330
2C9E
100
AcDbSymbolTableRecord
100
AcDbBlockTableRecord
  2
*U25
340
0
102
{BLKREFS
331
1425
102
}
  0
BLOCK_RECORD
  5
2D8F
330
2C9E
100
AcDbSymbolTableRecord
100
AcDbBlockTableRecord
  2
*D26
340
0
  0
BLOCK_RECORD
  5
2D91
330
2C9E
100
AcDbSymbolTableRecord
100
AcDbBlockTableRecord
  2
*U27
340
0
102
{BLKREFS
331
1431
102
}
  0
BLOCK_RECORD
  5
2D93
330
2C9E
100
AcDbSymbolTableRecord
100
AcDbBlockTableRecord
  2
*D28
340
0
  0
BLOCK_RECORD
  5
2D95
330
2C9E
100
AcDbSymbolTableRecord
100
AcDbBlockTableRecord
  2
*U29
340
0
102
{BLKREFS
331
143D
102
}
  0
BLOCK_RECORD
  5
2D97
330
2C9E
100
AcDbSymbolTableRecord
100
AcDbBlockTableRecord
  2
*D30
340
0
  0
BLOCK_RECORD
  5
2D99
330
2C9E
100
AcDbSymbolTableRecord
100
AcDbBlockTableRecord
  2
*U31
340
0
102
{BLKREFS
331
1670
102
}
  0
BLOCK_RECORD
  5
2D9B
330
2C9E
100
AcDbSymbolTableRecord
100
AcDbBlockTableRecord
  2
*D32
340
0
  0
BLOCK_RECORD
  5
2D9D
330
2C9E
100
AcDbSymbolTableRecord
100
AcDbBlockTableRecord
  2
*U33
340
0
102
{BLKREFS
331
1679
102
}
  0
BLOCK_RECORD
  5
2D9F
330
2C9E
100
AcDbSymbolTableRecord
100
AcDbBlockTableRecord
  2
*D34
340
0
  0
BLOCK_RECORD
  5
2DA1
330
2C9E
100
AcDbSymbolTableRecord
100
AcDbBlockTableRecord
  2
*U35
340
0
102
{BLKREFS
331
1682
102
}
  0
BLOCK_RECORD
  5
2DA3
330
2C9E
100
AcDbSymbolTableRecord
100
AcDbBlockTableRecord
  2
*D36
340
0
  0
BLOCK_RECORD
  5
2DA5
330
2C9E
100
AcDbSymbolTableRecord
100
AcDbBlockTableRecord
  2
*U37
340
0
102
{BLKREFS
331
168B
102
}
  0
BLOCK_RECORD
  5
2DA7
330
2C9E
100
AcDbSymbolTableRecord
100
AcDbBlockTableRecord
  2
*U38
340
0
  0
BLOCK_RECORD
  5
2DA9
330
2C9E
100
AcDbSymbolTableRecord
100
AcDbBlockTableRecord
  2
*D39
340
0
  0
BLOCK_RECORD
  5
2DAB
330
2C9E
100
AcDbSymbolTableRecord
100
AcDbBlockTableRecord
  2
*U40
340
0
102
{BLKREFS
331
1698
102
}
  0
BLOCK_RECORD
  5
2DAD
330
2C9E
100
AcDbSymbolTableRecord
100
AcDbBlockTableRecord
  2
*D41
340
0
  0
BLOCK_RECORD
  5
2DAF
330
2C9E
100
AcDbSymbolTableRecord
100
AcDbBlockTableRecord
  2
*U42
340
0
102
{BLKREFS
331
16A5
102
}
  0
BLOCK_RECORD
  5
2DB1
330
2C9E
100
AcDbSymbolTableRecord
100
AcDbBlockTableRecord
  2
*D43
340
0
  0
BLOCK_RECORD
  5
2DB3
330
2C9E
100
AcDbSymbolTableRecord
100
AcDbBlockTableRecord
  2
*U44
340
0
102
{BLKREFS
331
16B1
102
}
  0
BLOCK_RECORD
  5
2DB5
330
2C9E
100
AcDbSymbolTableRecord
100
AcDbBlockTableRecord
  2
*D45
340
0
  0
BLOCK_RECORD
  5
2DB7
330
2C9E
100
AcDbSymbolTableRecord
100
AcDbBlockTableRecord
  2
*U46
340
0
102
{BLKREFS
331
16BD
102
}
  0
BLOCK_RECORD
  5
2DB9
330
2C9E
100
AcDbSymbolTableRecord
100
AcDbBlockTableRecord
  2
*D47
340
0
  0
BLOCK_RECORD
  5
2DBB
330
2C9E
100
AcDbSymbolTableRecord
100
AcDbBlockTableRecord
  2
*U48
340
0
102
{BLKREFS
331
16C9
102
}
  0
BLOCK_RECORD
  5
2DBD
330
2C9E
100
AcDbSymbolTableRecord
100
AcDbBlockTableRecord
  2
*D49
340
0
  0
BLOCK_RECORD
  5
2DBF
330
2C9E
100
AcDbSymbolTableRecord
100
AcDbBlockTableRecord
  2
*U50
340
0
102
{BLKREFS
331
16D5
102
}
  0
BLOCK_RECORD
  5
2DC1
330
2C9E
100
AcDbSymbolTableRecord
100
AcDbBlockTableRecord
  2
*D51
340
0
  0
BLOCK_RECORD
  5
2DC3
330
2C9E
100
AcDbSymbolTableRecord
100
AcDbBlockTableRecord
  2
*U52
340
0
102
{BLKREFS
331
1D88
102
}
  0
BLOCK_RECORD
  5
2DC5
330
2C9E
100
AcDbSymbolTableRecord
100
AcDbBlockTableRecord
  2
*D53
340
0
  0
BLOCK_RECORD
  5
2DC7
330
2C9E
100
AcDbSymbolTableRecord
100
AcDbBlockTableRecord
  2
*U54
340
0
102
{BLKREFS
331
1D91
102
}
  0
BLOCK_RECORD
  5
2DC9
330
2C9E
100
AcDbSymbolTableRecord
100
AcDbBlockTableRecord
  2
*D55
340
0
  0
BLOCK_RECORD
  5
2DCB
330
2C9E
100
AcDbSymbolTableRecord
100
AcDbBlockTableRecord
  2
*U56
340
0
102
{BLKREFS
331
1D9A
102
}
  0
BLOCK_RECORD
  5
2DCD
330
2C9E
100
AcDbSymbolTableRecord
100
AcDbBlockTableRecord
  2
*D57
340
0
  0
BLOCK_RECORD
  5
2DCF
330
2C9E
100
AcDbSymbolTableRecord
100
AcDbBlockTableRecord
  2
*U58
340
0
102
{BLKREFS
331
1DA3
102
}
  0
BLOCK_RECORD
  5
2DD1
330
2C9E
100
AcDbSymbolTableRecord
100
AcDbBlockTableRecord
  2
*D59
340
0
  0
BLOCK_RECORD
  5
2DD3
330
2C9E
100
AcDbSymbolTableRecord
100
AcDbBlockTableRecord
  2
*U60
340
0
102
{BLKREFS
331
1DAD
102
}
  0
BLOCK_RECORD
  5
2DD5
330
2C9E
100
AcDbSymbolTableRecord
100
AcDbBlockTableRecord
  2
*D61
340
0
  0
BLOCK_RECORD
  5
2DD7
330
2C9E
100
AcDbSymbolTableRecord
100
AcDbBlockTableRecord
  2
*U62
340
0
102
{BLKREFS
331
1DB7
102
}
  0
BLOCK_RECORD
  5
2DD9
330
2C9E
100
AcDbSymbolTableRecord
100
AcDbBlockTableRecord
  2
*U63
340
0
  0
BLOCK_RECORD
  5
2DDB
330
2C9E
100
AcDbSymbolTableRecord
100
AcDbBlockTableRecord
  2
*U64
340
0
  0
BLOCK_RECORD
  5
2DDD
330
2C9E
100
AcDbSymbolTableRecord
100
AcDbBlockTableRecord
  2
*U65
340
0
  0
BLOCK_RECORD
  5
2DDF
330
2C9E
100
AcDbSymbolTableRecord
100
AcDbBlockTableRecord
  2
*U66
340
0
102
{BLKREFS
331
29CD
102
}
  0
BLOCK_RECORD
  5
2DE1
330
2C9E
100
AcDbSymbolTableRecord
100
AcDbBlockTableRecord
  2
*U67
340
0
102
{BLKREFS
331
29CE
102
}
  0
BLOCK_RECORD
  5
2DE3
330
2C9E
100
AcDbSymbolTableRecord
100
AcDbBlockTableRecord
  2
*X68
340
0
102
{BLKREFS
331
29DB
102
}
  0
BLOCK_RECORD
  5
2DE5
330
2C9E
100
AcDbSymbolTableRecord
100
AcDbBlockTableRecord
  2
*X69
340
0
102
{BLKREFS
331
29DC
102
}
  0
ENDTAB
  0
ENDSEC
  0
SECTION
  2
BLOCKS
  0
BLOCK
  5
2D12
330
2D11
100
AcDbEntity
  8
0
100
AcDbBlockBegin
  2
*Model_Space
 70
     0
 10
0.0
 20
0.0
 30
0.0
  3
*Model_Space
  1

  0
ENDBLK
  5
2D13
330
2D11
100
AcDbEntity
  8
0
100
AcDbBlockEnd
  0
BLOCK
  5
2D0E
330
2D0D
100
AcDbEntity
 67
     1
  8
0
100
AcDbBlockBegin
  2
*Paper_Space
 70
     0
 10
0.0
 20
0.0
 30
0.0
  3
*Paper_Space
  1

  0
ENDBLK
  5
2D0F
330
2D0D
100
AcDbEntity
 67
     1
  8
0
100
AcDbBlockEnd
  0
BLOCK
  5
2D5C
330
2D5B
100
AcDbEntity
  8
0
100
AcDbBlockBegin
  2
$MODEL_SPACE
 70
     0
 10
0.0
 20
0.0
 30
0.0
  3
$MODEL_SPACE
  1

  0
ENDBLK
  5
2AAD
330
2D5B
100
AcDbEntity
  8
0
100
AcDbBlockEnd
  0
BLOCK
  5
2D5E
330
2D5D
100
AcDbEntity
  8
0
100
AcDbBlockBegin
  2
$PAPER_SPACE
 70
     0
 10
0.0
 20
0.0
 30
0.0
  3
$PAPER_SPACE
  1

  0
ENDBLK
  5
2AA9
330
2D5D
100
AcDbEntity
  8
0
100
AcDbBlockEnd
  0
BLOCK
  5
2D60
330
2D5F
100
AcDbEntity
  8
0
100
AcDbBlockBegin
  2
_ORIGIN
 70
     0
 10
0.0
 20
0.0
 30
0.0
  3
_ORIGIN
  1

  0
CIRCLE
  5
880
330
2D5F
100
AcDbEntity
  8
0
  6
Continuous
 62
     7
100
AcDbCircle
 10
0.0
 20
0.0
 30
0.0
 40
0.5
  0
LINE
  5
881
330
2D5F
100
AcDbEntity
  8
0
  6
Continuous
 62
     7
100
AcDbLine
 10
0.0
 20
0.0
 30
0.0
 11
-1.0
 21
0.0
 31
0.0
  0
ENDBLK
  5
882
330
2D5F
100
AcDbEntity
  8
0
100
AcDbBlockEnd
  0
BLOCK
  5
2D62
330
2D61
100
AcDbEntity
  8
0
 62
     1
100
AcDbBlockBegin
  2
_DOTBLANK
 70
     0
 10
0.0
 20
0.0
 30
0.0
  3
_DOTBLANK
  1

  0
CIRCLE
  5
AB3
330
2D61
100
AcDbEntity
  8
0
  6
ByBlock
 62
     0
100
AcDbCircle
 10
0.0
 20
0.0
 30
0.0
 40
0.5
  0
LINE
  5
AB4
330
2D61
100
AcDbEntity
  8
0
  6
ByBlock
 62
     0
100
AcDbLine
 10
-0.5
 20
0.0
 30
0.0
 11
-1.0
 21
0.0
 31
0.0
  0
ENDBLK
  5
AB6
330
2D61
100
AcDbEntity
  8
0
 62
     1
100
AcDbBlockEnd
  0
BLOCK
  5
2D64
330
2D63
100
AcDbEntity
  8
0
 62
     1
100
AcDbBlockBegin
  2
_OPEN30
 70
     0
 10
0.0
 20
0.0
 30
0.0
  3
_OPEN30
  1

  0
LINE
  5
AB8
330
2D63
100
AcDbEntity
  8
0
  6
ByBlock
 62
     0
100
AcDbLine
 10
-1.0
 20
0.26794919
 30
0.0
 11
0.0
 21
0.0
 31
0.0
  0
LINE
  5
AB9
330
2D63
100
AcDbEntity
  8
0
  6
ByBlock
 62
     0
100
AcDbLine
 10
0.0
 20
0.0
 30
0.0
 11
-1.0
 21
-0.26794919
 31
0.0
  0
LINE
  5
ABA
330
2D63
100
AcDbEntity
  8
0
  6
ByBlock
 62
     0
100
AcDbLine
 10
0.0
 20
0.0
 30
0.0
 11
-1.0
 21
0.0
 31
0.0
  0
ENDBLK
  5
ABC
330
2D63
100
AcDbEntity
  8
0
 62
     1
100
AcDbBlockEnd
  0
BLOCK
  5
2D66
330
2D65
100
AcDbEntity
  8
0
100
AcDbBlockBegin
  2
*D5
 70
     1
 10
0.0
 20
0.0
 30
0.0
  3
*D5
  1

  0
LINE
  5
1296
330
2D65
100
AcDbEntity
  8
SIZE
 62
     0
100
AcDbLine
 10
-134.5
 20
-320.0
 30
0.0
 11
-134.5
 21
-468.0173952306001
 31
0.0
  0
LINE
  5
1297
330
2D65
100
AcDbEntity
  8
SIZE
 62
     0
100
AcDbLine
 10
134.5
 20
-320.0
 30
0.0
 11
134.5
 21
-468.0173952306001
 31
0.0
  0
LINE
  5
1298
330
2D65
100
AcDbEntity
  8
SIZE
 62
     0
100
AcDbLine
 10
-122.5
 20
-448.0173952306
 30
0.0
 11
122.5
 21
-448.0173952306
 31
0.0
  0
INSERT
  5
1299
330
2D65
100
AcDbEntity
  8
SIZE
 62
     0
100
AcDbBlockReference
  2
_DOTBLANK
 10
-134.5
 20
-448.0173952306
 30
0.0
 41
12.0
 42
12.0
 43
12.0
 50
180.0
  0
INSERT
  5
129A
330
2D65
100
AcDbEntity
  8
SIZE
 62
     0
100
AcDbBlockReference
  2
_DOTBLANK
 10
134.5
 20
-448.0173952306
 30
0.0
 41
12.0
 42
12.0
 43
12.0
  0
INSERT
  5
129B
330
2D65
100
AcDbEntity
  8
0
100
AcDbBlockReference
  2
*U6
 10
0.0
 20
0.0
 30
0.0
  0
POINT
  5
129C
330
2D65
100
AcDbEntity
  8
DEFPOINTS
 62
     0
100
AcDbPoint
 10
-134.5
 20
-300.0
 30
0.0
  0
POINT
  5
129D
330
2D65
100
AcDbEntity
  8
DEFPOINTS
 62
     0
100
AcDbPoint
 10
134.5
 20
-300.0
 30
0.0
  0
POINT
  5
129E
330
2D65
100
AcDbEntity
  8
DEFPOINTS
 62
     0
100
AcDbPoint
 10
134.5
 20
-448.0173952306
 30
0.0
  0
ENDBLK
  5
D72
330
2D65
100
AcDbEntity
  8
0
100
AcDbBlockEnd
  0
BLOCK
  5
2D68
330
2D67
100
AcDbEntity
  8
0
100
AcDbBlockBegin
  2
*U6
 70
     1
 10
0.0
 20
0.0
 30
0.0
  3
*U6
  1

  0
TEXT
  5
1EF5
330
2D67
100
AcDbEntity
  8
SIZE
 62
     0
100
AcDbText
 10
-72.68571428571426
 20
-438.0173952305999
 30
0.0
 40
64.0
  1
269
 41
0.9
100
AcDbText
  0
ENDBLK
  5
1EF7
330
2D67
100
AcDbEntity
  8
0
100
AcDbBlockEnd
  0
BLOCK
  5
2D6A
330
2D69
100
AcDbEntity
  8
0
100
AcDbBlockBegin
  2
*D7
 70
     1
 10
0.0
 20
0.0
 30
0.0
  3
*D7
  1

  0
LINE
  5
11A7
330
2D69
100
AcDbEntity
  8
SIZE
  6
Continuous
 62
     0
100
AcDbLine
 10
143.5
 20
-300.0
 30
0.0
 11
304.6432844803791
 21
-300.0
 31
0.0
  0
LINE
  5
11A8
330
2D69
100
AcDbEntity
  8
SIZE
  6
Continuous
 62
     0
100
AcDbLine
 10
177.5
 20
-0.0000000000000057
 30
0.0
 11
304.6432844803792
 21
-0.0000000000000417
 31
0.0
  0
LINE
  5
11A9
330
2D69
100
AcDbEntity
  8
SIZE
  6
Continuous
 62
     0
100
AcDbLine
 10
284.6432844803791
 20
-288.0000000000001
 30
0.0
 11
284.6432844803792
 21
-12.00000000000003
 31
0.0
  0
INSERT
  5
11AA
330
2D69
100
AcDbEntity
  8
SIZE
  6
Continuous
 62
     0
100
AcDbBlockReference
  2
_DOTBLANK
 10
284.6432844803791
 20
-300.0
 30
0.0
 41
12.0
 42
12.0
 43
12.0
 50
270.0
  0
INSERT
  5
11AB
330
2D69
100
AcDbEntity
  8
SIZE
  6
Continuous
 62
     0
100
AcDbBlockReference
  2
_DOTBLANK
 10
284.6432844803792
 20
-0.000000000000036
 30
0.0
 41
12.0
 42
12.0
 43
12.0
 50
90.0
  0
INSERT
  5
11AC
330
2D69
100
AcDbEntity
  8
0
100
AcDbBlockReference
  2
*U8
 10
0.0
 20
0.0
 30
0.0
  0
POINT
  5
11AD
330
2D69
100
AcDbEntity
  8
DEFPOINTS
  6
Continuous
 62
     0
100
AcDbPoint
 10
123.5
 20
-300.0
 30
0.0
  0
POINT
  5
11AE
330
2D69
100
AcDbEntity
  8
DEFPOINTS
  6
Continuous
 62
     0
100
AcDbPoint
 10
157.5
 20
0.0
 30
0.0
  0
POINT
  5
11AF
330
2D69
100
AcDbEntity
  8
DEFPOINTS
  6
Continuous
 62
     0
100
AcDbPoint
 10
284.6432844803792
 20
-0.000000000000036
 30
0.0
  0
ENDBLK
  5
E11
330
2D69
100
AcDbEntity
  8
0
100
AcDbBlockEnd
  0
BLOCK
  5
2D6C
330
2D6B
100
AcDbEntity
  8
0
100
AcDbBlockBegin
  2
*U8
 70
     1
 10
0.0
 20
0.0
 30
0.0
  3
*U8
  1

  0
TEXT
  5
1EE1
330
2D6B
100
AcDbEntity
  8
SIZE
 62
     0
100
AcDbText
 10
274.6432844803792
 20
-224.0571428571429
 30
0.0
 40
64.0
  1
300
 50
90.0
 41
0.9
100
AcDbText
  0
ENDBLK
  5
1EE3
330
2D6B
100
AcDbEntity
  8
0
100
AcDbBlockEnd
  0
BLOCK
  5
2D6E
330
2D6D
100
AcDbEntity
  8
0
100
AcDbBlockBegin
  2
*D9
 70
     1
 10
0.0
 20
0.0
 30
0.0
  3
*D9
  1

  0
LINE
  5
E7D
330
2D6D
100
AcDbEntity
  8
SIZE
 62
     0
100
AcDbLine
 10
-139.9999999999998
 20
32.46448280219375
 30
0.0
 11
-139.9999999999998
 21
136.4516878685508
 31
0.0
  0
LINE
  5
E7E
330
2D6D
100
AcDbEntity
  8
SIZE
 62
     0
100
AcDbLine
 10
140.0
 20
32.46448280219375
 30
0.0
 11
140.0
 21
136.4516878685508
 31
0.0
  0
LINE
  5
E7F
330
2D6D
100
AcDbEntity
  8
SIZE
 62
     0
100
AcDbLine
 10
-128.0
 20
116.4516878685508
 30
0.0
 11
128.0
 21
116.4516878685508
 31
0.0
  0
INSERT
  5
E80
330
2D6D
100
AcDbEntity
  8
SIZE
 62
     0
100
AcDbBlockReference
  2
_DOTBLANK
 10
-139.9999999999998
 20
116.4516878685508
 30
0.0
 41
12.0
 42
12.0
 43
12.0
 50
180.0
  0
INSERT
  5
E81
330
2D6D
100
AcDbEntity
  8
SIZE
 62
     0
100
AcDbBlockReference
  2
_DOTBLANK
 10
140.0
 20
116.4516878685508
 30
0.0
 41
12.0
 42
12.0
 43
12.0
  0
INSERT
  5
E82
330
2D6D
100
AcDbEntity
  8
0
100
AcDbBlockReference
  2
*U10
 10
0.0
 20
0.0
 30
0.0
  0
POINT
  5
E83
330
2D6D
100
AcDbEntity
  8
DEFPOINTS
 62
     0
100
AcDbPoint
 10
-139.9999999999998
 20
12.46448280219374
 30
0.0
  0
POINT
  5
E84
330
2D6D
100
AcDbEntity
  8
DEFPOINTS
 62
     0
100
AcDbPoint
 10
140.0
 20
12.46448280219374
 30
0.0
  0
POINT
  5
E85
330
2D6D
100
AcDbEntity
  8
DEFPOINTS
 62
     0
100
AcDbPoint
 10
140.0
 20
116.4516878685508
 30
0.0
  0
ENDBLK
  5
E7C
330
2D6D
100
AcDbEntity
  8
0
100
AcDbBlockEnd
  0
BLOCK
  5
2D70
330
2D6F
100
AcDbEntity
  8
0
100
AcDbBlockBegin
  2
*U10
 70
     1
 10
0.0
 20
0.0
 30
0.0
  3
*U10
  1

  0
TEXT
  5
1ED8
330
2D6F
100
AcDbEntity
  8
SIZE
 62
     0
100
AcDbText
 10
-74.05714285714281
 20
126.4516878685508
 30
0.0
 40
64.0
  1
280
 41
0.9
100
AcDbText
  0
ENDBLK
  5
1EDA
330
2D6F
100
AcDbEntity
  8
0
100
AcDbBlockEnd
  0
BLOCK
  5
2D72
330
2D71
100
AcDbEntity
  8
0
100
AcDbBlockBegin
  2
GENAXEH
 70
     0
 10
0.0
 20
0.0
 30
0.0
  3
GENAXEH
  1

  0
LINE
  5
FDB
330
2D71
100
AcDbEntity
  8
0
100
AcDbLine
 10
-1.0
 20
0.0
 30
0.0
 11
1.0
 21
0.0
 31
0.0
  0
ENDBLK
  5
FDD
330
2D71
100
AcDbEntity
  8
0
100
AcDbBlockEnd
  0
BLOCK
  5
2D74
330
2D73
100
AcDbEntity
  8
0
100
AcDbBlockBegin
  2
*D12
 70
     1
 10
0.0
 20
0.0
 30
0.0
  3
*D12
  1

  0
LINE
  5
1120
330
2D73
100
AcDbEntity
  8
SIZE
 62
     0
100
AcDbLine
 10
-157.5
 20
20.0
 30
0.0
 11
-157.5
 21
245.5794621189598
 31
0.0
  0
LINE
  5
1121
330
2D73
100
AcDbEntity
  8
SIZE
 62
     0
100
AcDbLine
 10
157.5
 20
20.0
 30
0.0
 11
157.5
 21
245.5794621189598
 31
0.0
  0
LINE
  5
1122
330
2D73
100
AcDbEntity
  8
SIZE
 62
     0
100
AcDbLine
 10
-145.5
 20
225.5794621189598
 30
0.0
 11
145.5
 21
225.5794621189598
 31
0.0
  0
INSERT
  5
1123
330
2D73
100
AcDbEntity
  8
SIZE
 62
     0
100
AcDbBlockReference
  2
_DOTBLANK
 10
-157.5
 20
225.5794621189598
 30
0.0
 41
12.0
 42
12.0
 43
12.0
 50
180.0
  0
INSERT
  5
1124
330
2D73
100
AcDbEntity
  8
SIZE
 62
     0
100
AcDbBlockReference
  2
_DOTBLANK
 10
157.5
 20
225.5794621189598
 30
0.0
 41
12.0
 42
12.0
 43
12.0
  0
INSERT
  5
1125
330
2D73
100
AcDbEntity
  8
0
100
AcDbBlockReference
  2
*U13
 10
0.0
 20
0.0
 30
0.0
  0
POINT
  5
1126
330
2D73
100
AcDbEntity
  8
DEFPOINTS
 62
     0
100
AcDbPoint
 10
-157.5
 20
0.0
 30
0.0
  0
POINT
  5
1127
330
2D73
100
AcDbEntity
  8
DEFPOINTS
 62
     0
100
AcDbPoint
 10
157.5
 20
0.0
 30
0.0
  0
POINT
  5
1128
330
2D73
100
AcDbEntity
  8
DEFPOINTS
 62
     0
100
AcDbPoint
 10
157.5
 20
225.5794621189598
 30
0.0
  0
ENDBLK
  5
111F
330
2D73
100
AcDbEntity
  8
0
100
AcDbBlockEnd
  0
BLOCK
  5
2D76
330
2D75
100
AcDbEntity
  8
0
100
AcDbBlockBegin
  2
*U13
 70
     1
 10
0.0
 20
0.0
 30
0.0
  3
*U13
  1

  0
TEXT
  5
1EDD
330
2D75
100
AcDbEntity
  8
SIZE
 62
     0
100
AcDbText
 10
-68.57142857142857
 20
235.5794621189599
 30
0.0
 40
64.0
  1
315
 41
0.9
100
AcDbText
  0
ENDBLK
  5
1EDF
330
2D75
100
AcDbEntity
  8
0
100
AcDbBlockEnd
  0
BLOCK
  5
2D78
330
2D77
100
AcDbEntity
  8
0
100
AcDbBlockBegin
  2
*D14
 70
     1
 10
0.0
 20
0.0
 30
0.0
  3
*D14
  1

  0
LINE
  5
11BD
330
2D77
100
AcDbEntity
  8
NOTE
 62
     0
100
AcDbLine
 10
-123.4999999999999
 20
-320.0
 30
0.0
 11
-123.4999999999999
 21
-354.9529861856111
 31
0.0
  0
LINE
  5
11BE
330
2D77
100
AcDbEntity
  8
NOTE
 62
     0
100
AcDbLine
 10
-133.4999999999998
 20
-331.2126909923287
 30
0.0
 11
-133.4999999999998
 21
-354.9529861856111
 31
0.0
  0
LINE
  5
11BF
330
2D77
100
AcDbEntity
  8
NOTE
 62
     0
100
AcDbLine
 10
-111.4999999999999
 20
-334.9529861856112
 30
0.0
 11
-99.4999999999999
 21
-334.9529861856112
 31
0.0
  0
LINE
  5
11C0
330
2D77
100
AcDbEntity
  8
NOTE
 62
     0
100
AcDbLine
 10
-145.4999999999998
 20
-334.9529861856112
 30
0.0
 11
-157.4999999999998
 21
-334.9529861856112
 31
0.0
  0
LINE
  5
11C1
330
2D77
100
AcDbEntity
  8
NOTE
 62
     0
100
AcDbLine
 10
-123.4999999999999
 20
-334.9529861856112
 30
0.0
 11
-133.4999999999998
 21
-334.9529861856112
 31
0.0
  0
INSERT
  5
11C2
330
2D77
100
AcDbEntity
  8
NOTE
 62
     0
100
AcDbBlockReference
  2
_DOTBLANK
 10
-123.4999999999999
 20
-334.9529861856112
 30
0.0
 41
12.0
 42
12.0
 43
12.0
 50
180.0
  0
INSERT
  5
11C3
330
2D77
100
AcDbEntity
  8
NOTE
 62
     0
100
AcDbBlockReference
  2
_DOTBLANK
 10
-133.4999999999998
 20
-334.9529861856112
 30
0.0
 41
12.0
 42
12.0
 43
12.0
  0
INSERT
  5
11C4
330
2D77
100
AcDbEntity
  8
0
100
AcDbBlockReference
  2
*U15
 10
0.0
 20
0.0
 30
0.0
  0
POINT
  5
11C5
330
2D77
100
AcDbEntity
  8
DEFPOINTS
 62
     0
100
AcDbPoint
 10
-123.4999999999999
 20
-300.0
 30
0.0
  0
POINT
  5
11C6
330
2D77
100
AcDbEntity
  8
DEFPOINTS
 62
     0
100
AcDbPoint
 10
-133.4999999999998
 20
-311.2126909923287
 30
0.0
  0
POINT
  5
11C7
330
2D77
100
AcDbEntity
  8
DEFPOINTS
 62
     0
100
AcDbPoint
 10
-133.4999999999998
 20
-334.9529861856112
 30
0.0
  0
ENDBLK
  5
11BC
330
2D77
100
AcDbEntity
  8
0
100
AcDbBlockEnd
  0
BLOCK
  5
2D7A
330
2D79
100
AcDbEntity
  8
0
100
AcDbBlockBegin
  2
*U15
 70
     1
 10
0.0
 20
0.0
 30
0.0
  3
*U15
  1

  0
TEXT
  5
1EE5
330
2D79
100
AcDbEntity
  8
NOTE
 62
     0
100
AcDbText
 10
-169.642857142857
 20
-324.9529861856112
 30
0.0
 40
64.0
  1
10
 41
0.9
100
AcDbText
  0
ENDBLK
  5
1EE7
330
2D79
100
AcDbEntity
  8
0
100
AcDbBlockEnd
  0
BLOCK
  5
2D7C
330
2D7B
100
AcDbEntity
  8
0
100
AcDbBlockBegin
  2
*D16
 70
     1
 10
0.0
 20
0.0
 30
0.0
  3
*D16
  1

  0
LINE
  5
11E7
330
2D7B
100
AcDbEntity
  8
NOTE
 62
     0
100
AcDbLine
 10
-135.5
 20
-333.2126909923287
 30
0.0
 11
-135.5
 21
-386.2569421441843
 31
0.0
  0
LINE
  5
11E8
330
2D7B
100
AcDbEntity
  8
NOTE
 62
     0
100
AcDbLine
 10
-123.4999999999999
 20
-320.0
 30
0.0
 11
-123.4999999999999
 21
-386.2569421441843
 31
0.0
  0
LINE
  5
11E9
330
2D7B
100
AcDbEntity
  8
NOTE
 62
     0
100
AcDbLine
 10
-147.5
 20
-366.2569421441844
 30
0.0
 11
-159.5
 21
-366.2569421441844
 31
0.0
  0
LINE
  5
11EA
330
2D7B
100
AcDbEntity
  8
NOTE
 62
     0
100
AcDbLine
 10
-111.4999999999999
 20
-366.2569421441844
 30
0.0
 11
-99.4999999999999
 21
-366.2569421441844
 31
0.0
  0
LINE
  5
11EB
330
2D7B
100
AcDbEntity
  8
NOTE
 62
     0
100
AcDbLine
 10
-135.5
 20
-366.2569421441844
 30
0.0
 11
-123.4999999999999
 21
-366.2569421441844
 31
0.0
  0
INSERT
  5
11EC
330
2D7B
100
AcDbEntity
  8
NOTE
 62
     0
100
AcDbBlockReference
  2
_DOTBLANK
 10
-135.5
 20
-366.2569421441844
 30
0.0
 41
12.0
 42
12.0
 43
12.0
  0
INSERT
  5
11ED
330
2D7B
100
AcDbEntity
  8
NOTE
 62
     0
100
AcDbBlockReference
  2
_DOTBLANK
 10
-123.4999999999999
 20
-366.2569421441844
 30
0.0
 41
12.0
 42
12.0
 43
12.0
 50
180.0
  0
INSERT
  5
11EE
330
2D7B
100
AcDbEntity
  8
0
100
AcDbBlockReference
  2
*U17
 10
0.0
 20
0.0
 30
0.0
  0
POINT
  5
11EF
330
2D7B
100
AcDbEntity
  8
DEFPOINTS
 62
     0
100
AcDbPoint
 10
-135.5
 20
-313.2126909923287
 30
0.0
  0
POINT
  5
11F0
330
2D7B
100
AcDbEntity
  8
DEFPOINTS
 62
     0
100
AcDbPoint
 10
-123.4999999999999
 20
-300.0
 30
0.0
  0
POINT
  5
11F1
330
2D7B
100
AcDbEntity
  8
DEFPOINTS
 62
     0
100
AcDbPoint
 10
-123.4999999999999
 20
-366.2569421441844
 30
0.0
  0
ENDBLK
  5
11E6
330
2D7B
100
AcDbEntity
  8
0
100
AcDbBlockEnd
  0
BLOCK
  5
2D7E
330
2D7D
100
AcDbEntity
  8
0
100
AcDbBlockBegin
  2
*U17
 70
     1
 10
0.0
 20
0.0
 30
0.0
  3
*U17
  1

  0
TEXT
  5
1EE9
330
2D7D
100
AcDbEntity
  8
NOTE
 62
     0
100
AcDbText
 10
-170.642857142857
 20
-356.2569421441843
 30
0.0
 40
64.0
  1
12
 41
0.9
100
AcDbText
  0
ENDBLK
  5
1EEB
330
2D7D
100
AcDbEntity
  8
0
100
AcDbBlockEnd
  0
BLOCK
  5
2D80
330
2D7F
100
AcDbEntity
  8
0
100
AcDbBlockBegin
  2
*D18
 70
     1
 10
0.0
 20
0.0
 30
0.0
  3
*D18
  1

  0
LINE
  5
11F6
330
2D7F
100
AcDbEntity
  8
NOTE
 62
     0
100
AcDbLine
 10
-123.4999999999999
 20
-320.0
 30
0.0
 11
-123.4999999999999
 21
-583.8286022818904
 31
0.0
  0
LINE
  5
11F7
330
2D7F
100
AcDbEntity
  8
NOTE
 62
     0
100
AcDbLine
 10
123.5
 20
-320.0
 30
0.0
 11
123.5
 21
-583.8286022818904
 31
0.0
  0
LINE
  5
11F8
330
2D7F
100
AcDbEntity
  8
NOTE
 62
     0
100
AcDbLine
 10
-111.4999999999999
 20
-563.8286022818904
 30
0.0
 11
111.5
 21
-563.8286022818904
 31
0.0
  0
INSERT
  5
11F9
330
2D7F
100
AcDbEntity
  8
NOTE
 62
     0
100
AcDbBlockReference
  2
_DOTBLANK
 10
-123.4999999999999
 20
-563.8286022818904
 30
0.0
 41
12.0
 42
12.0
 43
12.0
 50
180.0
  0
INSERT
  5
11FA
330
2D7F
100
AcDbEntity
  8
NOTE
 62
     0
100
AcDbBlockReference
  2
_DOTBLANK
 10
123.5
 20
-563.8286022818904
 30
0.0
 41
12.0
 42
12.0
 43
12.0
  0
INSERT
  5
11FB
330
2D7F
100
AcDbEntity
  8
0
100
AcDbBlockReference
  2
*U19
 10
0.0
 20
0.0
 30
0.0
  0
POINT
  5
11FC
330
2D7F
100
AcDbEntity
  8
DEFPOINTS
 62
     0
100
AcDbPoint
 10
-123.4999999999999
 20
-300.0
 30
0.0
  0
POINT
  5
11FD
330
2D7F
100
AcDbEntity
  8
DEFPOINTS
 62
     0
100
AcDbPoint
 10
123.5
 20
-300.0
 30
0.0
  0
POINT
  5
11FE
330
2D7F
100
AcDbEntity
  8
DEFPOINTS
 62
     0
100
AcDbPoint
 10
123.5
 20
-563.8286022818904
 30
0.0
  0
ENDBLK
  5
11F5
330
2D7F
100
AcDbEntity
  8
0
100
AcDbBlockEnd
  0
BLOCK
  5
2D82
330
2D81
100
AcDbEntity
  8
0
100
AcDbBlockBegin
  2
*U19
 70
     1
 10
0.0
 20
0.0
 30
0.0
  3
*U19
  1

  0
TEXT
  5
1EED
330
2D81
100
AcDbEntity
  8
NOTE
 62
     0
100
AcDbText
 10
-74.05714285714281
 20
-553.8286022818904
 30
0.0
 40
64.0
  1
247
 41
0.9
100
AcDbText
  0
ENDBLK
  5
1EEF
330
2D81
100
AcDbEntity
  8
0
100
AcDbBlockEnd
  0
BLOCK
  5
2D84
330
2D83
100
AcDbEntity
  8
0
100
AcDbBlockBegin
  2
*D20
 70
     1
 10
0.0
 20
0.0
 30
0.0
  3
*D20
  1

  0
LINE
  5
1284
330
2D83
100
AcDbEntity
  8
NOTE
 62
     0
100
AcDbLine
 10
-123.5
 20
12.0
 30
0.0
 11
-123.5
 21
71.83630134534229
 31
0.0
  0
LINE
  5
1285
330
2D83
100
AcDbEntity
  8
NOTE
 62
     0
100
AcDbLine
 10
123.5
 20
12.0
 30
0.0
 11
123.5
 21
71.83630134534229
 31
0.0
  0
LINE
  5
1286
330
2D83
100
AcDbEntity
  8
NOTE
 62
     0
100
AcDbLine
 10
-111.5
 20
51.83630134534229
 30
0.0
 11
111.5
 21
51.83630134534229
 31
0.0
  0
INSERT
  5
1287
330
2D83
100
AcDbEntity
  8
NOTE
 62
     0
100
AcDbBlockReference
  2
_DOTBLANK
 10
-123.5
 20
51.83630134534229
 30
0.0
 41
12.0
 42
12.0
 43
12.0
 50
180.0
  0
INSERT
  5
1288
330
2D83
100
AcDbEntity
  8
NOTE
 62
     0
100
AcDbBlockReference
  2
_DOTBLANK
 10
123.5
 20
51.83630134534229
 30
0.0
 41
12.0
 42
12.0
 43
12.0
  0
INSERT
  5
1289
330
2D83
100
AcDbEntity
  8
0
100
AcDbBlockReference
  2
*U21
 10
0.0
 20
0.0
 30
0.0
  0
POINT
  5
128A
330
2D83
100
AcDbEntity
  8
DEFPOINTS
 62
     0
100
AcDbPoint
 10
-123.5
 20
-8.0
 30
0.0
  0
POINT
  5
128B
330
2D83
100
AcDbEntity
  8
DEFPOINTS
 62
     0
100
AcDbPoint
 10
123.5
 20
-8.0
 30
0.0
  0
POINT
  5
128C
330
2D83
100
AcDbEntity
  8
DEFPOINTS
 62
     0
100
AcDbPoint
 10
123.5
 20
51.83630134534229
 30
0.0
  0
ENDBLK
  5
1283
330
2D83
100
AcDbEntity
  8
0
100
AcDbBlockEnd
  0
BLOCK
  5
2D86
330
2D85
100
AcDbEntity
  8
0
100
AcDbBlockBegin
  2
*U21
 70
     1
 10
0.0
 20
0.0
 30
0.0
  3
*U21
  1

  0
TEXT
  5
1EF1
330
2D85
100
AcDbEntity
  8
NOTE
 62
     0
100
AcDbText
 10
-74.05714285714283
 20
61.83630134534229
 30
0.0
 40
64.0
  1
247
 41
0.9
100
AcDbText
  0
ENDBLK
  5
1EF3
330
2D85
100
AcDbEntity
  8
0
100
AcDbBlockEnd
  0
BLOCK
  5
2D88
330
2D87
100
AcDbEntity
  8
0
100
AcDbBlockBegin
  2
*D22
 70
     1
 10
0.0
 20
0.0
 30
0.0
  3
*D22
  1

  0
LINE
  5
1414
330
2D87
100
AcDbEntity
  8
SIZE
 62
     0
100
AcDbLine
 10
-22313.11521613997
 20
7365.702971374808
 30
0.0
 11
-22313.11521613997
 21
7217.685576144207
 31
0.0
  0
LINE
  5
1415
330
2D87
100
AcDbEntity
  8
SIZE
 62
     0
100
AcDbLine
 10
-22044.11521613997
 20
7365.702971374808
 30
0.0
 11
-22044.11521613997
 21
7217.685576144207
 31
0.0
  0
LINE
  5
1416
330
2D87
100
AcDbEntity
  8
SIZE
 62
     0
100
AcDbLine
 10
-22301.11521613997
 20
7237.685576144207
 30
0.0
 11
-22056.11521613997
 21
7237.685576144207
 31
0.0
  0
INSERT
  5
1417
330
2D87
100
AcDbEntity
  8
SIZE
 62
     0
100
AcDbBlockReference
  2
_DOTBLANK
 10
-22313.11521613997
 20
7237.685576144207
 30
0.0
 41
12.0
 42
12.0
 43
12.0
 50
180.0
  0
INSERT
  5
1418
330
2D87
100
AcDbEntity
  8
SIZE
 62
     0
100
AcDbBlockReference
  2
_DOTBLANK
 10
-22044.11521613997
 20
7237.685576144207
 30
0.0
 41
12.0
 42
12.0
 43
12.0
  0
INSERT
  5
1419
330
2D87
100
AcDbEntity
  8
0
100
AcDbBlockReference
  2
*U23
 10
0.0
 20
0.0
 30
0.0
  0
POINT
  5
141A
330
2D87
100
AcDbEntity
  8
DEFPOINTS
 62
     0
100
AcDbPoint
 10
-22313.11521613997
 20
7385.702971374808
 30
0.0
  0
POINT
  5
141B
330
2D87
100
AcDbEntity
  8
DEFPOINTS
 62
     0
100
AcDbPoint
 10
-22044.11521613997
 20
7385.702971374808
 30
0.0
  0
POINT
  5
141C
330
2D87
100
AcDbEntity
  8
DEFPOINTS
 62
     0
100
AcDbPoint
 10
-22044.11521613997
 20
7237.685576144207
 30
0.0
  0
ENDBLK
  5
141D
330
2D87
100
AcDbEntity
  8
0
100
AcDbBlockEnd
  0
BLOCK
  5
2D8A
330
2D89
100
AcDbEntity
  8
0
100
AcDbBlockBegin
  2
*U23
 70
     1
 10
0.0
 20
0.0
 30
0.0
  3
*U23
  1

  0
TEXT
  5
1EF9
330
2D89
100
AcDbEntity
  8
SIZE
 62
     0
100
AcDbText
 10
-22251.30093042568
 20
7247.685576144205
 30
0.0
 40
64.0
  1
269
 41
0.9
100
AcDbText
  0
ENDBLK
  5
1EFB
330
2D89
100
AcDbEntity
  8
0
100
AcDbBlockEnd
  0
BLOCK
  5
2D8C
330
2D8B
100
AcDbEntity
  8
0
100
AcDbBlockBegin
  2
*D24
 70
     1
 10
0.0
 20
0.0
 30
0.0
  3
*D24
  1

  0
LINE
  5
1420
330
2D8B
100
AcDbEntity
  8
SIZE
  6
Continuous
 62
     0
100
AcDbLine
 10
-22035.11521613997
 20
7385.702971374808
 30
0.0
 11
-21873.97193165959
 21
7385.702971374808
 31
0.0
  0
LINE
  5
1421
330
2D8B
100
AcDbEntity
  8
SIZE
  6
Continuous
 62
     0
100
AcDbLine
 10
-22001.11521613997
 20
7685.702971374808
 30
0.0
 11
-21873.97193165959
 21
7685.702971374808
 31
0.0
  0
LINE
  5
1422
330
2D8B
100
AcDbEntity
  8
SIZE
  6
Continuous
 62
     0
100
AcDbLine
 10
-21893.97193165959
 20
7397.702971374808
 30
0.0
 11
-21893.97193165959
 21
7673.702971374808
 31
0.0
  0
INSERT
  5
1423
330
2D8B
100
AcDbEntity
  8
SIZE
  6
Continuous
 62
     0
100
AcDbBlockReference
  2
_DOTBLANK
 10
-21893.97193165959
 20
7385.702971374808
 30
0.0
 41
12.0
 42
12.0
 43
12.0
 50
270.0
  0
INSERT
  5
1424
330
2D8B
100
AcDbEntity
  8
SIZE
  6
Continuous
 62
     0
100
AcDbBlockReference
  2
_DOTBLANK
 10
-21893.97193165959
 20
7685.702971374808
 30
0.0
 41
12.0
 42
12.0
 43
12.0
 50
90.0
  0
INSERT
  5
1425
330
2D8B
100
AcDbEntity
  8
0
100
AcDbBlockReference
  2
*U25
 10
0.0
 20
0.0
 30
0.0
  0
POINT
  5
1426
330
2D8B
100
AcDbEntity
  8
DEFPOINTS
  6
Continuous
 62
     0
100
AcDbPoint
 10
-22055.11521613997
 20
7385.702971374808
 30
0.0
  0
POINT
  5
1427
330
2D8B
100
AcDbEntity
  8
DEFPOINTS
  6
Continuous
 62
     0
100
AcDbPoint
 10
-22021.11521613997
 20
7685.702971374808
 30
0.0
  0
POINT
  5
1428
330
2D8B
100
AcDbEntity
  8
DEFPOINTS
  6
Continuous
 62
     0
100
AcDbPoint
 10
-21893.97193165959
 20
7685.702971374808
 30
0.0
  0
ENDBLK
  5
1429
330
2D8B
100
AcDbEntity
  8
0
100
AcDbBlockEnd
  0
BLOCK
  5
2D8E
330
2D8D
100
AcDbEntity
  8
0
100
AcDbBlockBegin
  2
*U25
 70
     1
 10
0.0
 20
0.0
 30
0.0
  3
*U25
  1

  0
TEXT
  5
1EFD
330
2D8D
100
AcDbEntity
  8
SIZE
 62
     0
100
AcDbText
 10
-21903.97193165959
 20
7461.645828517662
 30
0.0
 40
64.0
  1
300
 50
90.0
 41
0.9
100
AcDbText
  0
ENDBLK
  5
1EFF
330
2D8D
100
AcDbEntity
  8
0
100
AcDbBlockEnd
  0
BLOCK
  5
2D90
330
2D8F
100
AcDbEntity
  8
0
100
AcDbBlockBegin
  2
*D26
 70
     1
 10
0.0
 20
0.0
 30
0.0
  3
*D26
  1

  0
LINE
  5
142C
330
2D8F
100
AcDbEntity
  8
SIZE
 62
     0
100
AcDbLine
 10
-22318.61521613997
 20
7718.167454177002
 30
0.0
 11
-22318.61521613997
 21
7822.154659243358
 31
0.0
  0
LINE
  5
142D
330
2D8F
100
AcDbEntity
  8
SIZE
 62
     0
100
AcDbLine
 10
-22038.61521613997
 20
7718.167454177002
 30
0.0
 11
-22038.61521613997
 21
7822.154659243358
 31
0.0
  0
LINE
  5
142E
330
2D8F
100
AcDbEntity
  8
SIZE
 62
     0
100
AcDbLine
 10
-22306.61521613997
 20
7802.154659243358
 30
0.0
 11
-22050.61521613997
 21
7802.154659243358
 31
0.0
  0
INSERT
  5
142F
330
2D8F
100
AcDbEntity
  8
SIZE
 62
     0
100
AcDbBlockReference
  2
_DOTBLANK
 10
-22318.61521613997
 20
7802.154659243358
 30
0.0
 41
12.0
 42
12.0
 43
12.0
 50
180.0
  0
INSERT
  5
1430
330
2D8F
100
AcDbEntity
  8
SIZE
 62
     0
100
AcDbBlockReference
  2
_DOTBLANK
 10
-22038.61521613997
 20
7802.154659243358
 30
0.0
 41
12.0
 42
12.0
 43
12.0
  0
INSERT
  5
1431
330
2D8F
100
AcDbEntity
  8
0
100
AcDbBlockReference
  2
*U27
 10
0.0
 20
0.0
 30
0.0
  0
POINT
  5
1432
330
2D8F
100
AcDbEntity
  8
DEFPOINTS
 62
     0
100
AcDbPoint
 10
-22318.61521613997
 20
7698.167454177002
 30
0.0
  0
POINT
  5
1433
330
2D8F
100
AcDbEntity
  8
DEFPOINTS
 62
     0
100
AcDbPoint
 10
-22038.61521613997
 20
7698.167454177002
 30
0.0
  0
POINT
  5
1434
330
2D8F
100
AcDbEntity
  8
DEFPOINTS
 62
     0
100
AcDbPoint
 10
-22038.61521613997
 20
7802.154659243358
 30
0.0
  0
ENDBLK
  5
1435
330
2D8F
100
AcDbEntity
  8
0
100
AcDbBlockEnd
  0
BLOCK
  5
2D92
330
2D91
100
AcDbEntity
  8
0
100
AcDbBlockBegin
  2
*U27
 70
     1
 10
0.0
 20
0.0
 30
0.0
  3
*U27
  1

  0
TEXT
  5
1F01
330
2D91
100
AcDbEntity
  8
SIZE
 62
     0
100
AcDbText
 10
-22252.6723589971
 20
7812.154659243358
 30
0.0
 40
64.0
  1
280
 41
0.9
100
AcDbText
  0
ENDBLK
  5
1F03
330
2D91
100
AcDbEntity
  8
0
100
AcDbBlockEnd
  0
BLOCK
  5
2D94
330
2D93
100
AcDbEntity
  8
0
100
AcDbBlockBegin
  2
*D28
 70
     1
 10
0.0
 20
0.0
 30
0.0
  3
*D28
  1

  0
LINE
  5
1438
330
2D93
100
AcDbEntity
  8
SIZE
 62
     0
100
AcDbLine
 10
-22336.11521613997
 20
7705.702971374808
 30
0.0
 11
-22336.11521613997
 21
7931.282433493766
 31
0.0
  0
LINE
  5
1439
330
2D93
100
AcDbEntity
  8
SIZE
 62
     0
100
AcDbLine
 10
-22021.11521613997
 20
7705.702971374808
 30
0.0
 11
-22021.11521613997
 21
7931.282433493766
 31
0.0
  0
LINE
  5
143A
330
2D93
100
AcDbEntity
  8
SIZE
 62
     0
100
AcDbLine
 10
-22324.11521613997
 20
7911.282433493766
 30
0.0
 11
-22033.11521613997
 21
7911.282433493766
 31
0.0
  0
INSERT
  5
143B
330
2D93
100
AcDbEntity
  8
SIZE
 62
     0
100
AcDbBlockReference
  2
_DOTBLANK
 10
-22336.11521613997
 20
7911.282433493766
 30
0.0
 41
12.0
 42
12.0
 43
12.0
 50
180.0
  0
INSERT
  5
143C
330
2D93
100
AcDbEntity
  8
SIZE
 62
     0
100
AcDbBlockReference
  2
_DOTBLANK
 10
-22021.11521613997
 20
7911.282433493766
 30
0.0
 41
12.0
 42
12.0
 43
12.0
  0
INSERT
  5
143D
330
2D93
100
AcDbEntity
  8
0
100
AcDbBlockReference
  2
*U29
 10
0.0
 20
0.0
 30
0.0
  0
POINT
  5
143E
330
2D93
100
AcDbEntity
  8
DEFPOINTS
 62
     0
100
AcDbPoint
 10
-22336.11521613997
 20
7685.702971374808
 30
0.0
  0
POINT
  5
143F
330
2D93
100
AcDbEntity
  8
DEFPOINTS
 62
     0
100
AcDbPoint
 10
-22021.11521613997
 20
7685.702971374808
 30
0.0
  0
POINT
  5
1440
330
2D93
100
AcDbEntity
  8
DEFPOINTS
 62
     0
100
AcDbPoint
 10
-22021.11521613997
 20
7911.282433493766
 30
0.0
  0
ENDBLK
  5
1441
330
2D93
100
AcDbEntity
  8
0
100
AcDbBlockEnd
  0
BLOCK
  5
2D96
330
2D95
100
AcDbEntity
  8
0
100
AcDbBlockBegin
  2
*U29
 70
     1
 10
0.0
 20
0.0
 30
0.0
  3
*U29
  1

  0
TEXT
  5
1F05
330
2D95
100
AcDbEntity
  8
SIZE
 62
     0
100
AcDbText
 10
-22247.18664471139
 20
7921.282433493766
 30
0.0
 40
64.0
  1
315
 41
0.9
100
AcDbText
  0
ENDBLK
  5
1F07
330
2D95
100
AcDbEntity
  8
0
100
AcDbBlockEnd
  0
BLOCK
  5
2D98
330
2D97
100
AcDbEntity
  8
0
100
AcDbBlockBegin
  2
*D30
 70
     1
 10
0.0
 20
0.0
 30
0.0
  3
*D30
  1

  0
LINE
  5
166B
330
2D97
100
AcDbEntity
  8
SIZE
 62
     0
100
AcDbLine
 10
-134.5
 20
-320.0
 30
0.0
 11
-134.5
 21
-468.0173952306001
 31
0.0
  0
LINE
  5
166C
330
2D97
100
AcDbEntity
  8
SIZE
 62
     0
100
AcDbLine
 10
134.5
 20
-320.0
 30
0.0
 11
134.5
 21
-468.0173952306001
 31
0.0
  0
LINE
  5
166D
330
2D97
100
AcDbEntity
  8
SIZE
 62
     0
100
AcDbLine
 10
-122.5
 20
-448.0173952306
 30
0.0
 11
122.5
 21
-448.0173952306
 31
0.0
  0
INSERT
  5
166E
330
2D97
100
AcDbEntity
  8
SIZE
 62
     0
100
AcDbBlockReference
  2
_DOTBLANK
 10
-134.5
 20
-448.0173952306
 30
0.0
 41
12.0
 42
12.0
 43
12.0
 50
180.0
  0
INSERT
  5
166F
330
2D97
100
AcDbEntity
  8
SIZE
 62
     0
100
AcDbBlockReference
  2
_DOTBLANK
 10
134.5
 20
-448.0173952306
 30
0.0
 41
12.0
 42
12.0
 43
12.0
  0
INSERT
  5
1670
330
2D97
100
AcDbEntity
  8
0
100
AcDbBlockReference
  2
*U31
 10
0.0
 20
0.0
 30
0.0
  0
POINT
  5
1671
330
2D97
100
AcDbEntity
  8
DEFPOINTS
 62
     0
100
AcDbPoint
 10
-134.5
 20
-300.0
 30
0.0
  0
POINT
  5
1672
330
2D97
100
AcDbEntity
  8
DEFPOINTS
 62
     0
100
AcDbPoint
 10
134.5
 20
-300.0
 30
0.0
  0
POINT
  5
1673
330
2D97
100
AcDbEntity
  8
DEFPOINTS
 62
     0
100
AcDbPoint
 10
134.5
 20
-448.0173952306
 30
0.0
  0
ENDBLK
  5
14A7
330
2D97
100
AcDbEntity
  8
0
100
AcDbBlockEnd
  0
BLOCK
  5
2D9A
330
2D99
100
AcDbEntity
  8
0
100
AcDbBlockBegin
  2
*U31
 70
     1
 10
0.0
 20
0.0
 30
0.0
  3
*U31
  1

  0
TEXT
  5
1F09
330
2D99
100
AcDbEntity
  8
SIZE
 62
     0
100
AcDbText
 10
-72.68571428571426
 20
-438.0173952306002
 30
0.0
 40
64.0
  1
269
 41
0.9
100
AcDbText
  0
ENDBLK
  5
1F0B
330
2D99
100
AcDbEntity
  8
0
100
AcDbBlockEnd
  0
BLOCK
  5
2D9C
330
2D9B
100
AcDbEntity
  8
0
100
AcDbBlockBegin
  2
*D32
 70
     1
 10
0.0
 20
0.0
 30
0.0
  3
*D32
  1

  0
LINE
  5
1674
330
2D9B
100
AcDbEntity
  8
SIZE
  6
Continuous
 62
     0
100
AcDbLine
 10
143.5
 20
-300.0
 30
0.0
 11
304.6432844803784
 21
-300.0
 31
0.0
  0
LINE
  5
1675
330
2D9B
100
AcDbEntity
  8
SIZE
  6
Continuous
 62
     0
100
AcDbLine
 10
177.5
 20
-0.0000000000000057
 30
0.0
 11
304.6432844803785
 21
-0.0000000000000417
 31
0.0
  0
LINE
  5
1676
330
2D9B
100
AcDbEntity
  8
SIZE
  6
Continuous
 62
     0
100
AcDbLine
 10
284.6432844803784
 20
-288.0000000000001
 30
0.0
 11
284.6432844803785
 21
-12.00000000000003
 31
0.0
  0
INSERT
  5
1677
330
2D9B
100
AcDbEntity
  8
SIZE
  6
Continuous
 62
     0
100
AcDbBlockReference
  2
_DOTBLANK
 10
284.6432844803784
 20
-300.0
 30
0.0
 41
12.0
 42
12.0
 43
12.0
 50
270.0
  0
INSERT
  5
1678
330
2D9B
100
AcDbEntity
  8
SIZE
  6
Continuous
 62
     0
100
AcDbBlockReference
  2
_DOTBLANK
 10
284.6432844803785
 20
-0.000000000000036
 30
0.0
 41
12.0
 42
12.0
 43
12.0
 50
90.0
  0
INSERT
  5
1679
330
2D9B
100
AcDbEntity
  8
0
100
AcDbBlockReference
  2
*U33
 10
0.0
 20
0.0
 30
0.0
  0
POINT
  5
167A
330
2D9B
100
AcDbEntity
  8
DEFPOINTS
  6
Continuous
 62
     0
100
AcDbPoint
 10
123.5
 20
-300.0
 30
0.0
  0
POINT
  5
167B
330
2D9B
100
AcDbEntity
  8
DEFPOINTS
  6
Continuous
 62
     0
100
AcDbPoint
 10
157.5
 20
0.0
 30
0.0
  0
POINT
  5
167C
330
2D9B
100
AcDbEntity
  8
DEFPOINTS
  6
Continuous
 62
     0
100
AcDbPoint
 10
284.6432844803785
 20
-0.000000000000036
 30
0.0
  0
ENDBLK
  5
14B3
330
2D9B
100
AcDbEntity
  8
0
100
AcDbBlockEnd
  0
BLOCK
  5
2D9E
330
2D9D
100
AcDbEntity
  8
0
100
AcDbBlockBegin
  2
*U33
 70
     1
 10
0.0
 20
0.0
 30
0.0
  3
*U33
  1

  0
TEXT
  5
1F0D
330
2D9D
100
AcDbEntity
  8
SIZE
 62
     0
100
AcDbText
 10
274.6432844803785
 20
-224.0571428571429
 30
0.0
 40
64.0
  1
300
 50
90.0
 41
0.9
100
AcDbText
  0
ENDBLK
  5
1F0F
330
2D9D
100
AcDbEntity
  8
0
100
AcDbBlockEnd
  0
BLOCK
  5
2DA0
330
2D9F
100
AcDbEntity
  8
0
100
AcDbBlockBegin
  2
*D34
 70
     1
 10
0.0
 20
0.0
 30
0.0
  3
*D34
  1

  0
LINE
  5
167D
330
2D9F
100
AcDbEntity
  8
SIZE
 62
     0
100
AcDbLine
 10
-140.0
 20
32.46448280219375
 30
0.0
 11
-140.0
 21
136.4516878685507
 31
0.0
  0
LINE
  5
167E
330
2D9F
100
AcDbEntity
  8
SIZE
 62
     0
100
AcDbLine
 10
140.0
 20
32.46448280219375
 30
0.0
 11
140.0
 21
136.4516878685507
 31
0.0
  0
LINE
  5
167F
330
2D9F
100
AcDbEntity
  8
SIZE
 62
     0
100
AcDbLine
 10
-128.0
 20
116.4516878685508
 30
0.0
 11
128.0
 21
116.4516878685508
 31
0.0
  0
INSERT
  5
1680
330
2D9F
100
AcDbEntity
  8
SIZE
 62
     0
100
AcDbBlockReference
  2
_DOTBLANK
 10
-140.0
 20
116.4516878685508
 30
0.0
 41
12.0
 42
12.0
 43
12.0
 50
180.0
  0
INSERT
  5
1681
330
2D9F
100
AcDbEntity
  8
SIZE
 62
     0
100
AcDbBlockReference
  2
_DOTBLANK
 10
140.0
 20
116.4516878685508
 30
0.0
 41
12.0
 42
12.0
 43
12.0
  0
INSERT
  5
1682
330
2D9F
100
AcDbEntity
  8
0
100
AcDbBlockReference
  2
*U35
 10
0.0
 20
0.0
 30
0.0
  0
POINT
  5
1683
330
2D9F
100
AcDbEntity
  8
DEFPOINTS
 62
     0
100
AcDbPoint
 10
-140.0
 20
12.46448280219374
 30
0.0
  0
POINT
  5
1684
330
2D9F
100
AcDbEntity
  8
DEFPOINTS
 62
     0
100
AcDbPoint
 10
140.0
 20
12.46448280219374
 30
0.0
  0
POINT
  5
1685
330
2D9F
100
AcDbEntity
  8
DEFPOINTS
 62
     0
100
AcDbPoint
 10
140.0
 20
116.4516878685508
 30
0.0
  0
ENDBLK
  5
14BF
330
2D9F
100
AcDbEntity
  8
0
100
AcDbBlockEnd
  0
BLOCK
  5
2DA2
330
2DA1
100
AcDbEntity
  8
0
100
AcDbBlockBegin
  2
*U35
 70
     1
 10
0.0
 20
0.0
 30
0.0
  3
*U35
  1

  0
TEXT
  5
1F11
330
2DA1
100
AcDbEntity
  8
SIZE
 62
     0
100
AcDbText
 10
-74.05714285714283
 20
126.4516878685507
 30
0.0
 40
64.0
  1
280
 41
0.9
100
AcDbText
  0
ENDBLK
  5
1F13
330
2DA1
100
AcDbEntity
  8
0
100
AcDbBlockEnd
  0
BLOCK
  5
2DA4
330
2DA3
100
AcDbEntity
  8
0
100
AcDbBlockBegin
  2
*D36
 70
     1
 10
0.0
 20
0.0
 30
0.0
  3
*D36
  1

  0
LINE
  5
1686
330
2DA3
100
AcDbEntity
  8
SIZE
 62
     0
100
AcDbLine
 10
-157.5
 20
20.0
 30
0.0
 11
-157.5
 21
245.5794621189598
 31
0.0
  0
LINE
  5
1687
330
2DA3
100
AcDbEntity
  8
SIZE
 62
     0
100
AcDbLine
 10
157.5
 20
20.0
 30
0.0
 11
157.5
 21
245.5794621189598
 31
0.0
  0
LINE
  5
1688
330
2DA3
100
AcDbEntity
  8
SIZE
 62
     0
100
AcDbLine
 10
-145.5
 20
225.5794621189598
 30
0.0
 11
145.5
 21
225.5794621189598
 31
0.0
  0
INSERT
  5
1689
330
2DA3
100
AcDbEntity
  8
SIZE
 62
     0
100
AcDbBlockReference
  2
_DOTBLANK
 10
-157.5
 20
225.5794621189598
 30
0.0
 41
12.0
 42
12.0
 43
12.0
 50
180.0
  0
INSERT
  5
168A
330
2DA3
100
AcDbEntity
  8
SIZE
 62
     0
100
AcDbBlockReference
  2
_DOTBLANK
 10
157.5
 20
225.5794621189598
 30
0.0
 41
12.0
 42
12.0
 43
12.0
  0
INSERT
  5
168B
330
2DA3
100
AcDbEntity
  8
0
100
AcDbBlockReference
  2
*U37
 10
0.0
 20
0.0
 30
0.0
  0
POINT
  5
168C
330
2DA3
100
AcDbEntity
  8
DEFPOINTS
 62
     0
100
AcDbPoint
 10
-157.5
 20
0.0
 30
0.0
  0
POINT
  5
168D
330
2DA3
100
AcDbEntity
  8
DEFPOINTS
 62
     0
100
AcDbPoint
 10
157.5
 20
0.0
 30
0.0
  0
POINT
  5
168E
330
2DA3
100
AcDbEntity
  8
DEFPOINTS
 62
     0
100
AcDbPoint
 10
157.5
 20
225.5794621189598
 30
0.0
  0
ENDBLK
  5
14CB
330
2DA3
100
AcDbEntity
  8
0
100
AcDbBlockEnd
  0
BLOCK
  5
2DA6
330
2DA5
100
AcDbEntity
  8
0
100
AcDbBlockBegin
  2
*U37
 70
     1
 10
0.0
 20
0.0
 30
0.0
  3
*U37
  1

  0
TEXT
  5
1F15
330
2DA5
100
AcDbEntity
  8
SIZE
 62
     0
100
AcDbText
 10
-68.57142857142857
 20
235.5794621189598
 30
0.0
 40
64.0
  1
315
 41
0.9
100
AcDbText
  0
ENDBLK
  5
1F17
330
2DA5
100
AcDbEntity
  8
0
100
AcDbBlockEnd
  0
BLOCK
  5
2DA8
330
2DA7
100
AcDbEntity
  8
0
100
AcDbBlockBegin
  2
*U38
 70
     1
 10
0.0
 20
0.0
 30
0.0
  3
*U38
  1

  0
ENDBLK
  5
15CF
330
2DA7
100
AcDbEntity
  8
0
100
AcDbBlockEnd
  0
BLOCK
  5
2DAA
330
2DA9
100
AcDbEntity
  8
0
100
AcDbBlockBegin
  2
*D39
 70
     1
 10
0.0
 20
0.0
 30
0.0
  3
*D39
  1

  0
LINE
  5
1692
330
2DA9
100
AcDbEntity
  8
SIZE
 62
     0
100
AcDbLine
 10
-25844.51823276502
 20
7685.702971374808
 30
0.0
 11
-25981.04465488371
 21
7685.702971374808
 31
0.0
  0
LINE
  5
1693
330
2DA9
100
AcDbEntity
  8
SIZE
 62
     0
100
AcDbLine
 10
-25844.51823276502
 20
7677.702971374808
 30
0.0
 11
-25981.04465488371
 21
7677.702971374808
 31
0.0
  0
LINE
  5
1694
330
2DA9
100
AcDbEntity
  8
SIZE
 62
     0
100
AcDbLine
 10
-25961.04465488371
 20
7697.702971374808
 30
0.0
 11
-25961.04465488371
 21
7709.702971374809
 31
0.0
  0
LINE
  5
1695
330
2DA9
100
AcDbEntity
  8
SIZE
 62
     0
100
AcDbLine
 10
-25961.04465488371
 20
7665.70297137481
 30
0.0
 11
-25961.04465488371
 21
7595.302971374808
 31
0.0
  0
INSERT
  5
1696
330
2DA9
100
AcDbEntity
  8
SIZE
 62
     0
100
AcDbBlockReference
  2
_DOTBLANK
 10
-25961.04465488371
 20
7685.702971374808
 30
0.0
 41
12.0
 42
12.0
 43
12.0
 50
270.0
  0
INSERT
  5
1697
330
2DA9
100
AcDbEntity
  8
SIZE
 62
     0
100
AcDbBlockReference
  2
_DOTBLANK
 10
-25961.04465488371
 20
7677.702971374808
 30
0.0
 41
12.0
 42
12.0
 43
12.0
 50
90.0
  0
INSERT
  5
1698
330
2DA9
100
AcDbEntity
  8
0
100
AcDbBlockReference
  2
*U40
 10
0.0
 20
0.0
 30
0.0
  0
POINT
  5
1699
330
2DA9
100
AcDbEntity
  8
DEFPOINTS
 62
     0
100
AcDbPoint
 10
-25824.51823276501
 20
7685.702971374808
 30
0.0
  0
POINT
  5
169A
330
2DA9
100
AcDbEntity
  8
DEFPOINTS
 62
     0
100
AcDbPoint
 10
-25824.51823276501
 20
7677.702971374808
 30
0.0
  0
POINT
  5
169B
330
2DA9
100
AcDbEntity
  8
DEFPOINTS
 62
     0
100
AcDbPoint
 10
-25961.04465488371
 20
7677.702971374808
 30
0.0
  0
ENDBLK
  5
169C
330
2DA9
100
AcDbEntity
  8
0
100
AcDbBlockEnd
  0
BLOCK
  5
2DAC
330
2DAB
100
AcDbEntity
  8
0
100
AcDbBlockBegin
  2
*U40
 70
     1
 10
0.0
 20
0.0
 30
0.0
  3
*U40
  1

  0
TEXT
  5
1F19
330
2DAB
100
AcDbEntity
  8
SIZE
 62
     0
100
AcDbText
 10
-25971.04465488371
 20
7605.302971374804
 30
0.0
 40
64.0
  1
8
 50
90.0
 41
0.9
100
AcDbText
  0
ENDBLK
  5
1F1B
330
2DAB
100
AcDbEntity
  8
0
100
AcDbBlockEnd
  0
BLOCK
  5
2DAE
330
2DAD
100
AcDbEntity
  8
0
100
AcDbBlockBegin
  2
*D41
 70
     1
 10
0.0
 20
0.0
 30
0.0
  3
*D41
  1

  0
LINE
  5
169F
330
2DAD
100
AcDbEntity
  8
SIZE
 62
     0
100
AcDbLine
 10
-25512.51823276502
 20
7385.702971374808
 30
0.0
 11
-25362.37494828464
 21
7385.702971374808
 31
0.0
  0
LINE
  5
16A0
330
2DAD
100
AcDbEntity
  8
SIZE
 62
     0
100
AcDbLine
 10
-25523.51823276501
 20
7373.702971374808
 30
0.0
 11
-25362.37494828464
 21
7373.702971374808
 31
0.0
  0
LINE
  5
16A1
330
2DAD
100
AcDbEntity
  8
SIZE
 62
     0
100
AcDbLine
 10
-25382.37494828464
 20
7397.702971374808
 30
0.0
 11
-25382.37494828464
 21
7409.70297137481
 31
0.0
  0
LINE
  5
16A2
330
2DAD
100
AcDbEntity
  8
SIZE
 62
     0
100
AcDbLine
 10
-25382.37494828464
 20
7361.702971374808
 30
0.0
 11
-25382.37494828464
 21
7244.674399946238
 31
0.0
  0
INSERT
  5
16A3
330
2DAD
100
AcDbEntity
  8
SIZE
 62
     0
100
AcDbBlockReference
  2
_DOTBLANK
 10
-25382.37494828464
 20
7385.702971374808
 30
0.0
 41
12.0
 42
12.0
 43
12.0
 50
270.0
  0
INSERT
  5
16A4
330
2DAD
100
AcDbEntity
  8
SIZE
 62
     0
100
AcDbBlockReference
  2
_DOTBLANK
 10
-25382.37494828464
 20
7373.702971374808
 30
0.0
 41
12.0
 42
12.0
 43
12.0
 50
90.0
  0
INSERT
  5
16A5
330
2DAD
100
AcDbEntity
  8
0
100
AcDbBlockReference
  2
*U42
 10
0.0
 20
0.0
 30
0.0
  0
POINT
  5
16A6
330
2DAD
100
AcDbEntity
  8
DEFPOINTS
 62
     0
100
AcDbPoint
 10
-25532.51823276502
 20
7385.702971374808
 30
0.0
  0
POINT
  5
16A7
330
2DAD
100
AcDbEntity
  8
DEFPOINTS
 62
     0
100
AcDbPoint
 10
-25543.51823276502
 20
7373.702971374808
 30
0.0
  0
POINT
  5
16A8
330
2DAD
100
AcDbEntity
  8
DEFPOINTS
 62
     0
100
AcDbPoint
 10
-25382.37494828464
 20
7373.702971374808
 30
0.0
  0
ENDBLK
  5
16A9
330
2DAD
100
AcDbEntity
  8
0
100
AcDbBlockEnd
  0
BLOCK
  5
2DB0
330
2DAF
100
AcDbEntity
  8
0
100
AcDbBlockBegin
  2
*U42
 70
     1
 10
0.0
 20
0.0
 30
0.0
  3
*U42
  1

  0
TEXT
  5
1F1D
330
2DAF
100
AcDbEntity
  8
SIZE
 62
     0
100
AcDbText
 10
-25392.37494828464
 20
7256.045828517662
 30
0.0
 40
64.0
  1
12
 50
90.0
 41
0.9
100
AcDbText
  0
ENDBLK
  5
1F1F
330
2DAF
100
AcDbEntity
  8
0
100
AcDbBlockEnd
  0
BLOCK
  5
2DB2
330
2DB1
100
AcDbEntity
  8
0
100
AcDbBlockBegin
  2
*D43
 70
     1
 10
0.0
 20
0.0
 30
0.0
  3
*D43
  1

  0
LINE
  5
16AC
330
2DB1
100
AcDbEntity
  8
SIZE
 62
     0
100
AcDbLine
 10
-25801.51823276501
 20
7365.702971374808
 30
0.0
 11
-25801.51823276501
 21
7217.685576144207
 31
0.0
  0
LINE
  5
16AD
330
2DB1
100
AcDbEntity
  8
SIZE
 62
     0
100
AcDbLine
 10
-25532.51823276502
 20
7365.702971374808
 30
0.0
 11
-25532.51823276502
 21
7217.685576144207
 31
0.0
  0
LINE
  5
16AE
330
2DB1
100
AcDbEntity
  8
SIZE
 62
     0
100
AcDbLine
 10
-25789.51823276502
 20
7237.685576144207
 30
0.0
 11
-25544.51823276501
 21
7237.685576144207
 31
0.0
  0
INSERT
  5
16AF
330
2DB1
100
AcDbEntity
  8
SIZE
 62
     0
100
AcDbBlockReference
  2
_DOTBLANK
 10
-25801.51823276501
 20
7237.685576144207
 30
0.0
 41
12.0
 42
12.0
 43
12.0
 50
180.0
  0
INSERT
  5
16B0
330
2DB1
100
AcDbEntity
  8
SIZE
 62
     0
100
AcDbBlockReference
  2
_DOTBLANK
 10
-25532.51823276502
 20
7237.685576144207
 30
0.0
 41
12.0
 42
12.0
 43
12.0
  0
INSERT
  5
16B1
330
2DB1
100
AcDbEntity
  8
0
100
AcDbBlockReference
  2
*U44
 10
0.0
 20
0.0
 30
0.0
  0
POINT
  5
16B2
330
2DB1
100
AcDbEntity
  8
DEFPOINTS
 62
     0
100
AcDbPoint
 10
-25801.51823276501
 20
7385.702971374808
 30
0.0
  0
POINT
  5
16B3
330
2DB1
100
AcDbEntity
  8
DEFPOINTS
 62
     0
100
AcDbPoint
 10
-25532.51823276502
 20
7385.702971374808
 30
0.0
  0
POINT
  5
16B4
330
2DB1
100
AcDbEntity
  8
DEFPOINTS
 62
     0
100
AcDbPoint
 10
-25532.51823276502
 20
7237.685576144207
 30
0.0
  0
ENDBLK
  5
16B5
330
2DB1
100
AcDbEntity
  8
0
100
AcDbBlockEnd
  0
BLOCK
  5
2DB4
330
2DB3
100
AcDbEntity
  8
0
100
AcDbBlockBegin
  2
*U44
 70
     1
 10
0.0
 20
0.0
 30
0.0
  3
*U44
  1

  0
TEXT
  5
1F21
330
2DB3
100
AcDbEntity
  8
SIZE
 62
     0
100
AcDbText
 10
-25739.70394705074
 20
7247.685576144205
 30
0.0
 40
64.0
  1
269
 41
0.9
100
AcDbText
  0
ENDBLK
  5
1F23
330
2DB3
100
AcDbEntity
  8
0
100
AcDbBlockEnd
  0
BLOCK
  5
2DB6
330
2DB5
100
AcDbEntity
  8
0
100
AcDbBlockBegin
  2
*D45
 70
     1
 10
0.0
 20
0.0
 30
0.0
  3
*D45
  1

  0
LINE
  5
16B8
330
2DB5
100
AcDbEntity
  8
SIZE
 62
     0
100
AcDbLine
 10
-25512.51823276502
 20
7385.702971374808
 30
0.0
 11
-25362.37494828464
 21
7385.702971374808
 31
0.0
  0
LINE
  5
16B9
330
2DB5
100
AcDbEntity
  8
SIZE
 62
     0
100
AcDbLine
 10
-25489.51823276501
 20
7685.702971374808
 30
0.0
 11
-25362.37494828464
 21
7685.702971374808
 31
0.0
  0
LINE
  5
16BA
330
2DB5
100
AcDbEntity
  8
SIZE
 62
     0
100
AcDbLine
 10
-25382.37494828464
 20
7397.702971374808
 30
0.0
 11
-25382.37494828464
 21
7673.702971374808
 31
0.0
  0
INSERT
  5
16BB
330
2DB5
100
AcDbEntity
  8
SIZE
 62
     0
100
AcDbBlockReference
  2
_DOTBLANK
 10
-25382.37494828464
 20
7385.702971374808
 30
0.0
 41
12.0
 42
12.0
 43
12.0
 50
270.0
  0
INSERT
  5
16BC
330
2DB5
100
AcDbEntity
  8
SIZE
 62
     0
100
AcDbBlockReference
  2
_DOTBLANK
 10
-25382.37494828464
 20
7685.702971374808
 30
0.0
 41
12.0
 42
12.0
 43
12.0
 50
90.0
  0
INSERT
  5
16BD
330
2DB5
100
AcDbEntity
  8
0
100
AcDbBlockReference
  2
*U46
 10
0.0
 20
0.0
 30
0.0
  0
POINT
  5
16BE
330
2DB5
100
AcDbEntity
  8
DEFPOINTS
 62
     0
100
AcDbPoint
 10
-25532.51823276502
 20
7385.702971374808
 30
0.0
  0
POINT
  5
16BF
330
2DB5
100
AcDbEntity
  8
DEFPOINTS
 62
     0
100
AcDbPoint
 10
-25509.51823276502
 20
7685.702971374808
 30
0.0
  0
POINT
  5
16C0
330
2DB5
100
AcDbEntity
  8
DEFPOINTS
 62
     0
100
AcDbPoint
 10
-25382.37494828464
 20
7685.702971374808
 30
0.0
  0
ENDBLK
  5
16C1
330
2DB5
100
AcDbEntity
  8
0
100
AcDbBlockEnd
  0
BLOCK
  5
2DB8
330
2DB7
100
AcDbEntity
  8
0
100
AcDbBlockBegin
  2
*U46
 70
     1
 10
0.0
 20
0.0
 30
0.0
  3
*U46
  1

  0
TEXT
  5
1F25
330
2DB7
100
AcDbEntity
  8
SIZE
 62
     0
100
AcDbText
 10
-25392.37494828464
 20
7461.645828517662
 30
0.0
 40
64.0
  1
300
 50
90.0
 41
0.9
100
AcDbText
  0
ENDBLK
  5
1F27
330
2DB7
100
AcDbEntity
  8
0
100
AcDbBlockEnd
  0
BLOCK
  5
2DBA
330
2DB9
100
AcDbEntity
  8
0
100
AcDbBlockBegin
  2
*D47
 70
     1
 10
0.0
 20
0.0
 30
0.0
  3
*D47
  1

  0
LINE
  5
16C4
330
2DB9
100
AcDbEntity
  8
SIZE
 62
     0
100
AcDbLine
 10
-25807.01823276501
 20
7718.167454177002
 30
0.0
 11
-25807.01823276501
 21
7822.154659243358
 31
0.0
  0
LINE
  5
16C5
330
2DB9
100
AcDbEntity
  8
SIZE
 62
     0
100
AcDbLine
 10
-25527.01823276501
 20
7718.167454177002
 30
0.0
 11
-25527.01823276501
 21
7822.154659243358
 31
0.0
  0
LINE
  5
16C6
330
2DB9
100
AcDbEntity
  8
SIZE
 62
     0
100
AcDbLine
 10
-25795.01823276502
 20
7802.154659243358
 30
0.0
 11
-25539.01823276501
 21
7802.154659243358
 31
0.0
  0
INSERT
  5
16C7
330
2DB9
100
AcDbEntity
  8
SIZE
 62
     0
100
AcDbBlockReference
  2
_DOTBLANK
 10
-25807.01823276501
 20
7802.154659243358
 30
0.0
 41
12.0
 42
12.0
 43
12.0
 50
180.0
  0
INSERT
  5
16C8
330
2DB9
100
AcDbEntity
  8
SIZE
 62
     0
100
AcDbBlockReference
  2
_DOTBLANK
 10
-25527.01823276501
 20
7802.154659243358
 30
0.0
 41
12.0
 42
12.0
 43
12.0
  0
INSERT
  5
16C9
330
2DB9
100
AcDbEntity
  8
0
100
AcDbBlockReference
  2
*U48
 10
0.0
 20
0.0
 30
0.0
  0
POINT
  5
16CA
330
2DB9
100
AcDbEntity
  8
DEFPOINTS
 62
     0
100
AcDbPoint
 10
-25807.01823276501
 20
7698.167454177002
 30
0.0
  0
POINT
  5
16CB
330
2DB9
100
AcDbEntity
  8
DEFPOINTS
 62
     0
100
AcDbPoint
 10
-25527.01823276501
 20
7698.167454177002
 30
0.0
  0
POINT
  5
16CC
330
2DB9
100
AcDbEntity
  8
DEFPOINTS
 62
     0
100
AcDbPoint
 10
-25527.01823276501
 20
7802.154659243358
 30
0.0
  0
ENDBLK
  5
16CD
330
2DB9
100
AcDbEntity
  8
0
100
AcDbBlockEnd
  0
BLOCK
  5
2DBC
330
2DBB
100
AcDbEntity
  8
0
100
AcDbBlockBegin
  2
*U48
 70
     1
 10
0.0
 20
0.0
 30
0.0
  3
*U48
  1

  0
TEXT
  5
1F29
330
2DBB
100
AcDbEntity
  8
SIZE
 62
     0
100
AcDbText
 10
-25741.07537562216
 20
7812.154659243358
 30
0.0
 40
64.0
  1
280
 41
0.9
100
AcDbText
  0
ENDBLK
  5
1F2B
330
2DBB
100
AcDbEntity
  8
0
100
AcDbBlockEnd
  0
BLOCK
  5
2DBE
330
2DBD
100
AcDbEntity
  8
0
100
AcDbBlockBegin
  2
*D49
 70
     1
 10
0.0
 20
0.0
 30
0.0
  3
*D49
  1

  0
LINE
  5
16D0
330
2DBD
100
AcDbEntity
  8
SIZE
 62
     0
100
AcDbLine
 10
-25824.51823276501
 20
7705.702971374808
 30
0.0
 11
-25824.51823276501
 21
7931.282433493766
 31
0.0
  0
LINE
  5
16D1
330
2DBD
100
AcDbEntity
  8
SIZE
 62
     0
100
AcDbLine
 10
-25509.51823276502
 20
7705.702971374808
 30
0.0
 11
-25509.51823276502
 21
7931.282433493766
 31
0.0
  0
LINE
  5
16D2
330
2DBD
100
AcDbEntity
  8
SIZE
 62
     0
100
AcDbLine
 10
-25812.51823276502
 20
7911.282433493766
 30
0.0
 11
-25521.51823276501
 21
7911.282433493766
 31
0.0
  0
INSERT
  5
16D3
330
2DBD
100
AcDbEntity
  8
SIZE
 62
     0
100
AcDbBlockReference
  2
_DOTBLANK
 10
-25824.51823276501
 20
7911.282433493766
 30
0.0
 41
12.0
 42
12.0
 43
12.0
 50
180.0
  0
INSERT
  5
16D4
330
2DBD
100
AcDbEntity
  8
SIZE
 62
     0
100
AcDbBlockReference
  2
_DOTBLANK
 10
-25509.51823276502
 20
7911.282433493766
 30
0.0
 41
12.0
 42
12.0
 43
12.0
  0
INSERT
  5
16D5
330
2DBD
100
AcDbEntity
  8
0
100
AcDbBlockReference
  2
*U50
 10
0.0
 20
0.0
 30
0.0
  0
POINT
  5
16D6
330
2DBD
100
AcDbEntity
  8
DEFPOINTS
 62
     0
100
AcDbPoint
 10
-25824.51823276501
 20
7685.702971374808
 30
0.0
  0
POINT
  5
16D7
330
2DBD
100
AcDbEntity
  8
DEFPOINTS
 62
     0
100
AcDbPoint
 10
-25509.51823276502
 20
7685.702971374808
 30
0.0
  0
POINT
  5
16D8
330
2DBD
100
AcDbEntity
  8
DEFPOINTS
 62
     0
100
AcDbPoint
 10
-25509.51823276502
 20
7911.282433493766
 30
0.0
  0
ENDBLK
  5
16D9
330
2DBD
100
AcDbEntity
  8
0
100
AcDbBlockEnd
  0
BLOCK
  5
2DC0
330
2DBF
100
AcDbEntity
  8
0
100
AcDbBlockBegin
  2
*U50
 70
     1
 10
0.0
 20
0.0
 30
0.0
  3
*U50
  1

  0
TEXT
  5
1F2D
330
2DBF
100
AcDbEntity
  8
SIZE
 62
     0
100
AcDbText
 10
-25735.58966133645
 20
7921.282433493766
 30
0.0
 40
64.0
  1
315
 41
0.9
100
AcDbText
  0
ENDBLK
  5
1F2F
330
2DBF
100
AcDbEntity
  8
0
100
AcDbBlockEnd
  0
BLOCK
  5
2DC2
330
2DC1
100
AcDbEntity
  8
0
100
AcDbBlockBegin
  2
*D51
 70
     1
 10
0.0
 20
0.0
 30
0.0
  3
*D51
  1

  0
LINE
  5
1D83
330
2DC1
100
AcDbEntity
  8
SIZE
 62
     0
100
AcDbLine
 10
-134.5
 20
-320.0
 30
0.0
 11
-134.5
 21
-468.0173952306001
 31
0.0
  0
LINE
  5
1D84
330
2DC1
100
AcDbEntity
  8
SIZE
 62
     0
100
AcDbLine
 10
134.5
 20
-320.0
 30
0.0
 11
134.5
 21
-468.0173952306001
 31
0.0
  0
LINE
  5
1D85
330
2DC1
100
AcDbEntity
  8
SIZE
 62
     0
100
AcDbLine
 10
-122.5
 20
-448.0173952306
 30
0.0
 11
122.5
 21
-448.0173952306
 31
0.0
  0
INSERT
  5
1D86
330
2DC1
100
AcDbEntity
  8
SIZE
 62
     0
100
AcDbBlockReference
  2
_DOTBLANK
 10
-134.5
 20
-448.0173952306
 30
0.0
 41
12.0
 42
12.0
 43
12.0
 50
180.0
  0
INSERT
  5
1D87
330
2DC1
100
AcDbEntity
  8
SIZE
 62
     0
100
AcDbBlockReference
  2
_DOTBLANK
 10
134.5
 20
-448.0173952306
 30
0.0
 41
12.0
 42
12.0
 43
12.0
  0
INSERT
  5
1D88
330
2DC1
100
AcDbEntity
  8
0
100
AcDbBlockReference
  2
*U52
 10
0.0
 20
0.0
 30
0.0
  0
POINT
  5
1D89
330
2DC1
100
AcDbEntity
  8
DEFPOINTS
 62
     0
100
AcDbPoint
 10
-134.5
 20
-300.0
 30
0.0
  0
POINT
  5
1D8A
330
2DC1
100
AcDbEntity
  8
DEFPOINTS
 62
     0
100
AcDbPoint
 10
134.5
 20
-300.0
 30
0.0
  0
POINT
  5
1D8B
330
2DC1
100
AcDbEntity
  8
DEFPOINTS
 62
     0
100
AcDbPoint
 10
134.5
 20
-448.0173952306
 30
0.0
  0
ENDBLK
  5
173D
330
2DC1
100
AcDbEntity
  8
0
100
AcDbBlockEnd
  0
BLOCK
  5
2DC4
330
2DC3
100
AcDbEntity
  8
0
100
AcDbBlockBegin
  2
*U52
 70
     1
 10
0.0
 20
0.0
 30
0.0
  3
*U52
  1

  0
TEXT
  5
1F31
330
2DC3
100
AcDbEntity
  8
SIZE
 62
     0
100
AcDbText
 10
-72.68571428571426
 20
-438.0173952306003
 30
0.0
 40
64.0
  1
269
 41
0.9
100
AcDbText
  0
ENDBLK
  5
1F33
330
2DC3
100
AcDbEntity
  8
0
100
AcDbBlockEnd
  0
BLOCK
  5
2DC6
330
2DC5
100
AcDbEntity
  8
0
100
AcDbBlockBegin
  2
*D53
 70
     1
 10
0.0
 20
0.0
 30
0.0
  3
*D53
  1

  0
LINE
  5
1D8C
330
2DC5
100
AcDbEntity
  8
SIZE
 62
     0
100
AcDbLine
 10
154.5
 20
-300.0
 30
0.0
 11
304.6432844803784
 21
-300.0
 31
0.0
  0
LINE
  5
1D8D
330
2DC5
100
AcDbEntity
  8
SIZE
 62
     0
100
AcDbLine
 10
177.5
 20
-0.0000000000000057
 30
0.0
 11
304.6432844803785
 21
-0.0000000000000417
 31
0.0
  0
LINE
  5
1D8E
330
2DC5
100
AcDbEntity
  8
SIZE
 62
     0
100
AcDbLine
 10
284.6432844803784
 20
-288.0
 30
0.0
 11
284.6432844803785
 21
-12.00000000000003
 31
0.0
  0
INSERT
  5
1D8F
330
2DC5
100
AcDbEntity
  8
SIZE
 62
     0
100
AcDbBlockReference
  2
_DOTBLANK
 10
284.6432844803784
 20
-300.0
 30
0.0
 41
12.0
 42
12.0
 43
12.0
 50
270.0
  0
INSERT
  5
1D90
330
2DC5
100
AcDbEntity
  8
SIZE
 62
     0
100
AcDbBlockReference
  2
_DOTBLANK
 10
284.6432844803785
 20
-0.000000000000036
 30
0.0
 41
12.0
 42
12.0
 43
12.0
 50
90.0
  0
INSERT
  5
1D91
330
2DC5
100
AcDbEntity
  8
0
100
AcDbBlockReference
  2
*U54
 10
0.0
 20
0.0
 30
0.0
  0
POINT
  5
1D92
330
2DC5
100
AcDbEntity
  8
DEFPOINTS
 62
     0
100
AcDbPoint
 10
134.5
 20
-300.0
 30
0.0
  0
POINT
  5
1D93
330
2DC5
100
AcDbEntity
  8
DEFPOINTS
 62
     0
100
AcDbPoint
 10
157.5
 20
0.0
 30
0.0
  0
POINT
  5
1D94
330
2DC5
100
AcDbEntity
  8
DEFPOINTS
 62
     0
100
AcDbPoint
 10
284.6432844803785
 20
-0.000000000000036
 30
0.0
  0
ENDBLK
  5
1749
330
2DC5
100
AcDbEntity
  8
0
100
AcDbBlockEnd
  0
BLOCK
  5
2DC8
330
2DC7
100
AcDbEntity
  8
0
100
AcDbBlockBegin
  2
*U54
 70
     1
 10
0.0
 20
0.0
 30
0.0
  3
*U54
  1

  0
TEXT
  5
1F35
330
2DC7
100
AcDbEntity
  8
SIZE
 62
     0
100
AcDbText
 10
274.6432844803785
 20
-224.0571428571429
 30
0.0
 40
64.0
  1
300
 50
90.0
 41
0.9
100
AcDbText
  0
ENDBLK
  5
1F37
330
2DC7
100
AcDbEntity
  8
0
100
AcDbBlockEnd
  0
BLOCK
  5
2DCA
330
2DC9
100
AcDbEntity
  8
0
100
AcDbBlockBegin
  2
*D55
 70
     1
 10
0.0
 20
0.0
 30
0.0
  3
*D55
  1

  0
LINE
  5
1D95
330
2DC9
100
AcDbEntity
  8
SIZE
 62
     0
100
AcDbLine
 10
-140.0
 20
32.46448280219375
 30
0.0
 11
-140.0
 21
136.4516878685508
 31
0.0
  0
LINE
  5
1D96
330
2DC9
100
AcDbEntity
  8
SIZE
 62
     0
100
AcDbLine
 10
140.0
 20
32.46448280219375
 30
0.0
 11
140.0
 21
136.4516878685508
 31
0.0
  0
LINE
  5
1D97
330
2DC9
100
AcDbEntity
  8
SIZE
 62
     0
100
AcDbLine
 10
-128.0
 20
116.4516878685508
 30
0.0
 11
128.0
 21
116.4516878685508
 31
0.0
  0
INSERT
  5
1D98
330
2DC9
100
AcDbEntity
  8
SIZE
 62
     0
100
AcDbBlockReference
  2
_DOTBLANK
 10
-140.0
 20
116.4516878685508
 30
0.0
 41
12.0
 42
12.0
 43
12.0
 50
180.0
  0
INSERT
  5
1D99
330
2DC9
100
AcDbEntity
  8
SIZE
 62
     0
100
AcDbBlockReference
  2
_DOTBLANK
 10
140.0
 20
116.4516878685508
 30
0.0
 41
12.0
 42
12.0
 43
12.0
  0
INSERT
  5
1D9A
330
2DC9
100
AcDbEntity
  8
0
100
AcDbBlockReference
  2
*U56
 10
0.0
 20
0.0
 30
0.0
  0
POINT
  5
1D9B
330
2DC9
100
AcDbEntity
  8
DEFPOINTS
 62
     0
100
AcDbPoint
 10
-140.0
 20
12.46448280219374
 30
0.0
  0
POINT
  5
1D9C
330
2DC9
100
AcDbEntity
  8
DEFPOINTS
 62
     0
100
AcDbPoint
 10
140.0
 20
12.46448280219374
 30
0.0
  0
POINT
  5
1D9D
330
2DC9
100
AcDbEntity
  8
DEFPOINTS
 62
     0
100
AcDbPoint
 10
140.0
 20
116.4516878685508
 30
0.0
  0
ENDBLK
  5
1755
330
2DC9
100
AcDbEntity
  8
0
100
AcDbBlockEnd
  0
BLOCK
  5
2DCC
330
2DCB
100
AcDbEntity
  8
0
100
AcDbBlockBegin
  2
*U56
 70
     1
 10
0.0
 20
0.0
 30
0.0
  3
*U56
  1

  0
TEXT
  5
1F39
330
2DCB
100
AcDbEntity
  8
SIZE
 62
     0
100
AcDbText
 10
-74.05714285714283
 20
126.4516878685508
 30
0.0
 40
64.0
  1
280
 41
0.9
100
AcDbText
  0
ENDBLK
  5
1F3B
330
2DCB
100
AcDbEntity
  8
0
100
AcDbBlockEnd
  0
BLOCK
  5
2DCE
330
2DCD
100
AcDbEntity
  8
0
100
AcDbBlockBegin
  2
*D57
 70
     1
 10
0.0
 20
0.0
 30
0.0
  3
*D57
  1

  0
LINE
  5
1D9E
330
2DCD
100
AcDbEntity
  8
SIZE
 62
     0
100
AcDbLine
 10
-157.5
 20
20.0
 30
0.0
 11
-157.5
 21
245.5794621189598
 31
0.0
  0
LINE
  5
1D9F
330
2DCD
100
AcDbEntity
  8
SIZE
 62
     0
100
AcDbLine
 10
157.5
 20
20.0
 30
0.0
 11
157.5
 21
245.5794621189598
 31
0.0
  0
LINE
  5
1DA0
330
2DCD
100
AcDbEntity
  8
SIZE
 62
     0
100
AcDbLine
 10
-145.5
 20
225.5794621189598
 30
0.0
 11
145.5
 21
225.5794621189598
 31
0.0
  0
INSERT
  5
1DA1
330
2DCD
100
AcDbEntity
  8
SIZE
 62
     0
100
AcDbBlockReference
  2
_DOTBLANK
 10
-157.5
 20
225.5794621189598
 30
0.0
 41
12.0
 42
12.0
 43
12.0
 50
180.0
  0
INSERT
  5
1DA2
330
2DCD
100
AcDbEntity
  8
SIZE
 62
     0
100
AcDbBlockReference
  2
_DOTBLANK
 10
157.5
 20
225.5794621189598
 30
0.0
 41
12.0
 42
12.0
 43
12.0
  0
INSERT
  5
1DA3
330
2DCD
100
AcDbEntity
  8
0
100
AcDbBlockReference
  2
*U58
 10
0.0
 20
0.0
 30
0.0
  0
POINT
  5
1DA4
330
2DCD
100
AcDbEntity
  8
DEFPOINTS
 62
     0
100
AcDbPoint
 10
-157.5
 20
0.0
 30
0.0
  0
POINT
  5
1DA5
330
2DCD
100
AcDbEntity
  8
DEFPOINTS
 62
     0
100
AcDbPoint
 10
157.5
 20
0.0
 30
0.0
  0
POINT
  5
1DA6
330
2DCD
100
AcDbEntity
  8
DEFPOINTS
 62
     0
100
AcDbPoint
 10
157.5
 20
225.5794621189598
 30
0.0
  0
ENDBLK
  5
1761
330
2DCD
100
AcDbEntity
  8
0
100
AcDbBlockEnd
  0
BLOCK
  5
2DD0
330
2DCF
100
AcDbEntity
  8
0
100
AcDbBlockBegin
  2
*U58
 70
     1
 10
0.0
 20
0.0
 30
0.0
  3
*U58
  1

  0
TEXT
  5
1F3D
330
2DCF
100
AcDbEntity
  8
SIZE
 62
     0
100
AcDbText
 10
-68.57142857142857
 20
235.5794621189599
 30
0.0
 40
64.0
  1
315
 41
0.9
100
AcDbText
  0
ENDBLK
  5
1F3F
330
2DCF
100
AcDbEntity
  8
0
100
AcDbBlockEnd
  0
BLOCK
  5
2DD2
330
2DD1
100
AcDbEntity
  8
0
100
AcDbBlockBegin
  2
*D59
 70
     1
 10
0.0
 20
0.0
 30
0.0
  3
*D59
  1

  0
LINE
  5
1DA7
330
2DD1
100
AcDbEntity
  8
SIZE
 62
     0
100
AcDbLine
 10
-177.5
 20
0.0000000000000057
 30
0.0
 11
-314.0264221186908
 21
0.0000000000000443
 31
0.0
  0
LINE
  5
1DA8
330
2DD1
100
AcDbEntity
  8
SIZE
 62
     0
100
AcDbLine
 10
-177.5
 20
-7.999999999999993
 30
0.0
 11
-314.0264221186908
 21
-7.999999999999958
 31
0.0
  0
LINE
  5
1DA9
330
2DD1
100
AcDbEntity
  8
SIZE
 62
     0
100
AcDbLine
 10
-294.0264221186908
 20
12.00000000000003
 30
0.0
 11
-294.0264221186908
 21
24.00000000000004
 31
0.0
  0
LINE
  5
1DAA
330
2DD1
100
AcDbEntity
  8
SIZE
 62
     0
100
AcDbLine
 10
-294.0264221186908
 20
-19.99999999999996
 30
0.0
 11
-294.0264221186908
 21
-90.39999999999997
 31
0.0
  0
INSERT
  5
1DAB
330
2DD1
100
AcDbEntity
  8
SIZE
 62
     0
100
AcDbBlockReference
  2
_DOTBLANK
 10
-294.0264221186908
 20
0.0000000000000387
 30
0.0
 41
12.0
 42
12.0
 43
12.0
 50
270.0
  0
INSERT
  5
1DAC
330
2DD1
100
AcDbEntity
  8
SIZE
 62
     0
100
AcDbBlockReference
  2
_DOTBLANK
 10
-294.0264221186908
 20
-7.999999999999961
 30
0.0
 41
12.0
 42
12.0
 43
12.0
 50
90.0
  0
INSERT
  5
1DAD
330
2DD1
100
AcDbEntity
  8
0
100
AcDbBlockReference
  2
*U60
 10
0.0
 20
0.0
 30
0.0
  0
POINT
  5
1DAE
330
2DD1
100
AcDbEntity
  8
DEFPOINTS
 62
     0
100
AcDbPoint
 10
-157.5
 20
0.0
 30
0.0
  0
POINT
  5
1DAF
330
2DD1
100
AcDbEntity
  8
DEFPOINTS
 62
     0
100
AcDbPoint
 10
-157.5
 20
-8.000000000000003
 30
0.0
  0
POINT
  5
1DB0
330
2DD1
100
AcDbEntity
  8
DEFPOINTS
 62
     0
100
AcDbPoint
 10
-294.0264221186908
 20
-7.999999999999961
 30
0.0
  0
ENDBLK
  5
176D
330
2DD1
100
AcDbEntity
  8
0
100
AcDbBlockEnd
  0
BLOCK
  5
2DD4
330
2DD3
100
AcDbEntity
  8
0
100
AcDbBlockBegin
  2
*U60
 70
     1
 10
0.0
 20
0.0
 30
0.0
  3
*U60
  1

  0
TEXT
  5
1F41
330
2DD3
100
AcDbEntity
  8
SIZE
 62
     0
100
AcDbText
 10
-304.0264221186908
 20
-80.4
 30
0.0
 40
64.0
  1
8
 50
90.0
 41
0.9
100
AcDbText
  0
ENDBLK
  5
1F43
330
2DD3
100
AcDbEntity
  8
0
100
AcDbBlockEnd
  0
BLOCK
  5
2DD6
330
2DD5
100
AcDbEntity
  8
0
100
AcDbBlockBegin
  2
*D61
 70
     1
 10
0.0
 20
0.0
 30
0.0
  3
*D61
  1

  0
LINE
  5
1DB1
330
2DD5
100
AcDbEntity
  8
SIZE
 62
     0
100
AcDbLine
 10
154.5
 20
-300.0
 30
0.0
 11
304.6432844803785
 21
-300.0
 31
0.0
  0
LINE
  5
1DB2
330
2DD5
100
AcDbEntity
  8
SIZE
 62
     0
100
AcDbLine
 10
143.5
 20
-312.0
 30
0.0
 11
304.6432844803785
 21
-312.0
 31
0.0
  0
LINE
  5
1DB3
330
2DD5
100
AcDbEntity
  8
SIZE
 62
     0
100
AcDbLine
 10
284.6432844803785
 20
-288.0
 30
0.0
 11
284.6432844803785
 21
-276.0
 31
0.0
  0
LINE
  5
1DB4
330
2DD5
100
AcDbEntity
  8
SIZE
 62
     0
100
AcDbLine
 10
284.6432844803785
 20
-324.0000000000001
 30
0.0
 11
284.6432844803784
 21
-438.2857142857143
 31
0.0
  0
INSERT
  5
1DB5
330
2DD5
100
AcDbEntity
  8
SIZE
 62
     0
100
AcDbBlockReference
  2
_DOTBLANK
 10
284.6432844803785
 20
-300.0
 30
0.0
 41
12.0
 42
12.0
 43
12.0
 50
270.0
  0
INSERT
  5
1DB6
330
2DD5
100
AcDbEntity
  8
SIZE
 62
     0
100
AcDbBlockReference
  2
_DOTBLANK
 10
284.6432844803785
 20
-312.0
 30
0.0
 41
12.0
 42
12.0
 43
12.0
 50
90.0
  0
INSERT
  5
1DB7
330
2DD5
100
AcDbEntity
  8
0
100
AcDbBlockReference
  2
*U62
 10
0.0
 20
0.0
 30
0.0
  0
POINT
  5
1DB8
330
2DD5
100
AcDbEntity
  8
DEFPOINTS
 62
     0
100
AcDbPoint
 10
134.5
 20
-300.0
 30
0.0
  0
POINT
  5
1DB9
330
2DD5
100
AcDbEntity
  8
DEFPOINTS
 62
     0
100
AcDbPoint
 10
123.5
 20
-312.0
 30
0.0
  0
POINT
  5
1DBA
330
2DD5
100
AcDbEntity
  8
DEFPOINTS
 62
     0
100
AcDbPoint
 10
284.6432844803785
 20
-312.0
 30
0.0
  0
ENDBLK
  5
177B
330
2DD5
100
AcDbEntity
  8
0
100
AcDbBlockEnd
  0
BLOCK
  5
2DD8
330
2DD7
100
AcDbEntity
  8
0
100
AcDbBlockBegin
  2
*U62
 70
     1
 10
0.0
 20
0.0
 30
0.0
  3
*U62
  1

  0
TEXT
  5
1F45
330
2DD7
100
AcDbEntity
  8
SIZE
 62
     0
100
AcDbText
 10
274.6432844803785
 20
-428.2857142857142
 30
0.0
 40
64.0
  1
12
 50
90.0
 41
0.9
100
AcDbText
  0
ENDBLK
  5
1F47
330
2DD7
100
AcDbEntity
  8
0
100
AcDbBlockEnd
  0
BLOCK
  5
2DDA
330
2DD9
100
AcDbEntity
  8
0
100
AcDbBlockBegin
  2
*U63
 70
     1
 10
0.0
 20
0.0
 30
0.0
  3
*U63
  1

  0
ENDBLK
  5
1D57
330
2DD9
100
AcDbEntity
  8
0
100
AcDbBlockEnd
  0
BLOCK
  5
2DDC
330
2DDB
100
AcDbEntity
  8
0
100
AcDbBlockBegin
  2
*U64
 70
     1
 10
0.0
 20
0.0
 30
0.0
  3
*U64
  1

  0
INSERT
  5
2088
330
2DDB
100
AcDbEntity
  8
NOTE
100
AcDbBlockReference
  2
_OPEN30
 10
-140.0
 20
0.0
 30
0.0
 41
12.0
 42
12.0
 43
12.0
 50
312.6090116116894
  0
POLYLINE
  5
2089
330
2DDB
100
AcDbEntity
  8
NOTE
100
AcDb2dPolyline
 66
     1
 10
0.0
 20
0.0
 30
0.0
  0
VERTEX
  5
2124
330
2089
100
AcDbEntity
  8
NOTE
100
AcDbVertex
100
AcDb2dVertex
 10
-148.1239008361894
 20
8.831887408915472
 30
0.0
  0
VERTEX
  5
2125
330
2089
100
AcDbEntity
  8
NOTE
100
AcDbVertex
100
AcDb2dVertex
 10
-227.8693999922543
 20
95.52709505801338
 30
0.0
  0
VERTEX
  5
2126
330
2089
100
AcDbEntity
  8
NOTE
100
AcDbVertex
100
AcDb2dVertex
 10
-773.7093999922541
 20
95.52709505801338
 30
0.0
  0
SEQEND
  5
2127
330
2089
100
AcDbEntity
  8
NOTE
  0
ENDBLK
  5
208A
330
2DDB
100
AcDbEntity
  8
0
100
AcDbBlockEnd
  0
BLOCK
  5
2DDE
330
2DDD
100
AcDbEntity
  8
0
100
AcDbBlockBegin
  2
*U65
 70
     1
 10
0.0
 20
0.0
 30
0.0
  3
*U65
  1

  0
TEXT
  5
208D
330
2DDD
100
AcDbEntity
  8
NOTE
100
AcDbText
 10
-773.7093999922541
 20
113.5270950580134
 30
0.0
 40
64.0
  1
4×φ10取付穴
 41
0.9
100
AcDbText
  0
ENDBLK
  5
208E
330
2DDD
100
AcDbEntity
  8
0
100
AcDbBlockEnd
  0
BLOCK
  5
2DE0
330
2DDF
100
AcDbEntity
  8
0
100
AcDbBlockBegin
  2
*U66
 70
     1
 10
0.0
 20
0.0
 30
0.0
  3
*U66
  1

  0
INSERT
  5
25A0
330
2DDF
100
AcDbEntity
  8
NOTE
100
AcDbBlockReference
  2
_OPEN30
 10
-400.0
 20
0.0
 30
0.0
 41
12.0
 42
12.0
 43
12.0
 50
312.6090116116894
  0
POLYLINE
  5
25A1
330
2DDF
100
AcDbEntity
  8
NOTE
100
AcDb2dPolyline
 66
     1
 10
0.0
 20
0.0
 30
0.0
  0
VERTEX
  5
25A2
330
25A1
100
AcDbEntity
  8
NOTE
100
AcDbVertex
100
AcDb2dVertex
 10
-408.1239008361895
 20
8.831887408915472
 30
0.0
  0
VERTEX
  5
25A3
330
25A1
100
AcDbEntity
  8
NOTE
100
AcDbVertex
100
AcDb2dVertex
 10
-487.8693999922543
 20
95.52709505801338
 30
0.0
  0
VERTEX
  5
25A4
330
25A1
100
AcDbEntity
  8
NOTE
100
AcDbVertex
100
AcDb2dVertex
 10
-1077.595114277968
 20
95.52709505801338
 30
0.0
  0
SEQEND
  5
25A5
330
25A1
100
AcDbEntity
  8
NOTE
  0
ENDBLK
  5
25A6
330
2DDF
100
AcDbEntity
  8
0
100
AcDbBlockEnd
  0
BLOCK
  5
2DE2
330
2DE1
100
AcDbEntity
  8
0
100
AcDbBlockBegin
  2
*U67
 70
     1
 10
0.0
 20
0.0
 30
0.0
  3
*U67
  1

  0
TEXT
  5
25A9
330
2DE1
100
AcDbEntity
  8
NOTE
100
AcDbText
 10
-1077.595114277968
 20
113.5270950580134
 30
0.0
 40
64.0
  1
10×φ15取付穴
 41
0.9
100
AcDbText
  0
ENDBLK
  5
25AA
330
2DE1
100
AcDbEntity
  8
0
100
AcDbBlockEnd
  0
BLOCK
  5
2DE4
330
2DE3
100
AcDbEntity
  8
0
100
AcDbBlockBegin
  2
*X68
 70
     1
 10
0.0
 20
0.0
 30
0.0
  3
*X68
  1

  0
LINE
  5
25AD
330
2DE3
100
AcDbEntity
  8
0
 62
     0
100
AcDbLine
 10
358.8855265434232
 20
-681.0000000000027
 30
0.0
 11
361.4999999999927
 21
-679.2570221463711
 31
0.0
  0
LINE
  5
25AE
330
2DE3
100
AcDbEntity
  8
0
 62
     0
100
AcDbLine
 10
354.3855652495404
 20
-681.0000000000016
 30
0.0
 11
361.4999999999946
 21
-676.2570556109549
 31
0.0
  0
LINE
  5
25AF
330
2DE3
100
AcDbEntity
  8
0
 62
     0
100
AcDbLine
 10
349.8856039556522
 20
-681.0000000000027
 30
0.0
 11
361.4999999999946
 21
-673.2570890755368
 31
0.0
  0
LINE
  5
25B0
330
2DE3
100
AcDbEntity
  8
0
 62
     0
100
AcDbLine
 10
345.3856426617676
 20
-681.0000000000016
 30
0.0
 11
361.4999999999946
 21
-670.2571225401205
 31
0.0
  0
LINE
  5
25B1
330
2DE3
100
AcDbEntity
  8
0
 62
     0
100
AcDbLine
 10
340.8856813678813
 20
-681.0000000000027
 30
0.0
 11
361.4999999999946
 21
-667.2571560047042
 31
0.0
  0
LINE
  5
25B2
330
2DE3
100
AcDbEntity
  8
0
 62
     0
100
AcDbLine
 10
336.3857200739949
 20
-681.0000000000036
 30
0.0
 11
361.4999999999946
 21
-664.2571894692902
 31
0.0
  0
LINE
  5
25B3
330
2DE3
100
AcDbEntity
  8
0
 62
     0
100
AcDbLine
 10
331.8857587801102
 20
-681.0000000000027
 30
0.0
 11
361.4999999999946
 21
-661.2572229338739
 31
0.0
  0
LINE
  5
25B4
330
2DE3
100
AcDbEntity
  8
0
 62
     0
100
AcDbLine
 10
327.385797486224
 20
-681.0000000000036
 30
0.0
 11
361.4999999999946
 21
-658.2572563984577
 31
0.0
  0
LINE
  5
25B5
330
2DE3
100
AcDbEntity
  8
0
 62
     0
100
AcDbLine
 10
322.8858361923376
 20
-681.0000000000016
 30
0.0
 11
361.4999999999927
 21
-655.2572898630404
 31
0.0
  0
LINE
  5
25B6
330
2DE3
100
AcDbEntity
  8
0
 62
     0
100
AcDbLine
 10
318.3858748984529
 20
-681.0000000000036
 30
0.0
 11
361.4999999999946
 21
-652.2573233276252
 31
0.0
  0
LINE
  5
25B7
330
2DE3
100
AcDbEntity
  8
0
 62
     0
100
AcDbLine
 10
313.8859136045668
 20
-681.0000000000016
 30
0.0
 11
361.4999999999927
 21
-649.257356792208
 31
0.0
  0
LINE
  5
25B8
330
2DE3
100
AcDbEntity
  8
0
 62
     0
100
AcDbLine
 10
309.3859523106839
 20
-681.0000000000036
 30
0.0
 11
361.4999999999964
 21
-646.2573902567927
 31
0.0
  0
LINE
  5
25B9
330
2DE3
100
AcDbEntity
  8
0
 62
     0
100
AcDbLine
 10
304.8859910167976
 20
-681.0000000000016
 30
0.0
 11
361.4999999999946
 21
-643.2574237213756
 31
0.0
  0
LINE
  5
25BA
330
2DE3
100
AcDbEntity
  8
0
 62
     0
100
AcDbLine
 10
300.3860297229112
 20
-681.0000000000036
 30
0.0
 11
361.4999999999946
 21
-640.2574571859604
 31
0.0
  0
LINE
  5
25BB
330
2DE3
100
AcDbEntity
  8
0
 62
     0
100
AcDbLine
 10
295.8860684290266
 20
-681.0000000000036
 30
0.0
 11
361.4999999999946
 21
-637.2574906505432
 31
0.0
  0
LINE
  5
25BC
330
2DE3
100
AcDbEntity
  8
0
 62
     0
100
AcDbLine
 10
291.3861071351403
 20
-681.0000000000027
 30
0.0
 11
361.4999999999946
 21
-634.2575241151271
 31
0.0
  0
LINE
  5
25BD
330
2DE3
100
AcDbEntity
  8
0
 62
     0
100
AcDbLine
 10
286.8861458412557
 20
-681.0000000000036
 30
0.0
 11
361.4999999999946
 21
-631.2575575797108
 31
0.0
  0
LINE
  5
25BE
330
2DE3
100
AcDbEntity
  8
0
 62
     0
100
AcDbLine
 10
282.3861845473692
 20
-681.0000000000027
 30
0.0
 11
361.4999999999946
 21
-628.2575910442947
 31
0.0
  0
LINE
  5
25BF
330
2DE3
100
AcDbEntity
  8
0
 62
     0
100
AcDbLine
 10
277.8862232534848
 20
-681.0000000000036
 30
0.0
 11
361.4999999999946
 21
-625.2576245088785
 31
0.0
  0
LINE
  5
25C0
330
2DE3
100
AcDbEntity
  8
0
 62
     0
100
AcDbLine
 10
273.3862619595984
 20
-681.0000000000027
 30
0.0
 11
361.4999999999927
 21
-622.2576579734622
 31
0.0
  0
LINE
  5
25C1
330
2DE3
100
AcDbEntity
  8
0
 62
     0
100
AcDbLine
 10
268.8863006657121
 20
-681.0000000000036
 30
0.0
 11
361.4999999999946
 21
-619.257691438046
 31
0.0
  0
LINE
  5
25C2
330
2DE3
100
AcDbEntity
  8
0
 62
     0
100
AcDbLine
 10
264.3863393718275
 20
-681.0000000000016
 30
0.0
 11
361.4999999999946
 21
-616.257724902629
 31
0.0
  0
LINE
  5
25C3
330
2DE3
100
AcDbEntity
  8
0
 62
     0
100
AcDbLine
 10
259.8863780779411
 20
-681.0000000000036
 30
0.0
 11
361.4999999999946
 21
-613.2577583672135
 31
0.0
  0
LINE
  5
25C4
330
2DE3
100
AcDbEntity
  8
0
 62
     0
100
AcDbLine
 10
255.3864167840565
 20
-681.0000000000016
 30
0.0
 11
361.4999999999946
 21
-610.2577918317964
 31
0.0
  0
LINE
  5
25C5
330
2DE3
100
AcDbEntity
  8
0
 62
     0
100
AcDbLine
 10
250.8864554901702
 20
-681.0000000000036
 30
0.0
 11
361.4999999999946
 21
-607.2578252963812
 31
0.0
  0
LINE
  5
25C6
330
2DE3
100
AcDbEntity
  8
0
 62
     0
100
AcDbLine
 10
246.3864941962857
 20
-681.0000000000016
 30
0.0
 11
361.4999999999946
 21
-604.2578587609641
 31
0.0
  0
LINE
  5
25C7
330
2DE3
100
AcDbEntity
  8
0
 62
     0
100
AcDbLine
 10
241.8865329023993
 20
-681.0000000000036
 30
0.0
 11
361.4999999999946
 21
-601.2578922255506
 31
0.0
  0
LINE
  5
25C8
330
2DE3
100
AcDbEntity
  8
0
 62
     0
100
AcDbLine
 10
237.3865716085129
 20
-681.0000000000016
 30
0.0
 11
361.4999999999927
 21
-598.2579256901336
 31
0.0
  0
LINE
  5
25C9
330
2DE3
100
AcDbEntity
  8
0
 62
     0
100
AcDbLine
 10
232.8866103146302
 20
-681.0000000000027
 30
0.0
 11
361.4999999999946
 21
-595.2579591547173
 31
0.0
  0
LINE
  5
25CA
330
2DE3
100
AcDbEntity
  8
0
 62
     0
100
AcDbLine
 10
228.386649020742
 20
-681.0000000000036
 30
0.0
 11
361.4999999999946
 21
-592.2579926192992
 31
0.0
  0
LINE
  5
25CB
330
2DE3
100
AcDbEntity
  8
0
 62
     0
100
AcDbLine
 10
223.8866877268574
 20
-681.0000000000027
 30
0.0
 11
361.4999999999946
 21
-589.2580260838831
 31
0.0
  0
LINE
  5
25CC
330
2DE3
100
AcDbEntity
  8
0
 62
     0
100
AcDbLine
 10
219.3867264329711
 20
-681.0000000000036
 30
0.0
 11
361.4999999999946
 21
-586.2580595484669
 31
0.0
  0
LINE
  5
25CD
330
2DE3
100
AcDbEntity
  8
0
 62
     0
100
AcDbLine
 10
214.8867651390865
 20
-681.0000000000027
 30
0.0
 11
361.4999999999946
 21
-583.2580930130525
 31
0.0
  0
LINE
  5
25CE
330
2DE3
100
AcDbEntity
  8
0
 62
     0
100
AcDbLine
 10
210.3868038452001
 20
-681.0000000000036
 30
0.0
 11
361.4999999999946
 21
-580.2581264776363
 31
0.0
  0
LINE
  5
25CF
330
2DE3
100
AcDbEntity
  8
0
 62
     0
100
AcDbLine
 10
205.8868425513137
 20
-681.0000000000036
 30
0.0
 11
361.4999999999946
 21
-577.2581599422192
 31
0.0
  0
LINE
  5
25D0
330
2DE3
100
AcDbEntity
  8
0
 62
     0
100
AcDbLine
 10
201.3868812574292
 20
-681.0000000000036
 30
0.0
 11
361.4999999999946
 21
-574.2581934068039
 31
0.0
  0
LINE
  5
25D1
330
2DE3
100
AcDbEntity
  8
0
 62
     0
100
AcDbLine
 10
196.8869199635446
 20
-681.0000000000016
 30
0.0
 11
361.4999999999946
 21
-571.2582268713864
 31
0.0
  0
LINE
  5
25D2
330
2DE3
100
AcDbEntity
  8
0
 62
     0
100
AcDbLine
 10
192.3869586696582
 20
-681.0000000000016
 30
0.0
 11
361.4999999999927
 21
-568.2582603359715
 31
0.0
  0
LINE
  5
25D3
330
2DE3
100
AcDbEntity
  8
0
 62
     0
100
AcDbLine
 10
187.8869973757737
 20
-681.0000000000016
 30
0.0
 11
361.4999999999946
 21
-565.2582938005544
 31
0.0
  0
LINE
  5
25D4
330
2DE3
100
AcDbEntity
  8
0
 62
     0
100
AcDbLine
 10
183.3870360818873
 20
-681.0000000000036
 30
0.0
 11
361.4999999999946
 21
-562.258327265139
 31
0.0
  0
LINE
  5
25D5
330
2DE3
100
AcDbEntity
  8
0
 62
     0
100
AcDbLine
 10
178.8870747880028
 20
-681.0000000000016
 30
0.0
 11
361.4999999999946
 21
-559.2583607297219
 31
0.0
  0
LINE
  5
25D6
330
2DE3
100
AcDbEntity
  8
0
 62
     0
100
AcDbLine
 10
174.3871134941164
 20
-681.0000000000027
 30
0.0
 11
361.4999999999946
 21
-556.2583941943057
 31
0.0
  0
LINE
  5
25D7
330
2DE3
100
AcDbEntity
  8
0
 62
     0
100
AcDbLine
 10
169.8871522002318
 20
-681.0000000000016
 30
0.0
 11
361.4999999999946
 21
-553.2584276588894
 31
0.0
  0
LINE
  5
25D8
330
2DE3
100
AcDbEntity
  8
0
 62
     0
100
AcDbLine
 10
165.3871909063455
 20
-681.0000000000027
 30
0.0
 11
361.4999999999946
 21
-550.2584611234733
 31
0.0
  0
LINE
  5
25D9
330
2DE3
100
AcDbEntity
  8
0
 62
     0
100
AcDbLine
 10
160.8872296124591
 20
-681.0000000000036
 30
0.0
 11
361.4999999999927
 21
-547.2584945880571
 31
0.0
  0
LINE
  5
25DA
330
2DE3
100
AcDbEntity
  8
0
 62
     0
100
AcDbLine
 10
156.3872683185727
 20
-681.0000000000027
 30
0.0
 11
361.4999999999964
 21
-544.2585280526409
 31
0.0
  0
LINE
  5
25DB
330
2DE3
100
AcDbEntity
  8
0
 62
     0
100
AcDbLine
 10
151.8873070246882
 20
-681.0000000000036
 30
0.0
 11
361.4999999999927
 21
-541.2585615172247
 31
0.0
  0
LINE
  5
25DC
330
2DE3
100
AcDbEntity
  8
0
 62
     0
100
AcDbLine
 10
147.3873457308018
 20
-681.0000000000036
 30
0.0
 11
361.4999999999964
 21
-538.2585949818076
 31
0.0
  0
LINE
  5
25DD
330
2DE3
100
AcDbEntity
  8
0
 62
     0
100
AcDbLine
 10
142.8873844369173
 20
-681.0000000000036
 30
0.0
 11
361.4999999999927
 21
-535.2586284463939
 31
0.0
  0
LINE
  5
25DE
330
2DE3
100
AcDbEntity
  8
0
 62
     0
100
AcDbLine
 10
138.3874231430309
 20
-681.0000000000016
 30
0.0
 11
361.4999999999946
 21
-532.2586619109752
 31
0.0
  0
LINE
  5
25DF
330
2DE3
100
AcDbEntity
  8
0
 62
     0
100
AcDbLine
 10
133.8874618491481
 20
-681.0000000000016
 30
0.0
 11
361.4999999999946
 21
-529.2586953755598
 31
0.0
  0
LINE
  5
25E0
330
2DE3
100
AcDbEntity
  8
0
 62
     0
100
AcDbLine
 10
129.38750055526
 20
-681.0000000000016
 30
0.0
 11
361.4999999999946
 21
-526.2587288401426
 31
0.0
  0
LINE
  5
25E1
330
2DE3
100
AcDbEntity
  8
0
 62
     0
100
AcDbLine
 10
124.8875392613772
 20
-681.0000000000016
 30
0.0
 11
361.4999999999946
 21
-523.2587623047292
 31
0.0
  0
LINE
  5
25E2
330
2DE3
100
AcDbEntity
  8
0
 62
     0
100
AcDbLine
 10
120.387577967489
 20
-681.0000000000016
 30
0.0
 11
361.4999999999946
 21
-520.2587957693122
 31
0.0
  0
LINE
  5
25E3
330
2DE3
100
AcDbEntity
  8
0
 62
     0
100
AcDbLine
 10
115.8876166736027
 20
-681.0000000000027
 30
0.0
 11
361.4999999999927
 21
-517.258829233896
 31
0.0
  0
LINE
  5
25E4
330
2DE3
100
AcDbEntity
  8
0
 62
     0
100
AcDbLine
 10
111.3876553797181
 20
-681.0000000000016
 30
0.0
 11
361.4999999999946
 21
-514.2588626984798
 31
0.0
  0
LINE
  5
25E5
330
2DE3
100
AcDbEntity
  8
0
 62
     0
100
AcDbLine
 10
106.8876940858317
 20
-681.0000000000027
 30
0.0
 11
361.4999999999927
 21
-511.2588961630636
 31
0.0
  0
LINE
  5
25E6
330
2DE3
100
AcDbEntity
  8
0
 62
     0
100
AcDbLine
 10
102.3877327919472
 20
-681.0000000000036
 30
0.0
 11
361.4999999999946
 21
-508.2589296276474
 31
0.0
  0
LINE
  5
25E7
330
2DE3
100
AcDbEntity
  8
0
 62
     0
100
AcDbLine
 10
97.88777149806085
 20
-681.0000000000027
 30
0.0
 11
361.4999999999946
 21
-505.2589630922311
 31
0.0
  0
LINE
  5
25E8
330
2DE3
100
AcDbEntity
  8
0
 62
     0
100
AcDbLine
 10
93.38781020417627
 20
-681.0000000000036
 30
0.0
 11
361.4999999999946
 21
-502.2589965568148
 31
0.0
  0
LINE
  5
25E9
330
2DE3
100
AcDbEntity
  8
0
 62
     0
100
AcDbLine
 10
88.8878489102899
 20
-681.0000000000016
 30
0.0
 11
361.4999999999946
 21
-499.2590300213977
 31
0.0
  0
LINE
  5
25EA
330
2DE3
100
AcDbEntity
  8
0
 62
     0
100
AcDbLine
 10
84.38788761640354
 20
-681.0000000000036
 30
0.0
 11
361.4999999999927
 21
-496.2590634859822
 31
0.0
  0
LINE
  5
25EB
330
2DE3
100
AcDbEntity
  8
0
 62
     0
100
AcDbLine
 10
79.8879263225208
 20
-681.0000000000016
 30
0.0
 11
361.4999999999946
 21
-493.2590969505652
 31
0.0
  0
LINE
  5
25EC
330
2DE3
100
AcDbEntity
  8
0
 62
     0
100
AcDbLine
 10
75.3879650286326
 20
-681.0000000000036
 30
0.0
 11
361.4999999999927
 21
-490.2591304151498
 31
0.0
  0
LINE
  5
25ED
330
2DE3
100
AcDbEntity
  8
0
 62
     0
100
AcDbLine
 10
70.88800373474987
 20
-681.0000000000016
 30
0.0
 11
361.4999999999946
 21
-487.2591638797329
 31
0.0
  0
LINE
  5
25EE
330
2DE3
100
AcDbEntity
  8
0
 62
     0
100
AcDbLine
 10
66.38804244086168
 20
-681.0000000000036
 30
0.0
 11
361.4999999999946
 21
-484.2591973443177
 31
0.0
  0
LINE
  5
25EF
330
2DE3
100
AcDbEntity
  8
0
 62
     0
100
AcDbLine
 10
61.88808114697895
 20
-681.0000000000016
 30
0.0
 11
361.4999999999946
 21
-481.2592308089006
 31
0.0
  0
LINE
  5
25F0
330
2DE3
100
AcDbEntity
  8
0
 62
     0
100
AcDbLine
 10
57.38811985309076
 20
-681.0000000000027
 30
0.0
 11
361.4999999999946
 21
-478.2592642734843
 31
0.0
  0
LINE
  5
25F1
330
2DE3
100
AcDbEntity
  8
0
 62
     0
100
AcDbLine
 10
52.88815855920621
 20
-681.0000000000016
 30
0.0
 11
361.4999999999946
 21
-475.2592977380681
 31
0.0
  0
LINE
  5
25F2
330
2DE3
100
AcDbEntity
  8
0
 62
     0
100
AcDbLine
 10
48.38819726531983
 20
-681.0000000000027
 30
0.0
 11
361.4999999999946
 21
-472.2593312026519
 31
0.0
  0
LINE
  5
25F3
330
2DE3
100
AcDbEntity
  8
0
 62
     0
100
AcDbLine
 10
43.88823597143526
 20
-681.0000000000016
 30
0.0
 11
361.4999999999927
 21
-469.2593646672376
 31
0.0
  0
LINE
  5
25F4
330
2DE3
100
AcDbEntity
  8
0
 62
     0
100
AcDbLine
 10
39.38827467754709
 20
-681.0000000000027
 30
0.0
 11
361.4999999999909
 21
-466.2593981318212
 31
0.0
  0
LINE
  5
25F5
330
2DE3
100
AcDbEntity
  8
0
 62
     0
100
AcDbLine
 10
34.88831338366435
 20
-681.0000000000036
 30
0.0
 11
361.4999999999927
 21
-463.2594315964052
 31
0.0
  0
LINE
  5
25F6
330
2DE3
100
AcDbEntity
  8
0
 62
     0
100
AcDbLine
 10
30.38835208977616
 20
-681.0000000000016
 30
0.0
 11
361.4999999999909
 21
-460.259465060988
 31
0.0
  0
LINE
  5
25F7
330
2DE3
100
AcDbEntity
  8
0
 62
     0
100
AcDbLine
 10
25.88839079589343
 20
-681.0000000000036
 30
0.0
 11
361.4999999999927
 21
-457.2594985255728
 31
0.0
  0
LINE
  5
25F8
330
2DE3
100
AcDbEntity
  8
0
 62
     0
100
AcDbLine
 10
21.38842950200706
 20
-681.0000000000016
 30
0.0
 11
361.4999999999927
 21
-454.2595319901557
 31
0.0
  0
LINE
  5
25F9
330
2DE3
100
AcDbEntity
  8
0
 62
     0
100
AcDbLine
 10
16.8884682081225
 20
-681.0000000000036
 30
0.0
 11
361.4999999999946
 21
-451.2595654547403
 31
0.0
  0
LINE
  5
25FA
330
2DE3
100
AcDbEntity
  8
0
 62
     0
100
AcDbLine
 10
12.38850691423613
 20
-681.0000000000016
 30
0.0
 11
361.4999999999927
 21
-448.2595989193232
 31
0.0
  0
LINE
  5
25FB
330
2DE3
100
AcDbEntity
  8
0
 62
     0
100
AcDbLine
 10
7.888545620349759
 20
-681.0000000000036
 30
0.0
 11
361.4999999999909
 21
-445.2596323839077
 31
0.0
  0
LINE
  5
25FC
330
2DE3
100
AcDbEntity
  8
0
 62
     0
100
AcDbLine
 10
3.388584326465203
 20
-681.0000000000016
 30
0.0
 11
361.4999999999927
 21
-442.2596658484908
 31
0.0
  0
LINE
  5
25FD
330
2DE3
100
AcDbEntity
  8
0
 62
     0
100
AcDbLine
 10
-1.111376967419346
 20
-681.0000000000008
 30
0.0
 11
361.4999999999909
 21
-439.2596993130744
 31
0.0
  0
LINE
  5
25FE
330
2DE3
100
AcDbEntity
  8
0
 62
     0
100
AcDbLine
 10
-5.611338261305718
 20
-681.0000000000016
 30
0.0
 11
361.4999999999927
 21
-436.2597327776581
 31
0.0
  0
LINE
  5
25FF
330
2DE3
100
AcDbEntity
  8
0
 62
     0
100
AcDbLine
 10
-10.11129955519209
 20
-681.0000000000027
 30
0.0
 11
361.4999999999909
 21
-433.2597662422422
 31
0.0
  0
LINE
  5
2600
330
2DE3
100
AcDbEntity
  8
0
 62
     0
100
AcDbLine
 10
-14.61126084907664
 20
-681.0000000000036
 30
0.0
 11
361.4999999999927
 21
-430.2597997068278
 31
0.0
  0
LINE
  5
2601
330
2DE3
100
AcDbEntity
  8
0
 62
     0
100
AcDbLine
 10
-19.11122214296117
 20
-681.0000000000027
 30
0.0
 11
361.4999999999927
 21
-427.2598331714097
 31
0.0
  0
LINE
  5
2602
330
2DE3
100
AcDbEntity
  8
0
 62
     0
100
AcDbLine
 10
-23.61118343684939
 20
-681.0000000000016
 30
0.0
 11
361.4999999999927
 21
-424.2598666359937
 31
0.0
  0
LINE
  5
2603
330
2DE3
100
AcDbEntity
  8
0
 62
     0
100
AcDbLine
 10
-28.11114473073395
 20
-681.0000000000027
 30
0.0
 11
361.4999999999927
 21
-421.2599001005774
 31
0.0
  0
LINE
  5
2604
330
2DE3
100
AcDbEntity
  8
0
 62
     0
100
AcDbLine
 10
-32.6111060246185
 20
-681.0000000000016
 30
0.0
 11
361.4999999999927
 21
-418.2599335651612
 31
0.0
  0
LINE
  5
2605
330
2DE3
100
AcDbEntity
  8
0
 62
     0
100
AcDbLine
 10
-37.11106731850306
 20
-681.0000000000016
 30
0.0
 11
361.4999999999927
 21
-415.259967029744
 31
0.0
  0
LINE
  5
2606
330
2DE3
100
AcDbEntity
  8
0
 62
     0
100
AcDbLine
 10
-41.61102861239124
 20
-681.0000000000036
 30
0.0
 11
361.4999999999927
 21
-412.2600004943306
 31
0.0
  0
LINE
  5
2607
330
2DE3
100
AcDbEntity
  8
0
 62
     0
100
AcDbLine
 10
-46.11098990627396
 20
-681.0
 30
0.0
 11
361.4999999999909
 21
-409.2600339589134
 31
0.0
  0
LINE
  5
2608
330
2DE3
100
AcDbEntity
  8
0
 62
     0
100
AcDbLine
 10
-50.61095120016034
 20
-681.0000000000016
 30
0.0
 11
361.4999999999927
 21
-406.260067423498
 31
0.0
  0
LINE
  5
2609
330
2DE3
100
AcDbEntity
  8
0
 62
     0
100
AcDbLine
 10
-55.11091249404671
 20
-681.0000000000016
 30
0.0
 11
361.4999999999909
 21
-403.2601008880808
 31
0.0
  0
LINE
  5
260A
330
2DE3
100
AcDbEntity
  8
0
 62
     0
100
AcDbLine
 10
-59.61087378793127
 20
-681.0000000000027
 30
0.0
 11
361.4999999999927
 21
-400.2601343526648
 31
0.0
  0
LINE
  5
260B
330
2DE3
100
AcDbEntity
  8
0
 62
     0
100
AcDbLine
 10
-64.11083508181945
 20
-681.0000000000036
 30
0.0
 11
361.4999999999909
 21
-397.2601678172488
 31
0.0
  0
LINE
  5
260C
330
2DE3
100
AcDbEntity
  8
0
 62
     0
100
AcDbLine
 10
-68.61079637570401
 20
-681.0000000000008
 30
0.0
 11
361.4999999999927
 21
-394.2602012818325
 31
0.0
  0
LINE
  5
260D
330
2DE3
100
AcDbEntity
  8
0
 62
     0
100
AcDbLine
 10
-73.11075766958857
 20
-681.0000000000016
 30
0.0
 11
361.4999999999909
 21
-391.2602347464162
 31
0.0
  0
LINE
  5
260E
330
2DE3
100
AcDbEntity
  8
0
 62
     0
100
AcDbLine
 10
-77.61071896347494
 20
-681.0000000000027
 30
0.0
 11
361.4999999999927
 21
-388.260268211
 31
0.0
  0
LINE
  5
260F
330
2DE3
100
AcDbEntity
  8
0
 62
     0
100
AcDbLine
 10
-82.1106802573613
 20
-681.0000000000036
 30
0.0
 11
361.4999999999927
 21
-385.2603016755837
 31
0.0
  0
LINE
  5
2610
330
2DE3
100
AcDbEntity
  8
0
 62
     0
100
AcDbLine
 10
-86.61064155124586
 20
-681.0000000000027
 30
0.0
 11
361.4999999999909
 21
-382.2603351401676
 31
0.0
  0
LINE
  5
2611
330
2DE3
100
AcDbEntity
  8
0
 62
     0
100
AcDbLine
 10
-91.1106028451304
 20
-681.0000000000016
 30
0.0
 11
361.4999999999927
 21
-379.2603686047514
 31
0.0
  0
LINE
  5
2612
330
2DE3
100
AcDbEntity
  8
0
 62
     0
100
AcDbLine
 10
-95.61056413901679
 20
-681.0000000000016
 30
0.0
 11
361.4999999999909
 21
-376.2604020693343
 31
0.0
  0
LINE
  5
2613
330
2DE3
100
AcDbEntity
  8
0
 62
     0
100
AcDbLine
 10
-100.1105254329013
 20
-681.0000000000016
 30
0.0
 11
361.4999999999909
 21
-373.2604355339191
 31
0.0
  0
LINE
  5
2614
330
2DE3
100
AcDbEntity
  8
0
 62
     0
100
AcDbLine
 10
-104.6104867267877
 20
-681.0000000000016
 30
0.0
 11
361.4999999999909
 21
-370.2604689985017
 31
0.0
  0
LINE
  5
2615
330
2DE3
100
AcDbEntity
  8
0
 62
     0
100
AcDbLine
 10
-109.1104480206741
 20
-681.0000000000036
 30
0.0
 11
361.4999999999927
 21
-367.2605024630868
 31
0.0
  0
LINE
  5
2616
330
2DE3
100
AcDbEntity
  8
0
 62
     0
100
AcDbLine
 10
-113.6104093145586
 20
-681.0000000000036
 30
0.0
 11
361.4999999999927
 21
-364.2605359276696
 31
0.0
  0
LINE
  5
2617
330
2DE3
100
AcDbEntity
  8
0
 62
     0
100
AcDbLine
 10
-118.1103706084432
 20
-681.0000000000016
 30
0.0
 11
361.4999999999927
 21
-361.2605693922542
 31
0.0
  0
LINE
  5
2618
330
2DE3
100
AcDbEntity
  8
0
 62
     0
100
AcDbLine
 10
-122.6103319023277
 20
-681.0000000000016
 30
0.0
 11
361.4999999999927
 21
-358.2606028568372
 31
0.0
  0
LINE
  5
2619
330
2DE3
100
AcDbEntity
  8
0
 62
     0
100
AcDbLine
 10
-127.1102931962159
 20
-681.0000000000027
 30
0.0
 11
361.4999999999927
 21
-355.2606363214209
 31
0.0
  0
LINE
  5
261A
330
2DE3
100
AcDbEntity
  8
0
 62
     0
100
AcDbLine
 10
-131.6102544901023
 20
-681.0000000000036
 30
0.0
 11
361.4999999999909
 21
-352.2606697860047
 31
0.0
  0
LINE
  5
261B
330
2DE3
100
AcDbEntity
  8
0
 62
     0
100
AcDbLine
 10
-136.110215783985
 20
-681.0000000000008
 30
0.0
 11
361.4999999999927
 21
-349.2607032505903
 31
0.0
  0
LINE
  5
261C
330
2DE3
100
AcDbEntity
  8
0
 62
     0
100
AcDbLine
 10
-140.6101770778714
 20
-681.0000000000016
 30
0.0
 11
361.4999999999909
 21
-346.260736715174
 31
0.0
  0
LINE
  5
261D
330
2DE3
100
AcDbEntity
  8
0
 62
     0
100
AcDbLine
 10
-145.1101383717594
 20
-681.0000000000027
 30
0.0
 11
361.4999999999909
 21
-343.2607701797579
 31
0.0
  0
LINE
  5
261E
330
2DE3
100
AcDbEntity
  8
0
 62
     0
100
AcDbLine
 10
-149.6100996656441
 20
-681.0000000000036
 30
0.0
 11
361.4999999999927
 21
-340.2608036443398
 31
0.0
  0
LINE
  5
261F
330
2DE3
100
AcDbEntity
  8
0
 62
     0
100
AcDbLine
 10
-154.1100609595287
 20
-681.0000000000016
 30
0.0
 11
361.4999999999927
 21
-337.2608371089228
 31
0.0
  0
LINE
  5
2620
330
2DE3
100
AcDbEntity
  8
0
 62
     0
100
AcDbLine
 10
-158.6100222534132
 20
-681.0000000000036
 30
0.0
 11
361.4999999999927
 21
-334.2608705735092
 31
0.0
  0
LINE
  5
2621
330
2DE3
100
AcDbEntity
  8
0
 62
     0
100
AcDbLine
 10
-163.1099835473014
 20
-681.0000000000016
 30
0.0
 11
361.4999999999927
 21
-331.260904038092
 31
0.0
  0
LINE
  5
2622
330
2DE3
100
AcDbEntity
  8
0
 62
     0
100
AcDbLine
 10
-167.6099448411842
 20
-681.0000000000016
 30
0.0
 11
361.4999999999927
 21
-328.2609375026768
 31
0.0
  0
LINE
  5
2623
330
2DE3
100
AcDbEntity
  8
0
 62
     0
100
AcDbLine
 10
-172.1099061350705
 20
-681.0000000000016
 30
0.0
 11
361.4999999999909
 21
-325.2609709672597
 31
0.0
  0
LINE
  5
2624
330
2DE3
100
AcDbEntity
  8
0
 62
     0
100
AcDbLine
 10
-176.6098674289569
 20
-681.0000000000036
 30
0.0
 11
361.4999999999909
 21
-322.2610044318444
 31
0.0
  0
LINE
  5
2625
330
2DE3
100
AcDbEntity
  8
0
 62
     0
100
AcDbLine
 10
-181.1098287228433
 20
-681.0000000000036
 30
0.0
 11
361.4999999999909
 21
-319.2610378964273
 31
0.0
  0
LINE
  5
2626
330
2DE3
100
AcDbEntity
  8
0
 62
     0
100
AcDbLine
 10
-185.609790016726
 20
-681.0000000000008
 30
0.0
 11
361.4999999999909
 21
-316.2610713610109
 31
0.0
  0
LINE
  5
2627
330
2DE3
100
AcDbEntity
  8
0
 62
     0
100
AcDbLine
 10
-190.1097513106124
 20
-681.0000000000016
 30
0.0
 11
361.4999999999927
 21
-313.2611048255949
 31
0.0
  0
LINE
  5
2628
330
2DE3
100
AcDbEntity
  8
0
 62
     0
100
AcDbLine
 10
-194.6097126044988
 20
-681.0000000000027
 30
0.0
 11
361.4999999999927
 21
-310.2611382901787
 31
0.0
  0
LINE
  5
2629
330
2DE3
100
AcDbEntity
  8
0
 62
     0
100
AcDbLine
 10
-199.1096738983851
 20
-681.0000000000036
 30
0.0
 11
361.4999999999927
 21
-307.2611717547625
 31
0.0
  0
LINE
  5
262A
330
2DE3
100
AcDbEntity
  8
0
 62
     0
100
AcDbLine
 10
-203.6096351922715
 20
-681.0000000000045
 30
0.0
 11
361.4999999999927
 21
-304.2612052193462
 31
0.0
  0
LINE
  5
262B
330
2DE3
100
AcDbEntity
  8
0
 62
     0
100
AcDbLine
 10
-208.1095964861561
 20
-681.0000000000016
 30
0.0
 11
361.4999999999909
 21
-301.2612386839301
 31
0.0
  0
LINE
  5
262C
330
2DE3
100
AcDbEntity
  8
0
 62
     0
100
AcDbLine
 10
-212.6095577800406
 20
-681.0000000000016
 30
0.0
 11
361.4999999999927
 21
-298.2612721485129
 31
0.0
  0
LINE
  5
262D
330
2DE3
100
AcDbEntity
  8
0
 62
     0
100
AcDbLine
 10
-217.1095190739252
 20
-681.0000000000016
 30
0.0
 11
361.4999999999909
 21
-295.2613056130977
 31
0.0
  0
LINE
  5
262E
330
2DE3
100
AcDbEntity
  8
0
 62
     0
100
AcDbLine
 10
-221.6094803678097
 20
-681.0000000000016
 30
0.0
 11
361.4999999999927
 21
-292.2613390776805
 31
0.0
  0
LINE
  5
262F
330
2DE3
100
AcDbEntity
  8
0
 62
     0
100
AcDbLine
 10
-226.1094416616979
 20
-681.0000000000036
 30
0.0
 11
361.4999999999909
 21
-289.2613725422652
 31
0.0
  0
LINE
  5
2630
330
2DE3
100
AcDbEntity
  8
0
 62
     0
100
AcDbLine
 10
-230.6094029555843
 20
-681.0000000000016
 30
0.0
 11
361.4999999999927
 21
-286.261406006848
 31
0.0
  0
LINE
  5
2631
330
2DE3
100
AcDbEntity
  8
0
 62
     0
100
AcDbLine
 10
-235.1093642494707
 20
-681.0000000000036
 30
0.0
 11
361.4999999999927
 21
-283.2614394714328
 31
0.0
  0
LINE
  5
2632
330
2DE3
100
AcDbEntity
  8
0
 62
     0
100
AcDbLine
 10
-239.6093255433534
 20
-681.0000000000016
 30
0.0
 11
361.4999999999927
 21
-280.2614729360157
 31
0.0
  0
LINE
  5
2633
330
2DE3
100
AcDbEntity
  8
0
 62
     0
100
AcDbLine
 10
-244.1092868372398
 20
-681.0000000000027
 30
0.0
 11
361.4999999999927
 21
-277.2615064005995
 31
0.0
  0
LINE
  5
2634
330
2DE3
100
AcDbEntity
  8
0
 62
     0
100
AcDbLine
 10
360.6923077353058
 20
-274.7999999999993
 30
0.0
 11
361.4999999999946
 21
-274.2615398651815
 31
0.0
  0
LINE
  5
2635
330
2DE3
100
AcDbEntity
  8
0
 62
     0
100
AcDbLine
 10
-248.6092481311262
 20
-681.0000000000036
 30
0.0
 11
360.692307735304
 21
-274.8000000000011
 31
0.0
  0
LINE
  5
2636
330
2DE3
100
AcDbEntity
  8
0
 62
     0
100
AcDbLine
 10
356.1923464414194
 20
-274.8000000000001
 30
0.0
 11
361.4999999999946
 21
-271.2615733297653
 31
0.0
  0
LINE
  5
2637
330
2DE3
100
AcDbEntity
  8
0
 62
     0
100
AcDbLine
 10
-253.1092094250143
 20
-681.0000000000027
 30
0.0
 11
356.1923464414176
 21
-274.800000000002
 31
0.0
  0
LINE
  5
2638
330
2DE3
100
AcDbEntity
  8
0
 62
     0
100
AcDbLine
 10
351.6923851475349
 20
-274.8000000000011
 30
0.0
 11
361.4999999999946
 21
-268.2616067943509
 31
0.0
  0
LINE
  5
2639
330
2DE3
100
AcDbEntity
  8
0
 62
     0
100
AcDbLine
 10
-257.6091707188953
 20
-681.0000000000016
 30
0.0
 11
351.692385147533
 21
-274.8000000000011
 31
0.0
  0
LINE
  5
263A
330
2DE3
100
AcDbEntity
  8
0
 62
     0
100
AcDbLine
 10
347.1924238536504
 20
-274.8000000000001
 30
0.0
 11
361.4999999999946
 21
-265.2616402589347
 31
0.0
  0
LINE
  5
263B
330
2DE3
100
AcDbEntity
  8
0
 62
     0
100
AcDbLine
 10
-262.1091320127835
 20
-681.0000000000027
 30
0.0
 11
347.1924238536467
 21
-274.800000000002
 31
0.0
  0
LINE
  5
263C
330
2DE3
100
AcDbEntity
  8
0
 62
     0
100
AcDbLine
 10
342.6924625597639
 20
-274.7999999999993
 30
0.0
 11
361.4999999999946
 21
-262.2616737235185
 31
0.0
  0
LINE
  5
263D
330
2DE3
100
AcDbEntity
  8
0
 62
     0
100
AcDbLine
 10
-266.609093306668
 20
-681.0000000000036
 30
0.0
 11
342.6924625597621
 21
-274.8000000000029
 31
0.0
  0
LINE
  5
263E
330
2DE3
100
AcDbEntity
  8
0
 62
     0
100
AcDbLine
 10
338.1925012658776
 20
-274.7999999999993
 30
0.0
 11
361.4999999999946
 21
-259.2617071881014
 31
0.0
  0
LINE
  5
263F
330
2DE3
100
AcDbEntity
  8
0
 62
     0
100
AcDbLine
 10
-271.1090546005526
 20
-681.0000000000016
 30
0.0
 11
338.192501265874
 21
-274.8000000000011
 31
0.0
  0
LINE
  5
2640
330
2DE3
100
AcDbEntity
  8
0
 62
     0
100
AcDbLine
 10
333.6925399719931
 20
-274.8000000000011
 30
0.0
 11
361.4999999999946
 21
-256.261740652686
 31
0.0
  0
LINE
  5
2641
330
2DE3
100
AcDbEntity
  8
0
 62
     0
100
AcDbLine
 10
-275.6090158944372
 20
-681.0000000000016
 30
0.0
 11
333.6925399719912
 21
-274.8000000000029
 31
0.0
  0
LINE
  5
2642
330
2DE3
100
AcDbEntity
  8
0
 62
     0
100
AcDbLine
 10
329.1925786781048
 20
-274.8000000000011
 30
0.0
 11
361.4999999999946
 21
-253.2617741172671
 31
0.0
  0
LINE
  5
2643
330
2DE3
100
AcDbEntity
  8
0
 62
     0
100
AcDbLine
 10
-280.1089771883253
 20
-681.0000000000016
 30
0.0
 11
329.1925786781031
 21
-274.8000000000029
 31
0.0
  0
LINE
  5
2644
330
2DE3
100
AcDbEntity
  8
0
 62
     0
100
AcDbLine
 10
324.6926173842202
 20
-274.8000000000011
 30
0.0
 11
361.4999999999927
 21
-250.2618075818536
 31
0.0
  0
LINE
  5
2645
330
2DE3
100
AcDbEntity
  8
0
 62
     0
100
AcDbLine
 10
-284.6089384822118
 20
-681.0000000000036
 30
0.0
 11
324.6926173842185
 21
-274.8000000000029
 31
0.0
  0
LINE
  5
2646
330
2DE3
100
AcDbEntity
  8
0
 62
     0
100
AcDbLine
 10
320.1926560903357
 20
-274.8000000000011
 30
0.0
 11
361.4999999999946
 21
-247.2618410464365
 31
0.0
  0
LINE
  5
2647
330
2DE3
100
AcDbEntity
  8
0
 62
     0
100
AcDbLine
 10
-289.1088997760942
 20
-681.0000000000016
 30
0.0
 11
320.1926560903321
 21
-274.8000000000029
 31
0.0
  0
LINE
  5
2648
330
2DE3
100
AcDbEntity
  8
0
 62
     0
100
AcDbLine
 10
315.6926947964493
 20
-274.8000000000011
 30
0.0
 11
361.4999999999946
 21
-244.2618745110213
 31
0.0
  0
LINE
  5
2649
330
2DE3
100
AcDbEntity
  8
0
 62
     0
100
AcDbLine
 10
-293.6088610699808
 20
-681.0000000000036
 30
0.0
 11
315.6926947964475
 21
-274.8000000000029
 31
0.0
  0
LINE
  5
264A
330
2DE3
100
AcDbEntity
  8
0
 62
     0
100
AcDbLine
 10
311.192733502563
 20
-274.8000000000011
 30
0.0
 11
361.4999999999946
 21
-241.2619079756041
 31
0.0
  0
LINE
  5
264B
330
2DE3
100
AcDbEntity
  8
0
 62
     0
100
AcDbLine
 10
-298.1088223638671
 20
-681.0000000000016
 30
0.0
 11
311.192733502563
 21
-274.8000000000011
 31
0.0
  0
LINE
  5
264C
330
2DE3
100
AcDbEntity
  8
0
 62
     0
100
AcDbLine
 10
306.6927722086784
 20
-274.8000000000001
 30
0.0
 11
361.4999999999946
 21
-238.2619414401879
 31
0.0
  0
LINE
  5
264D
330
2DE3
100
AcDbEntity
  8
0
 62
     0
100
AcDbLine
 10
-302.6087836577535
 20
-681.0000000000027
 30
0.0
 11
306.6927722086784
 21
-274.8000000000001
 31
0.0
  0
LINE
  5
264E
330
2DE3
100
AcDbEntity
  8
0
 62
     0
100
AcDbLine
 10
302.1928109147939
 20
-274.8000000000011
 30
0.0
 11
361.4999999999946
 21
-235.2619749047717
 31
0.0
  0
LINE
  5
264F
330
2DE3
100
AcDbEntity
  8
0
 62
     0
100
AcDbLine
 10
-307.1087449516363
 20
-681.0000000000016
 30
0.0
 11
302.1928109147921
 21
-274.8000000000011
 31
0.0
  0
LINE
  5
2650
330
2DE3
100
AcDbEntity
  8
0
 62
     0
100
AcDbLine
 10
297.6928496209075
 20
-274.8000000000029
 30
0.0
 11
361.4999999999946
 21
-232.2620083693564
 31
0.0
  0
LINE
  5
2651
330
2DE3
100
AcDbEntity
  8
0
 62
     0
100
AcDbLine
 10
-311.6087062455226
 20
-681.0000000000036
 30
0.0
 11
297.6928496209075
 21
-274.8000000000029
 31
0.0
  0
LINE
  5
2652
330
2DE3
100
AcDbEntity
  8
0
 62
     0
100
AcDbLine
 10
293.1928883270229
 20
-274.7999999999993
 30
0.0
 11
361.4999999999927
 21
-229.2620418339393
 31
0.0
  0
LINE
  5
2653
330
2DE3
100
AcDbEntity
  8
0
 62
     0
100
AcDbLine
 10
-316.1086675394108
 20
-681.0000000000036
 30
0.0
 11
293.1928883270193
 21
-274.8000000000011
 31
0.0
  0
LINE
  5
2654
330
2DE3
100
AcDbEntity
  8
0
 62
     0
100
AcDbLine
 10
288.6929270331384
 20
-274.7999999999993
 30
0.0
 11
361.4999999999946
 21
-226.2620752985222
 31
0.0
  0
LINE
  5
2655
330
2DE3
100
AcDbEntity
  8
0
 62
     0
100
AcDbLine
 10
-320.6086288332954
 20
-681.0000000000016
 30
0.0
 11
288.6929270331366
 21
-274.8000000000011
 31
0.0
  0
LINE
  5
2656
330
2DE3
100
AcDbEntity
  8
0
 62
     0
100
AcDbLine
 10
284.1929657392502
 20
-274.8000000000011
 30
0.0
 11
361.4999999999927
 21
-223.2621087631069
 31
0.0
  0
LINE
  5
2657
330
2DE3
100
AcDbEntity
  8
0
 62
     0
100
AcDbLine
 10
-325.1085901271799
 20
-681.0000000000016
 30
0.0
 11
284.1929657392484
 21
-274.8000000000029
 31
0.0
  0
LINE
  5
2658
330
2DE3
100
AcDbEntity
  8
0
 62
     0
100
AcDbLine
 10
279.6930044453637
 20
-274.8000000000011
 30
0.0
 11
361.4999999999927
 21
-220.2621422276916
 31
0.0
  0
LINE
  5
2659
330
2DE3
100
AcDbEntity
  8
0
 62
     0
100
AcDbLine
 10
-329.6085514210663
 20
-681.0000000000016
 30
0.0
 11
279.693004445362
 21
-274.8000000000011
 31
0.0
  0
LINE
  5
265A
330
2DE3
100
AcDbEntity
  8
0
 62
     0
100
AcDbLine
 10
275.1930431514811
 20
-274.8000000000011
 30
0.0
 11
361.4999999999927
 21
-217.2621756922763
 31
0.0
  0
LINE
  5
265B
330
2DE3
100
AcDbEntity
  8
0
 62
     0
100
AcDbLine
 10
-334.1085127149526
 20
-681.0000000000036
 30
0.0
 11
275.1930431514775
 21
-274.8000000000029
 31
0.0
  0
LINE
  5
265C
330
2DE3
100
AcDbEntity
  8
0
 62
     0
100
AcDbLine
 10
270.6930818575947
 20
-274.7999999999993
 30
0.0
 11
361.4999999999946
 21
-214.2622091568573
 31
0.0
  0
LINE
  5
265D
330
2DE3
100
AcDbEntity
  8
0
 62
     0
100
AcDbLine
 10
-338.6084740088354
 20
-681.0000000000016
 30
0.0
 11
270.6930818575911
 21
-274.8000000000011
 31
0.0
  0
LINE
  5
265E
330
2DE3
100
AcDbEntity
  8
0
 62
     0
100
AcDbLine
 10
266.1931205637084
 20
-274.8000000000011
 30
0.0
 11
361.4999999999946
 21
-211.2622426214421
 31
0.0
  0
LINE
  5
265F
330
2DE3
100
AcDbEntity
  8
0
 62
     0
100
AcDbLine
 10
-343.1084353027218
 20
-681.0000000000016
 30
0.0
 11
266.1931205637066
 21
-274.8000000000029
 31
0.0
  0
LINE
  5
2660
330
2DE3
100
AcDbEntity
  8
0
 62
     0
100
AcDbLine
 10
261.693159269822
 20
-274.8000000000011
 30
0.0
 11
361.4999999999946
 21
-208.2622760860249
 31
0.0
  0
LINE
  5
2661
330
2DE3
100
AcDbEntity
  8
0
 62
     0
100
AcDbLine
 10
-347.608396596608
 20
-681.0000000000016
 30
0.0
 11
261.6931592698202
 21
-274.8000000000029
 31
0.0
  0
LINE
  5
2662
330
2DE3
100
AcDbEntity
  8
0
 62
     0
100
AcDbLine
 10
257.1931979759356
 20
-274.8000000000029
 30
0.0
 11
361.4999999999946
 21
-205.2623095506115
 31
0.0
  0
LINE
  5
2663
330
2DE3
100
AcDbEntity
  8
0
 62
     0
100
AcDbLine
 10
-352.1083578904927
 20
-681.0000000000036
 30
0.0
 11
257.1931979759356
 21
-274.8000000000029
 31
0.0
  0
LINE
  5
2664
330
2DE3
100
AcDbEntity
  8
0
 62
     0
100
AcDbLine
 10
252.6932366820529
 20
-274.8000000000011
 30
0.0
 11
361.4999999999946
 21
-202.2623430151944
 31
0.0
  0
LINE
  5
2665
330
2DE3
100
AcDbEntity
  8
0
 62
     0
100
AcDbLine
 10
-356.6083191843772
 20
-681.0000000000016
 30
0.0
 11
252.6932366820511
 21
-274.8000000000011
 31
0.0
  0
LINE
  5
2666
330
2DE3
100
AcDbEntity
  8
0
 62
     0
100
AcDbLine
 10
248.1932753881647
 20
-274.7999999999993
 30
0.0
 11
361.4999999999927
 21
-199.2623764797771
 31
0.0
  0
LINE
  5
2667
330
2DE3
100
AcDbEntity
  8
0
 62
     0
100
AcDbLine
 10
-361.1082804782654
 20
-681.0000000000016
 30
0.0
 11
248.1932753881647
 21
-274.7999999999993
 31
0.0
  0
LINE
  5
2668
330
2DE3
100
AcDbEntity
  8
0
 62
     0
100
AcDbLine
 10
243.6933140942819
 20
-274.7999999999993
 30
0.0
 11
361.4999999999946
 21
-196.2624099443619
 31
0.0
  0
LINE
  5
2669
330
2DE3
100
AcDbEntity
  8
0
 62
     0
100
AcDbLine
 10
-361.5000000000091
 20
-678.2611791455727
 30
0.0
 11
243.6933140942802
 21
-274.8000000000011
 31
0.0
  0
LINE
  5
266A
330
2DE3
100
AcDbEntity
  8
0
 62
     0
100
AcDbLine
 10
239.1933528003956
 20
-274.8000000000011
 30
0.0
 11
361.4999999999927
 21
-193.2624434089466
 31
0.0
  0
LINE
  5
266B
330
2DE3
100
AcDbEntity
  8
0
 62
     0
100
AcDbLine
 10
-361.5000000000073
 20
-675.2612126101556
 30
0.0
 11
239.193352800392
 21
-274.8000000000029
 31
0.0
  0
LINE
  5
266C
330
2DE3
100
AcDbEntity
  8
0
 62
     0
100
AcDbLine
 10
234.693391506511
 20
-274.8000000000011
 30
0.0
 11
361.4999999999946
 21
-190.2624768735294
 31
0.0
  0
LINE
  5
266D
330
2DE3
100
AcDbEntity
  8
0
 62
     0
100
AcDbLine
 10
-361.5000000000091
 20
-672.2612460747405
 30
0.0
 11
234.6933915065092
 21
-274.8000000000011
 31
0.0
  0
LINE
  5
266E
330
2DE3
100
AcDbEntity
  8
0
 62
     0
100
AcDbLine
 10
230.1934302126229
 20
-274.8000000000011
 30
0.0
 11
361.4999999999946
 21
-187.2625103381124
 31
0.0
  0
LINE
  5
266F
330
2DE3
100
AcDbEntity
  8
0
 62
     0
100
AcDbLine
 10
-361.5000000000073
 20
-669.2612795393215
 30
0.0
 11
230.193430212621
 21
-274.8000000000011
 31
0.0
  0
LINE
  5
2670
330
2DE3
100
AcDbEntity
  8
0
 62
     0
100
AcDbLine
 10
225.6934689187383
 20
-274.8000000000011
 30
0.0
 11
361.4999999999946
 21
-184.2625438026971
 31
0.0
  0
LINE
  5
2671
330
2DE3
100
AcDbEntity
  8
0
 62
     0
100
AcDbLine
 10
-361.5000000000073
 20
-666.2613130039082
 30
0.0
 11
225.6934689187383
 21
-274.8000000000011
 31
0.0
  0
LINE
  5
2672
330
2DE3
100
AcDbEntity
  8
0
 62
     0
100
AcDbLine
 10
221.1935076248537
 20
-274.8000000000011
 30
0.0
 11
361.4999999999946
 21
-181.2625772672818
 31
0.0
  0
LINE
  5
2673
330
2DE3
100
AcDbEntity
  8
0
 62
     0
100
AcDbLine
 10
-361.5000000000073
 20
-663.2613464684927
 30
0.0
 11
221.1935076248501
 21
-274.8000000000029
 31
0.0
  0
LINE
  5
2674
330
2DE3
100
AcDbEntity
  8
0
 62
     0
100
AcDbLine
 10
216.6935463309674
 20
-274.8000000000011
 30
0.0
 11
361.4999999999927
 21
-178.2626107318647
 31
0.0
  0
LINE
  5
2675
330
2DE3
100
AcDbEntity
  8
0
 62
     0
100
AcDbLine
 10
-361.5000000000091
 20
-660.2613799330756
 30
0.0
 11
216.6935463309656
 21
-274.8000000000029
 31
0.0
  0
LINE
  5
2676
330
2DE3
100
AcDbEntity
  8
0
 62
     0
100
AcDbLine
 10
212.193585037081
 20
-274.8000000000011
 30
0.0
 11
361.4999999999946
 21
-175.2626441964476
 31
0.0
  0
LINE
  5
2677
330
2DE3
100
AcDbEntity
  8
0
 62
     0
100
AcDbLine
 10
-361.5000000000073
 20
-657.2614133976584
 30
0.0
 11
212.1935850370792
 21
-274.8000000000011
 31
0.0
  0
LINE
  5
2678
330
2DE3
100
AcDbEntity
  8
0
 62
     0
100
AcDbLine
 10
207.6936237431946
 20
-274.8000000000029
 30
0.0
 11
361.4999999999927
 21
-172.262677661034
 31
0.0
  0
LINE
  5
2679
330
2DE3
100
AcDbEntity
  8
0
 62
     0
100
AcDbLine
 10
-361.5000000000073
 20
-654.2614468622415
 30
0.0
 11
207.6936237431946
 21
-274.8000000000029
 31
0.0
  0
LINE
  5
267A
330
2DE3
100
AcDbEntity
  8
0
 62
     0
100
AcDbLine
 10
203.1936624493118
 20
-274.7999999999993
 30
0.0
 11
361.4999999999927
 21
-169.262711125617
 31
0.0
  0
LINE
  5
267B
330
2DE3
100
AcDbEntity
  8
0
 62
     0
100
AcDbLine
 10
-361.5000000000073
 20
-651.2614803268261
 30
0.0
 11
203.1936624493082
 21
-274.8000000000011
 31
0.0
  0
LINE
  5
267C
330
2DE3
100
AcDbEntity
  8
0
 62
     0
100
AcDbLine
 10
198.6937011554254
 20
-274.8000000000011
 30
0.0
 11
361.4999999999927
 21
-166.2627445902017
 31
0.0
  0
LINE
  5
267D
330
2DE3
100
AcDbEntity
  8
0
 62
     0
100
AcDbLine
 10
-361.5000000000073
 20
-648.2615137914107
 30
0.0
 11
198.6937011554237
 21
-274.8000000000029
 31
0.0
  0
LINE
  5
267E
330
2DE3
100
AcDbEntity
  8
0
 62
     0
100
AcDbLine
 10
194.1937398615373
 20
-274.8000000000011
 30
0.0
 11
361.4999999999927
 21
-163.2627780547827
 31
0.0
  0
LINE
  5
267F
330
2DE3
100
AcDbEntity
  8
0
 62
     0
100
AcDbLine
 10
-361.5000000000091
 20
-645.2615472559934
 30
0.0
 11
194.1937398615373
 21
-274.8000000000011
 31
0.0
  0
LINE
  5
2680
330
2DE3
100
AcDbEntity
  8
0
 62
     0
100
AcDbLine
 10
189.6937785676564
 20
-274.7999999999993
 30
0.0
 11
361.4999999999927
 21
-160.2628115193674
 31
0.0
  0
LINE
  5
2681
330
2DE3
100
AcDbEntity
  8
0
 62
     0
100
AcDbLine
 10
-361.5000000000073
 20
-642.2615807205763
 30
0.0
 11
189.6937785676527
 21
-274.8000000000011
 31
0.0
  0
LINE
  5
2682
330
2DE3
100
AcDbEntity
  8
0
 62
     0
100
AcDbLine
 10
185.193817273768
 20
-274.8000000000011
 30
0.0
 11
361.4999999999927
 21
-157.2628449839521
 31
0.0
  0
LINE
  5
2683
330
2DE3
100
AcDbEntity
  8
0
 62
     0
100
AcDbLine
 10
-361.5000000000091
 20
-639.2616141851613
 30
0.0
 11
185.1938172737664
 21
-274.8000000000011
 31
0.0
  0
LINE
  5
2684
330
2DE3
100
AcDbEntity
  8
0
 62
     0
100
AcDbLine
 10
180.6938559798837
 20
-274.8000000000011
 30
0.0
 11
361.4999999999927
 21
-154.2628784485368
 31
0.0
  0
LINE
  5
2685
330
2DE3
100
AcDbEntity
  8
0
 62
     0
100
AcDbLine
 10
-361.5000000000073
 20
-636.261647649746
 30
0.0
 11
180.6938559798817
 21
-274.8000000000029
 31
0.0
  0
LINE
  5
2686
330
2DE3
100
AcDbEntity
  8
0
 62
     0
100
AcDbLine
 10
176.1938946859954
 20
-274.8000000000011
 30
0.0
 11
361.4999999999927
 21
-151.2629119131196
 31
0.0
  0
LINE
  5
2687
330
2DE3
100
AcDbEntity
  8
0
 62
     0
100
AcDbLine
 10
-361.5000000000091
 20
-633.2616811143289
 30
0.0
 11
176.1938946859954
 21
-274.8000000000011
 31
0.0
  0
LINE
  5
2688
330
2DE3
100
AcDbEntity
  8
0
 62
     0
100
AcDbLine
 10
171.6939333921127
 20
-274.7999999999993
 30
0.0
 11
361.4999999999909
 21
-148.2629453777026
 31
0.0
  0
LINE
  5
2689
330
2DE3
100
AcDbEntity
  8
0
 62
     0
100
AcDbLine
 10
-361.5000000000091
 20
-630.2617145789118
 30
0.0
 11
171.6939333921091
 21
-274.8000000000011
 31
0.0
  0
LINE
  5
268A
330
2DE3
100
AcDbEntity
  8
0
 62
     0
100
AcDbLine
 10
167.1939720982263
 20
-274.8000000000011
 30
0.0
 11
361.4999999999927
 21
-145.2629788422873
 31
0.0
  0
LINE
  5
268B
330
2DE3
100
AcDbEntity
  8
0
 62
     0
100
AcDbLine
 10
-361.5000000000073
 20
-627.2617480434965
 30
0.0
 11
167.1939720982244
 21
-274.8000000000011
 31
0.0
  0
LINE
  5
268C
330
2DE3
100
AcDbEntity
  8
0
 62
     0
100
AcDbLine
 10
162.6940108043399
 20
-274.8000000000029
 30
0.0
 11
361.4999999999909
 21
-142.263012306872
 31
0.0
  0
LINE
  5
268D
330
2DE3
100
AcDbEntity
  8
0
 62
     0
100
AcDbLine
 10
-361.5000000000073
 20
-624.261781508081
 30
0.0
 11
162.6940108043382
 21
-274.8000000000029
 31
0.0
  0
LINE
  5
268E
330
2DE3
100
AcDbEntity
  8
0
 62
     0
100
AcDbLine
 10
158.1940495104536
 20
-274.8000000000011
 30
0.0
 11
361.4999999999927
 21
-139.2630457714549
 31
0.0
  0
LINE
  5
268F
330
2DE3
100
AcDbEntity
  8
0
 62
     0
100
AcDbLine
 10
-361.5000000000073
 20
-621.261814972664
 30
0.0
 11
158.1940495104536
 21
-274.8000000000011
 31
0.0
  0
LINE
  5
2690
330
2DE3
100
AcDbEntity
  8
0
 62
     0
100
AcDbLine
 10
153.6940882165708
 20
-274.7999999999993
 30
0.0
 11
361.4999999999927
 21
-136.2630792360377
 31
0.0
  0
LINE
  5
2691
330
2DE3
100
AcDbEntity
  8
0
 62
     0
100
AcDbLine
 10
-361.5000000000073
 20
-618.2618484372469
 30
0.0
 11
153.6940882165672
 21
-274.8000000000011
 31
0.0
  0
LINE
  5
2692
330
2DE3
100
AcDbEntity
  8
0
 62
     0
100
AcDbLine
 10
149.1941269226844
 20
-274.8000000000011
 30
0.0
 11
361.4999999999946
 21
-133.2631127006225
 31
0.0
  0
LINE
  5
2693
330
2DE3
100
AcDbEntity
  8
0
 62
     0
100
AcDbLine
 10
-361.5000000000073
 20
-615.2618819018315
 30
0.0
 11
149.1941269226827
 21
-274.8000000000029
 31
0.0
  0
LINE
  5
2694
330
2DE3
100
AcDbEntity
  8
0
 62
     0
100
AcDbLine
 10
145.6999999999934
 20
-274.1294454648196
 30
0.0
 11
361.4999999999927
 21
-130.2631461652054
 31
0.0
  0
LINE
  5
2695
330
2DE3
100
AcDbEntity
  8
0
 62
     0
100
AcDbLine
 10
-361.5000000000073
 20
-612.2619153664145
 30
0.0
 11
145.6999999999934
 21
-274.1294454648196
 31
0.0
  0
LINE
  5
2696
330
2DE3
100
AcDbEntity
  8
0
 62
     0
100
AcDbLine
 10
145.6999999999934
 20
-271.1294789294025
 30
0.0
 11
361.4999999999927
 21
-127.2631796297901
 31
0.0
  0
LINE
  5
2697
330
2DE3
100
AcDbEntity
  8
0
 62
     0
100
AcDbLine
 10
-361.5000000000091
 20
-609.2619488309992
 30
0.0
 11
145.6999999999914
 21
-271.1294789294043
 31
0.0
  0
LINE
  5
2698
330
2DE3
100
AcDbEntity
  8
0
 62
     0
100
AcDbLine
 10
145.6999999999952
 20
-268.1295123939853
 30
0.0
 11
361.4999999999927
 21
-124.263213094373
 31
0.0
  0
LINE
  5
2699
330
2DE3
100
AcDbEntity
  8
0
 62
     0
100
AcDbLine
 10
-361.5000000000073
 20
-606.2619822955821
 30
0.0
 11
145.6999999999934
 21
-268.1295123939872
 31
0.0
  0
LINE
  5
269A
330
2DE3
100
AcDbEntity
  8
0
 62
     0
100
AcDbLine
 10
145.6999999999934
 20
-265.1295458585682
 30
0.0
 11
361.4999999999927
 21
-121.2632465589559
 31
0.0
  0
LINE
  5
269B
330
2DE3
100
AcDbEntity
  8
0
 62
     0
100
AcDbLine
 10
-361.5000000000091
 20
-603.2620157601668
 30
0.0
 11
145.6999999999914
 21
-265.1295458585701
 31
0.0
  0
LINE
  5
269C
330
2DE3
100
AcDbEntity
  8
0
 62
     0
100
AcDbLine
 10
145.6999999999952
 20
-262.1295793231547
 30
0.0
 11
361.4999999999927
 21
-118.2632800235406
 31
0.0
  0
LINE
  5
269D
330
2DE3
100
AcDbEntity
  8
0
 62
     0
100
AcDbLine
 10
-361.5000000000073
 20
-600.2620492247496
 30
0.0
 11
145.6999999999934
 21
-262.1295793231547
 31
0.0
  0
LINE
  5
269E
330
2DE3
100
AcDbEntity
  8
0
 62
     0
100
AcDbLine
 10
145.6999999999934
 20
-259.1296127877395
 30
0.0
 11
361.4999999999927
 21
-115.2633134881253
 31
0.0
  0
LINE
  5
269F
330
2DE3
100
AcDbEntity
  8
0
 62
     0
100
AcDbLine
 10
-361.5000000000073
 20
-597.2620826893344
 30
0.0
 11
145.6999999999934
 21
-259.1296127877395
 31
0.0
  0
LINE
  5
26A0
330
2DE3
100
AcDbEntity
  8
0
 62
     0
100
AcDbLine
 10
145.6999999999952
 20
-256.1296462523223
 30
0.0
 11
361.4999999999927
 21
-112.26334695271
 31
0.0
  0
LINE
  5
26A1
330
2DE3
100
AcDbEntity
  8
0
 62
     0
100
AcDbLine
 10
-361.5000000000073
 20
-594.2621161539172
 30
0.0
 11
145.6999999999934
 21
-256.1296462523223
 31
0.0
  0
LINE
  5
26A2
330
2DE3
100
AcDbEntity
  8
0
 62
     0
100
AcDbLine
 10
145.6999999999934
 20
-253.1296797169052
 30
0.0
 11
361.4999999999927
 21
-109.263380417291
 31
0.0
  0
LINE
  5
26A3
330
2DE3
100
AcDbEntity
  8
0
 62
     0
100
AcDbLine
 10
-361.5000000000073
 20
-591.2621496185002
 30
0.0
 11
145.6999999999934
 21
-253.1296797169052
 31
0.0
  0
LINE
  5
26A4
330
2DE3
100
AcDbEntity
  8
0
 62
     0
100
AcDbLine
 10
145.6999999999934
 20
-250.1297131814899
 30
0.0
 11
361.4999999999927
 21
-106.2634138818757
 31
0.0
  0
LINE
  5
26A5
330
2DE3
100
AcDbEntity
  8
0
 62
     0
100
AcDbLine
 10
-361.5000000000091
 20
-588.2621830830847
 30
0.0
 11
145.6999999999934
 21
-250.1297131814899
 31
0.0
  0
LINE
  5
26A6
330
2DE3
100
AcDbEntity
  8
0
 62
     0
100
AcDbLine
 10
145.6999999999934
 20
-247.1297466460746
 30
0.0
 11
361.4999999999927
 21
-103.2634473464604
 31
0.0
  0
LINE
  5
26A7
330
2DE3
100
AcDbEntity
  8
0
 62
     0
100
AcDbLine
 10
-361.5000000000073
 20
-585.2622165476713
 30
0.0
 11
145.6999999999934
 21
-247.1297466460746
 31
0.0
  0
LINE
  5
26A8
330
2DE3
100
AcDbEntity
  8
0
 62
     0
100
AcDbLine
 10
145.6999999999934
 20
-244.1297801106575
 30
0.0
 11
361.4999999999927
 21
-100.2634808110433
 31
0.0
  0
LINE
  5
26A9
330
2DE3
100
AcDbEntity
  8
0
 62
     0
100
AcDbLine
 10
-361.5000000000091
 20
-582.2622500122543
 30
0.0
 11
145.6999999999934
 21
-244.1297801106575
 31
0.0
  0
LINE
  5
26AA
330
2DE3
100
AcDbEntity
  8
0
 62
     0
100
AcDbLine
 10
145.6999999999934
 20
-241.1298135752404
 30
0.0
 11
361.4999999999909
 21
-97.26351427562805
 31
0.0
  0
LINE
  5
26AB
330
2DE3
100
AcDbEntity
  8
0
 62
     0
100
AcDbLine
 10
-361.5000000000091
 20
-579.2622834768372
 30
0.0
 11
145.6999999999914
 21
-241.1298135752404
 31
0.0
  0
LINE
  5
26AC
330
2DE3
100
AcDbEntity
  8
0
 62
     0
100
AcDbLine
 10
145.6999999999934
 20
-238.1298470398252
 30
0.0
 11
361.4999999999927
 21
-94.26354774021273
 31
0.0
  0
LINE
  5
26AD
330
2DE3
100
AcDbEntity
  8
0
 62
     0
100
AcDbLine
 10
-361.5000000000091
 20
-576.2623169414219
 30
0.0
 11
145.6999999999934
 21
-238.1298470398252
 31
0.0
  0
LINE
  5
26AE
330
2DE3
100
AcDbEntity
  8
0
 62
     0
100
AcDbLine
 10
145.6999999999934
 20
-235.129880504408
 30
0.0
 11
361.4999999999909
 21
-91.26358120479563
 31
0.0
  0
LINE
  5
26AF
330
2DE3
100
AcDbEntity
  8
0
 62
     0
100
AcDbLine
 10
-361.5000000000073
 20
-573.262350406003
 30
0.0
 11
145.6999999999914
 21
-235.129880504408
 31
0.0
  0
LINE
  5
26B0
330
2DE3
100
AcDbEntity
  8
0
 62
     0
100
AcDbLine
 10
145.6999999999934
 20
-232.1299139689927
 30
0.0
 11
361.4999999999927
 21
-88.26361466938035
 31
0.0
  0
LINE
  5
26B1
330
2DE3
100
AcDbEntity
  8
0
 62
     0
100
AcDbLine
 10
-361.5000000000073
 20
-570.2623838705894
 30
0.0
 11
145.6999999999934
 21
-232.1299139689927
 31
0.0
  0
LINE
  5
26B2
330
2DE3
100
AcDbEntity
  8
0
 62
     0
100
AcDbLine
 10
145.6999999999934
 20
-229.1299474335756
 30
0.0
 11
361.4999999999909
 21
-85.26364813396321
 31
0.0
  0
LINE
  5
26B3
330
2DE3
100
AcDbEntity
  8
0
 62
     0
100
AcDbLine
 10
-361.5000000000073
 20
-567.2624173351721
 30
0.0
 11
145.6999999999914
 21
-229.1299474335774
 31
0.0
  0
LINE
  5
26B4
330
2DE3
100
AcDbEntity
  8
0
 62
     0
100
AcDbLine
 10
145.6999999999934
 20
-226.1299808981603
 30
0.0
 11
361.4999999999927
 21
-82.26368159854791
 31
0.0
  0
LINE
  5
26B5
330
2DE3
100
AcDbEntity
  8
0
 62
     0
100
AcDbLine
 10
-361.5000000000073
 20
-564.2624507997569
 30
0.0
 11
145.6999999999934
 21
-226.1299808981603
 31
0.0
  0
LINE
  5
26B6
330
2DE3
100
AcDbEntity
  8
0
 62
     0
100
AcDbLine
 10
145.6999999999952
 20
-223.1300143627432
 30
0.0
 11
358.8955659441962
 21
-81.00000000000362
 31
0.0
  0
LINE
  5
26B7
330
2DE3
100
AcDbEntity
  8
0
 62
     0
100
AcDbLine
 10
-361.5000000000073
 20
-561.2624842643399
 30
0.0
 11
145.6999999999934
 21
-223.1300143627432
 31
0.0
  0
LINE
  5
26B8
330
2DE3
100
AcDbEntity
  8
0
 62
     0
100
AcDbLine
 10
145.6999999999914
 20
-220.1300478273279
 30
0.0
 11
354.3956046503099
 21
-81.00000000000546
 31
0.0
  0
LINE
  5
26B9
330
2DE3
100
AcDbEntity
  8
0
 62
     0
100
AcDbLine
 10
-361.5000000000091
 20
-558.2625177289247
 30
0.0
 11
145.6999999999914
 21
-220.1300478273279
 31
0.0
  0
LINE
  5
26BA
330
2DE3
100
AcDbEntity
  8
0
 62
     0
100
AcDbLine
 10
145.6999999999952
 20
-217.1300812919108
 30
0.0
 11
349.8956433564272
 21
-81.00000000000362
 31
0.0
  0
LINE
  5
26BB
330
2DE3
100
AcDbEntity
  8
0
 62
     0
100
AcDbLine
 10
-361.5000000000073
 20
-555.2625511935075
 30
0.0
 11
145.6999999999934
 21
-217.1300812919126
 31
0.0
  0
LINE
  5
26BC
330
2DE3
100
AcDbEntity
  8
0
 62
     0
100
AcDbLine
 10
145.6999999999914
 20
-214.1301147564955
 30
0.0
 11
345.3956820625389
 21
-81.00000000000362
 31
0.0
  0
LINE
  5
26BD
330
2DE3
100
AcDbEntity
  8
0
 62
     0
100
AcDbLine
 10
-361.5000000000091
 20
-552.2625846580904
 30
0.0
 11
145.6999999999914
 21
-214.1301147564955
 31
0.0
  0
LINE
  5
26BE
330
2DE3
100
AcDbEntity
  8
0
 62
     0
100
AcDbLine
 10
145.6999999999952
 20
-211.1301482210782
 30
0.0
 11
340.8957207686563
 21
-81.00000000000362
 31
0.0
  0
LINE
  5
26BF
330
2DE3
100
AcDbEntity
  8
0
 62
     0
100
AcDbLine
 10
-361.5000000000073
 20
-549.2626181226751
 30
0.0
 11
145.6999999999934
 21
-211.1301482210802
 31
0.0
  0
LINE
  5
26C0
330
2DE3
100
AcDbEntity
  8
0
 62
     0
100
AcDbLine
 10
145.6999999999934
 20
-208.1301816856631
 30
0.0
 11
336.395759474768
 21
-81.00000000000546
 31
0.0
  0
LINE
  5
26C1
330
2DE3
100
AcDbEntity
  8
0
 62
     0
100
AcDbLine
 10
-361.5000000000073
 20
-546.2626515872598
 30
0.0
 11
145.6999999999914
 21
-208.1301816856649
 31
0.0
  0
LINE
  5
26C2
330
2DE3
100
AcDbEntity
  8
0
 62
     0
100
AcDbLine
 10
145.6999999999952
 20
-205.1302151502459
 30
0.0
 11
331.8957981808853
 21
-81.00000000000362
 31
0.0
  0
LINE
  5
26C3
330
2DE3
100
AcDbEntity
  8
0
 62
     0
100
AcDbLine
 10
-361.5000000000073
 20
-543.2626850518427
 30
0.0
 11
145.6999999999952
 21
-205.1302151502459
 31
0.0
  0
LINE
  5
26C4
330
2DE3
100
AcDbEntity
  8
0
 62
     0
100
AcDbLine
 10
145.6999999999934
 20
-202.1302486148288
 30
0.0
 11
327.3958368869971
 21
-81.00000000000362
 31
0.0
  0
LINE
  5
26C5
330
2DE3
100
AcDbEntity
  8
0
 62
     0
100
AcDbLine
 10
-361.5000000000073
 20
-540.2627185164256
 30
0.0
 11
145.6999999999914
 21
-202.1302486148306
 31
0.0
  0
LINE
  5
26C6
330
2DE3
100
AcDbEntity
  8
0
 62
     0
100
AcDbLine
 10
145.6999999999934
 20
-199.1302820794151
 30
0.0
 11
322.8958755931126
 21
-81.00000000000362
 31
0.0
  0
LINE
  5
26C7
330
2DE3
100
AcDbEntity
  8
0
 62
     0
100
AcDbLine
 10
-361.5000000000091
 20
-537.2627519810103
 30
0.0
 11
145.6999999999934
 21
-199.1302820794151
 31
0.0
  0
LINE
  5
26C8
330
2DE3
100
AcDbEntity
  8
0
 62
     0
100
AcDbLine
 10
145.6999999999934
 20
-196.1303155439981
 30
0.0
 11
318.395914299228
 21
-81.00000000000182
 31
0.0
  0
LINE
  5
26C9
330
2DE3
100
AcDbEntity
  8
0
 62
     0
100
AcDbLine
 10
-361.5000000000073
 20
-534.2627854455932
 30
0.0
 11
145.6999999999934
 21
-196.1303155439981
 31
0.0
  0
LINE
  5
26CA
330
2DE3
100
AcDbEntity
  8
0
 62
     0
100
AcDbLine
 10
145.6999999999934
 20
-193.1303490085829
 30
0.0
 11
313.8959530053416
 21
-81.00000000000362
 31
0.0
  0
LINE
  5
26CB
330
2DE3
100
AcDbEntity
  8
0
 62
     0
100
AcDbLine
 10
-361.5000000000073
 20
-531.2628189101777
 30
0.0
 11
145.6999999999934
 21
-193.1303490085829
 31
0.0
  0
LINE
  5
26CC
330
2DE3
100
AcDbEntity
  8
0
 62
     0
100
AcDbLine
 10
145.6999999999934
 20
-190.1303824731658
 30
0.0
 11
309.3959917114572
 21
-81.00000000000362
 31
0.0
  0
LINE
  5
26CD
330
2DE3
100
AcDbEntity
  8
0
 62
     0
100
AcDbLine
 10
-361.5000000000073
 20
-528.2628523747607
 30
0.0
 11
145.6999999999934
 21
-190.1303824731658
 31
0.0
  0
LINE
  5
26CE
330
2DE3
100
AcDbEntity
  8
0
 62
     0
100
AcDbLine
 10
145.6999999999934
 20
-187.1304159377505
 30
0.0
 11
304.8960304175708
 21
-81.00000000000362
 31
0.0
  0
LINE
  5
26CF
330
2DE3
100
AcDbEntity
  8
0
 62
     0
100
AcDbLine
 10
-361.5000000000073
 20
-525.2628858393452
 30
0.0
 11
145.6999999999934
 21
-187.1304159377505
 31
0.0
  0
LINE
  5
26D0
330
2DE3
100
AcDbEntity
  8
0
 62
     0
100
AcDbLine
 10
145.6999999999934
 20
-184.1304494023334
 30
0.0
 11
300.3960691236843
 21
-81.00000000000362
 31
0.0
  0
LINE
  5
26D1
330
2DE3
100
AcDbEntity
  8
0
 62
     0
100
AcDbLine
 10
-361.5000000000073
 20
-522.2629193039283
 30
0.0
 11
145.6999999999914
 21
-184.1304494023334
 31
0.0
  0
LINE
  5
26D2
330
2DE3
100
AcDbEntity
  8
0
 62
     0
100
AcDbLine
 10
145.6999999999934
 20
-181.1304828669181
 30
0.0
 11
295.8961078297998
 21
-81.00000000000546
 31
0.0
  0
LINE
  5
26D3
330
2DE3
100
AcDbEntity
  8
0
 62
     0
100
AcDbLine
 10
-361.5000000000073
 20
-519.2629527685129
 30
0.0
 11
145.6999999999934
 21
-181.1304828669181
 31
0.0
  0
LINE
  5
26D4
330
2DE3
100
AcDbEntity
  8
0
 62
     0
100
AcDbLine
 10
145.6999999999934
 20
-178.130516331501
 30
0.0
 11
291.3961465359134
 21
-81.00000000000362
 31
0.0
  0
LINE
  5
26D5
330
2DE3
100
AcDbEntity
  8
0
 62
     0
100
AcDbLine
 10
-361.5000000000073
 20
-516.262986233096
 30
0.0
 11
145.6999999999934
 21
-178.130516331501
 31
0.0
  0
LINE
  5
26D6
330
2DE3
100
AcDbEntity
  8
0
 62
     0
100
AcDbLine
 10
145.6999999999934
 20
-175.1305497960838
 30
0.0
 11
286.8961852420289
 21
-81.00000000000362
 31
0.0
  0
LINE
  5
26D7
330
2DE3
100
AcDbEntity
  8
0
 62
     0
100
AcDbLine
 10
-361.5000000000073
 20
-513.2630196976788
 30
0.0
 11
145.6999999999934
 21
-175.1305497960838
 31
0.0
  0
LINE
  5
26D8
330
2DE3
100
AcDbEntity
  8
0
 62
     0
100
AcDbLine
 10
145.6999999999934
 20
-172.1305832606685
 30
0.0
 11
282.3962239481425
 21
-81.00000000000362
 31
0.0
  0
LINE
  5
26D9
330
2DE3
100
AcDbEntity
  8
0
 62
     0
100
AcDbLine
 10
-361.5000000000073
 20
-510.2630531622634
 30
0.0
 11
145.6999999999934
 21
-172.1305832606685
 31
0.0
  0
LINE
  5
26DA
330
2DE3
100
AcDbEntity
  8
0
 62
     0
100
AcDbLine
 10
145.6999999999914
 20
-169.1306167252532
 30
0.0
 11
277.8962626542561
 21
-81.00000000000546
 31
0.0
  0
LINE
  5
26DB
330
2DE3
100
AcDbEntity
  8
0
 62
     0
100
AcDbLine
 10
-361.5000000000091
 20
-507.2630866268498
 30
0.0
 11
145.6999999999914
 21
-169.1306167252532
 31
0.0
  0
LINE
  5
26DC
330
2DE3
100
AcDbEntity
  8
0
 62
     0
100
AcDbLine
 10
145.6999999999934
 20
-166.1306501898361
 30
0.0
 11
273.3963013603716
 21
-81.00000000000362
 31
0.0
  0
LINE
  5
26DD
330
2DE3
100
AcDbEntity
  8
0
 62
     0
100
AcDbLine
 10
-361.5000000000073
 20
-504.2631200914311
 30
0.0
 11
145.6999999999934
 21
-166.1306501898361
 31
0.0
  0
LINE
  5
26DE
330
2DE3
100
AcDbEntity
  8
0
 62
     0
100
AcDbLine
 10
145.6999999999914
 20
-163.130683654419
 30
0.0
 11
268.8963400664852
 21
-81.00000000000362
 31
0.0
  0
LINE
  5
26DF
330
2DE3
100
AcDbEntity
  8
0
 62
     0
100
AcDbLine
 10
-361.5000000000091
 20
-501.2631535560156
 30
0.0
 11
145.6999999999914
 21
-163.130683654419
 31
0.0
  0
LINE
  5
26E0
330
2DE3
100
AcDbEntity
  8
0
 62
     0
100
AcDbLine
 10
145.6999999999934
 20
-160.1307171190037
 30
0.0
 11
264.3963787726006
 21
-81.00000000000362
 31
0.0
  0
LINE
  5
26E1
330
2DE3
100
AcDbEntity
  8
0
 62
     0
100
AcDbLine
 10
-361.5000000000073
 20
-498.2631870205985
 30
0.0
 11
145.6999999999934
 21
-160.1307171190037
 31
0.0
  0
LINE
  5
26E2
330
2DE3
100
AcDbEntity
  8
0
 62
     0
100
AcDbLine
 10
145.6999999999934
 20
-157.1307505835866
 30
0.0
 11
259.8964174787161
 21
-81.00000000000182
 31
0.0
  0
LINE
  5
26E3
330
2DE3
100
AcDbEntity
  8
0
 62
     0
100
AcDbLine
 10
-361.5000000000073
 20
-495.2632204851814
 30
0.0
 11
145.6999999999914
 21
-157.1307505835866
 31
0.0
  0
LINE
  5
26E4
330
2DE3
100
AcDbEntity
  8
0
 62
     0
100
AcDbLine
 10
145.6999999999952
 20
-154.1307840481713
 30
0.0
 11
255.3964561848315
 21
-81.00000000000362
 31
0.0
  0
LINE
  5
26E5
330
2DE3
100
AcDbEntity
  8
0
 62
     0
100
AcDbLine
 10
-361.5000000000073
 20
-492.2632539497658
 30
0.0
 11
145.6999999999934
 21
-154.1307840481731
 31
0.0
  0
LINE
  5
26E6
330
2DE3
100
AcDbEntity
  8
0
 62
     0
100
AcDbLine
 10
145.6999999999934
 20
-151.1308175127542
 30
0.0
 11
250.8964948909452
 21
-81.00000000000182
 31
0.0
  0
LINE
  5
26E7
330
2DE3
100
AcDbEntity
  8
0
 62
     0
100
AcDbLine
 10
-361.5000000000073
 20
-489.2632874143508
 30
0.0
 11
145.6999999999934
 21
-151.1308175127542
 31
0.0
  0
LINE
  5
26E8
330
2DE3
100
AcDbEntity
  8
0
 62
     0
100
AcDbLine
 10
145.6999999999934
 20
-148.1308509773388
 30
0.0
 11
246.3965335970606
 21
-81.00000000000182
 31
0.0
  0
LINE
  5
26E9
330
2DE3
100
AcDbEntity
  8
0
 62
     0
100
AcDbLine
 10
-361.5000000000091
 20
-486.2633208789357
 30
0.0
 11
145.6999999999934
 21
-148.1308509773388
 31
0.0
  0
LINE
  5
26EA
330
2DE3
100
AcDbEntity
  8
0
 62
     0
100
AcDbLine
 10
145.6999999999934
 20
-145.1308844419218
 30
0.0
 11
241.8965723031742
 21
-81.00000000000182
 31
0.0
  0
LINE
  5
26EB
330
2DE3
100
AcDbEntity
  8
0
 62
     0
100
AcDbLine
 10
-361.5000000000073
 20
-483.2633543435186
 30
0.0
 11
145.6999999999934
 21
-145.1308844419218
 31
0.0
  0
LINE
  5
26EC
330
2DE3
100
AcDbEntity
  8
0
 62
     0
100
AcDbLine
 10
145.6999999999934
 20
-142.1309179065065
 30
0.0
 11
237.3966110092879
 21
-81.00000000000362
 31
0.0
  0
LINE
  5
26ED
330
2DE3
100
AcDbEntity
  8
0
 62
     0
100
AcDbLine
 10
-361.5000000000091
 20
-480.2633878081032
 30
0.0
 11
145.6999999999934
 21
-142.1309179065065
 31
0.0
  0
LINE
  5
26EE
330
2DE3
100
AcDbEntity
  8
0
 62
     0
100
AcDbLine
 10
145.6999999999934
 20
-139.1309513710894
 30
0.0
 11
232.8966497154033
 21
-81.00000000000362
 31
0.0
  0
LINE
  5
26EF
330
2DE3
100
AcDbEntity
  8
0
 62
     0
100
AcDbLine
 10
-361.5000000000055
 20
-477.2634212726843
 30
0.0
 11
145.6999999999934
 21
-139.1309513710894
 31
0.0
  0
LINE
  5
26F0
330
2DE3
100
AcDbEntity
  8
0
 62
     0
100
AcDbLine
 10
145.6999999999952
 20
-136.1309848356722
 30
0.0
 11
228.3966884215151
 21
-81.00000000000362
 31
0.0
  0
LINE
  5
26F1
330
2DE3
100
AcDbEntity
  8
0
 62
     0
100
AcDbLine
 10
-361.5000000000091
 20
-474.263454737269
 30
0.0
 11
145.6999999999934
 21
-136.1309848356741
 31
0.0
  0
LINE
  5
26F2
330
2DE3
100
AcDbEntity
  8
0
 62
     0
100
AcDbLine
 10
145.6999999999934
 20
-133.1310183002588
 30
0.0
 11
223.8967271276341
 21
-81.00000000000182
 31
0.0
  0
LINE
  5
26F3
330
2DE3
100
AcDbEntity
  8
0
 62
     0
100
AcDbLine
 10
-361.5000000000055
 20
-471.2634882018536
 30
0.0
 11
145.6999999999934
 21
-133.1310183002588
 31
0.0
  0
LINE
  5
26F4
330
2DE3
100
AcDbEntity
  8
0
 62
     0
100
AcDbLine
 10
145.6999999999952
 20
-130.1310517648417
 30
0.0
 11
219.396765833746
 21
-81.00000000000362
 31
0.0
  0
LINE
  5
26F5
330
2DE3
100
AcDbEntity
  8
0
 62
     0
100
AcDbLine
 10
-361.5000000000073
 20
-468.2635216664382
 30
0.0
 11
145.6999999999934
 21
-130.1310517648435
 31
0.0
  0
LINE
  5
26F6
330
2DE3
100
AcDbEntity
  8
0
 62
     0
100
AcDbLine
 10
145.6999999999934
 20
-127.1310852294246
 30
0.0
 11
214.8968045398596
 21
-81.00000000000362
 31
0.0
  0
LINE
  5
26F7
330
2DE3
100
AcDbEntity
  8
0
 62
     0
100
AcDbLine
 10
-361.5000000000073
 20
-465.263555131021
 30
0.0
 11
145.6999999999914
 21
-127.1310852294264
 31
0.0
  0
LINE
  5
26F8
330
2DE3
100
AcDbEntity
  8
0
 62
     0
100
AcDbLine
 10
145.6999999999934
 20
-124.1311186940074
 30
0.0
 11
210.3968432459733
 21
-81.00000000000362
 31
0.0
  0
LINE
  5
26F9
330
2DE3
100
AcDbEntity
  8
0
 62
     0
100
AcDbLine
 10
-361.5000000000073
 20
-462.2635885956041
 30
0.0
 11
145.6999999999934
 21
-124.1311186940074
 31
0.0
  0
LINE
  5
26FA
330
2DE3
100
AcDbEntity
  8
0
 62
     0
100
AcDbLine
 10
145.6999999999934
 20
-121.131152158594
 30
0.0
 11
205.8968819520905
 21
-81.00000000000182
 31
0.0
  0
LINE
  5
26FB
330
2DE3
100
AcDbEntity
  8
0
 62
     0
100
AcDbLine
 10
-361.5000000000073
 20
-459.2636220601888
 30
0.0
 11
145.6999999999934
 21
-121.131152158594
 31
0.0
  0
LINE
  5
26FC
330
2DE3
100
AcDbEntity
  8
0
 62
     0
100
AcDbLine
 10
145.6999999999914
 20
-118.1311856231768
 30
0.0
 11
201.3969206582024
 21
-81.00000000000182
 31
0.0
  0
LINE
  5
26FD
330
2DE3
100
AcDbEntity
  8
0
 62
     0
100
AcDbLine
 10
-361.5000000000091
 20
-456.2636555247718
 30
0.0
 11
145.6999999999914
 21
-118.1311856231768
 31
0.0
  0
LINE
  5
26FE
330
2DE3
100
AcDbEntity
  8
0
 62
     0
100
AcDbLine
 10
145.6999999999934
 20
-115.1312190877614
 30
0.0
 11
196.8969593643196
 21
-81.00000000000182
 31
0.0
  0
LINE
  5
26FF
330
2DE3
100
AcDbEntity
  8
0
 62
     0
100
AcDbLine
 10
-361.5000000000073
 20
-453.2636889893565
 30
0.0
 11
145.6999999999934
 21
-115.1312190877614
 31
0.0
  0
LINE
  5
2700
330
2DE3
100
AcDbEntity
  8
0
 62
     0
100
AcDbLine
 10
145.6999999999914
 20
-112.1312525523444
 30
0.0
 11
192.3969980704332
 21
-81.00000000000182
 31
0.0
  0
LINE
  5
2701
330
2DE3
100
AcDbEntity
  8
0
 62
     0
100
AcDbLine
 10
-361.5000000000073
 20
-450.2637224539393
 30
0.0
 11
145.6999999999914
 21
-112.1312525523444
 31
0.0
  0
LINE
  5
2702
330
2DE3
100
AcDbEntity
  8
0
 62
     0
100
AcDbLine
 10
145.6999999999934
 20
-109.1312860169291
 30
0.0
 11
187.8970367765487
 21
-81.00000000000362
 31
0.0
  0
LINE
  5
2703
330
2DE3
100
AcDbEntity
  8
0
 62
     0
100
AcDbLine
 10
-361.5000000000073
 20
-447.263755918524
 30
0.0
 11
145.6999999999934
 21
-109.1312860169291
 31
0.0
  0
LINE
  5
2704
330
2DE3
100
AcDbEntity
  8
0
 62
     0
100
AcDbLine
 10
145.6999999999914
 20
-106.131319481512
 30
0.0
 11
183.3970754826605
 21
-81.00000000000362
 31
0.0
  0
LINE
  5
2705
330
2DE3
100
AcDbEntity
  8
0
 62
     0
100
AcDbLine
 10
-361.5000000000073
 20
-444.2637893831068
 30
0.0
 11
145.6999999999914
 21
-106.131319481512
 31
0.0
  0
LINE
  5
2706
330
2DE3
100
AcDbEntity
  8
0
 62
     0
100
AcDbLine
 10
145.6999999999934
 20
-103.1313529460967
 30
0.0
 11
178.8971141887778
 21
-81.00000000000182
 31
0.0
  0
LINE
  5
2707
330
2DE3
100
AcDbEntity
  8
0
 62
     0
100
AcDbLine
 10
-361.5000000000073
 20
-441.2638228476916
 30
0.0
 11
145.6999999999934
 21
-103.1313529460967
 31
0.0
  0
LINE
  5
2708
330
2DE3
100
AcDbEntity
  8
0
 62
     0
100
AcDbLine
 10
145.6999999999914
 20
-100.1313864106796
 30
0.0
 11
174.3971528948914
 21
-81.00000000000182
 31
0.0
  0
LINE
  5
2709
330
2DE3
100
AcDbEntity
  8
0
 62
     0
100
AcDbLine
 10
-361.5000000000073
 20
-438.2638563122744
 30
0.0
 11
145.6999999999914
 21
-100.1313864106796
 31
0.0
  0
LINE
  5
270A
330
2DE3
100
AcDbEntity
  8
0
 62
     0
100
AcDbLine
 10
145.6999999999934
 20
-97.13141987526251
 30
0.0
 11
169.897191601005
 21
-81.00000000000182
 31
0.0
  0
LINE
  5
270B
330
2DE3
100
AcDbEntity
  8
0
 62
     0
100
AcDbLine
 10
-361.5000000000091
 20
-435.2638897768574
 30
0.0
 11
145.6999999999934
 21
-97.13141987526251
 31
0.0
  0
LINE
  5
270C
330
2DE3
100
AcDbEntity
  8
0
 62
     0
100
AcDbLine
 10
145.6999999999934
 20
-94.1314533398472
 30
0.0
 11
165.3972303071184
 21
-81.00000000000362
 31
0.0
  0
LINE
  5
270D
330
2DE3
100
AcDbEntity
  8
0
 62
     0
100
AcDbLine
 10
-361.5000000000073
 20
-432.263923241442
 30
0.0
 11
145.6999999999934
 21
-94.1314533398472
 31
0.0
  0
LINE
  5
270E
330
2DE3
100
AcDbEntity
  8
0
 62
     0
100
AcDbLine
 10
145.6999999999934
 20
-91.13148680443192
 30
0.0
 11
160.8972690132323
 21
-81.00000000000546
 31
0.0
  0
LINE
  5
270F
330
2DE3
100
AcDbEntity
  8
0
 62
     0
100
AcDbLine
 10
-361.5000000000073
 20
-429.2639567060268
 30
0.0
 11
145.6999999999934
 21
-91.13148680443192
 31
0.0
  0
LINE
  5
2710
330
2DE3
100
AcDbEntity
  8
0
 62
     0
100
AcDbLine
 10
145.6999999999934
 20
-88.1315202690148
 30
0.0
 11
156.3973077193495
 21
-81.00000000000182
 31
0.0
  0
LINE
  5
2711
330
2DE3
100
AcDbEntity
  8
0
 62
     0
100
AcDbLine
 10
-361.5000000000055
 20
-426.2639901706095
 30
0.0
 11
145.6999999999934
 21
-88.1315202690148
 31
0.0
  0
LINE
  5
2712
330
2DE3
100
AcDbEntity
  8
0
 62
     0
100
AcDbLine
 10
145.6999999999934
 20
-85.13155373359769
 30
0.0
 11
151.8973464254632
 21
-81.00000000000182
 31
0.0
  0
LINE
  5
2713
330
2DE3
100
AcDbEntity
  8
0
 62
     0
100
AcDbLine
 10
-361.5000000000073
 20
-423.2640236351923
 30
0.0
 11
145.6999999999934
 21
-85.13155373359769
 31
0.0
  0
LINE
  5
2714
330
2DE3
100
AcDbEntity
  8
0
 62
     0
100
AcDbLine
 10
145.6999999999934
 20
-82.13158719818236
 30
0.0
 11
147.3973851315768
 21
-81.00000000000362
 31
0.0
  0
LINE
  5
2715
330
2DE3
100
AcDbEntity
  8
0
 62
     0
100
AcDbLine
 10
-361.5000000000055
 20
-420.2640570997772
 30
0.0
 11
145.6999999999934
 21
-82.13158719818236
 31
0.0
  0
LINE
  5
2716
330
2DE3
100
AcDbEntity
  8
0
 62
     0
100
AcDbLine
 10
-361.5000000000073
 20
-417.2640905643602
 30
0.0
 11
142.8974238376941
 21
-81.00000000000182
 31
0.0
  0
LINE
  5
2717
330
2DE3
100
AcDbEntity
  8
0
 62
     0
100
AcDbLine
 10
-361.5000000000073
 20
-414.2641240289449
 30
0.0
 11
138.3974625438058
 21
-81.00000000000362
 31
0.0
  0
LINE
  5
2718
330
2DE3
100
AcDbEntity
  8
0
 62
     0
100
AcDbLine
 10
-361.5000000000073
 20
-411.2641574935296
 30
0.0
 11
133.8975012499213
 21
-81.00000000000182
 31
0.0
  0
LINE
  5
2719
330
2DE3
100
AcDbEntity
  8
0
 62
     0
100
AcDbLine
 10
-361.5000000000073
 20
-408.2641909581143
 30
0.0
 11
129.3975399560368
 21
-81.00000000000182
 31
0.0
  0
LINE
  5
271A
330
2DE3
100
AcDbEntity
  8
0
 62
     0
100
AcDbLine
 10
-361.5000000000073
 20
-405.2642244226972
 30
0.0
 11
124.8975786621522
 21
-81.00000000000182
 31
0.0
  0
LINE
  5
271B
330
2DE3
100
AcDbEntity
  8
0
 62
     0
100
AcDbLine
 10
-361.5000000000073
 20
-402.2642578872799
 30
0.0
 11
120.397617368264
 21
-81.00000000000362
 31
0.0
  0
LINE
  5
271C
330
2DE3
100
AcDbEntity
  8
0
 62
     0
100
AcDbLine
 10
-361.5000000000055
 20
-399.264291351863
 30
0.0
 11
115.8976560743795
 21
-81.00000000000362
 31
0.0
  0
LINE
  5
271D
330
2DE3
100
AcDbEntity
  8
0
 62
     0
100
AcDbLine
 10
-361.5000000000073
 20
-396.2643248164458
 30
0.0
 11
111.3976947804913
 21
-81.00000000000182
 31
0.0
  0
LINE
  5
271E
330
2DE3
100
AcDbEntity
  8
0
 62
     0
100
AcDbLine
 10
-361.5000000000073
 20
-393.2643582810324
 30
0.0
 11
106.8977334866085
 21
-81.00000000000182
 31
0.0
  0
LINE
  5
271F
330
2DE3
100
AcDbEntity
  8
0
 62
     0
100
AcDbLine
 10
-361.5000000000073
 20
-390.2643917456172
 30
0.0
 11
102.3977721927222
 21
-81.00000000000362
 31
0.0
  0
LINE
  5
2720
330
2DE3
100
AcDbEntity
  8
0
 62
     0
100
AcDbLine
 10
-361.5000000000073
 20
-387.2644252102
 30
0.0
 11
97.89781089883577
 21
-81.00000000000362
 31
0.0
  0
LINE
  5
2721
330
2DE3
100
AcDbEntity
  8
0
 62
     0
100
AcDbLine
 10
-361.5000000000091
 20
-384.2644586747829
 30
0.0
 11
93.39784960494762
 21
-81.00000000000362
 31
0.0
  0
LINE
  5
2722
330
2DE3
100
AcDbEntity
  8
0
 62
     0
100
AcDbLine
 10
-361.5000000000073
 20
-381.2644921393676
 30
0.0
 11
88.89788831106669
 21
-81.00000000000182
 31
0.0
  0
LINE
  5
2723
330
2DE3
100
AcDbEntity
  8
0
 62
     0
100
AcDbLine
 10
-361.5000000000091
 20
-378.2645256039505
 30
0.0
 11
84.39792701717852
 21
-81.00000000000182
 31
0.0
  0
LINE
  5
2724
330
2DE3
100
AcDbEntity
  8
0
 62
     0
100
AcDbLine
 10
-361.5000000000055
 20
-375.2645590685351
 30
0.0
 11
79.8979657232976
 21
-81.00000000000182
 31
0.0
  0
LINE
  5
2725
330
2DE3
100
AcDbEntity
  8
0
 62
     0
100
AcDbLine
 10
-361.5000000000073
 20
-372.264592533118
 30
0.0
 11
75.39800442940941
 21
-81.00000000000182
 31
0.0
  0
LINE
  5
2726
330
2DE3
100
AcDbEntity
  8
0
 62
     0
100
AcDbLine
 10
-361.5000000000055
 20
-369.2646259977028
 30
0.0
 11
70.89804313552486
 21
-81.00000000000362
 31
0.0
  0
LINE
  5
2727
330
2DE3
100
AcDbEntity
  8
0
 62
     0
100
AcDbLine
 10
-361.5000000000073
 20
-366.2646594622856
 30
0.0
 11
66.39808184163666
 21
-81.00000000000182
 31
0.0
  0
LINE
  5
2728
330
2DE3
100
AcDbEntity
  8
0
 62
     0
100
AcDbLine
 10
-361.5000000000073
 20
-363.2646929268704
 30
0.0
 11
61.89812054775029
 21
-81.00000000000362
 31
0.0
  0
LINE
  5
2729
330
2DE3
100
AcDbEntity
  8
0
 62
     0
100
AcDbLine
 10
-361.5000000000073
 20
-360.2647263914532
 30
0.0
 11
57.39815925386756
 21
-81.00000000000182
 31
0.0
  0
LINE
  5
272A
330
2DE3
100
AcDbEntity
  8
0
 62
     0
100
AcDbLine
 10
-361.5000000000073
 20
-357.2647598560361
 30
0.0
 11
52.89819795998118
 21
-81.00000000000182
 31
0.0
  0
LINE
  5
272B
330
2DE3
100
AcDbEntity
  8
0
 62
     0
100
AcDbLine
 10
-361.5000000000055
 20
-354.2647933206208
 30
0.0
 11
48.39823666609482
 21
-81.00000000000362
 31
0.0
  0
LINE
  5
272C
330
2DE3
100
AcDbEntity
  8
0
 62
     0
100
AcDbLine
 10
-361.5000000000073
 20
-351.2648267852055
 30
0.0
 11
43.89827537220845
 21
-81.00000000000362
 31
0.0
  0
LINE
  5
272D
330
2DE3
100
AcDbEntity
  8
0
 62
     0
100
AcDbLine
 10
-361.5000000000055
 20
-348.2648602497883
 30
0.0
 11
39.39831407832571
 21
-81.00000000000182
 31
0.0
  0
LINE
  5
272E
330
2DE3
100
AcDbEntity
  8
0
 62
     0
100
AcDbLine
 10
-361.5000000000073
 20
-345.2648937143713
 30
0.0
 11
34.89835278443933
 21
-81.00000000000182
 31
0.0
  0
LINE
  5
272F
330
2DE3
100
AcDbEntity
  8
0
 62
     0
100
AcDbLine
 10
-361.5000000000073
 20
-342.264927178956
 30
0.0
 11
30.39839149055115
 21
-81.00000000000362
 31
0.0
  0
LINE
  5
2730
330
2DE3
100
AcDbEntity
  8
0
 62
     0
100
AcDbLine
 10
-361.5000000000073
 20
-339.2649606435389
 30
0.0
 11
25.89843019667024
 21
-81.00000000000182
 31
0.0
  0
LINE
  5
2731
330
2DE3
100
AcDbEntity
  8
0
 62
     0
100
AcDbLine
 10
-361.5000000000073
 20
-336.2649941081236
 30
0.0
 11
21.39846890278204
 21
-81.00000000000182
 31
0.0
  0
LINE
  5
2732
330
2DE3
100
AcDbEntity
  8
0
 62
     0
100
AcDbLine
 10
-361.5000000000073
 20
-333.2650275727082
 30
0.0
 11
16.89850760889749
 21
-81.00000000000182
 31
0.0
  0
LINE
  5
2733
330
2DE3
100
AcDbEntity
  8
0
 62
     0
100
AcDbLine
 10
-361.5000000000073
 20
-330.2650610372929
 30
0.0
 11
12.3985463150093
 21
-81.00000000000362
 31
0.0
  0
LINE
  5
2734
330
2DE3
100
AcDbEntity
  8
0
 62
     0
100
AcDbLine
 10
-361.5000000000073
 20
-327.2650945018741
 30
0.0
 11
7.898585021126563
 21
-81.00000000000182
 31
0.0
  0
LINE
  5
2735
330
2DE3
100
AcDbEntity
  8
0
 62
     0
100
AcDbLine
 10
-361.5000000000073
 20
-324.2651279664606
 30
0.0
 11
3.39862372724019
 21
-81.00000000000362
 31
0.0
  0
LINE
  5
2736
330
2DE3
100
AcDbEntity
  8
0
 62
     0
100
AcDbLine
 10
-361.5000000000073
 20
-321.2651614310416
 30
0.0
 11
-1.101337566646179
 21
-81.00000000000182
 31
0.0
  0
LINE
  5
2737
330
2DE3
100
AcDbEntity
  8
0
 62
     0
100
AcDbLine
 10
-361.5000000000055
 20
-318.2651948956245
 30
0.0
 11
-5.601298860530731
 21
-81.00000000000182
 31
0.0
  0
LINE
  5
2738
330
2DE3
100
AcDbEntity
  8
0
 62
     0
100
AcDbLine
 10
-361.5000000000073
 20
-315.2652283602109
 30
0.0
 11
-10.10126015441528
 21
-81.00000000000182
 31
0.0
  0
LINE
  5
2739
330
2DE3
100
AcDbEntity
  8
0
 62
     0
100
AcDbLine
 10
-361.5000000000073
 20
-312.2652618247958
 30
0.0
 11
-14.60122144830348
 21
-81.00000000000362
 31
0.0
  0
LINE
  5
273A
330
2DE3
100
AcDbEntity
  8
0
 62
     0
100
AcDbLine
 10
-361.5000000000073
 20
-309.2652952893786
 30
0.0
 11
-19.10118274218803
 21
-81.00000000000362
 31
0.0
  0
LINE
  5
273B
330
2DE3
100
AcDbEntity
  8
0
 62
     0
100
AcDbLine
 10
-361.5000000000073
 20
-306.2653287539615
 30
0.0
 11
-23.6011440360744
 21
-81.00000000000182
 31
0.0
  0
LINE
  5
273C
330
2DE3
100
AcDbEntity
  8
0
 62
     0
100
AcDbLine
 10
-361.5000000000073
 20
-303.2653622185463
 30
0.0
 11
-28.10110532995714
 21
-81.00000000000182
 31
0.0
  0
LINE
  5
273D
330
2DE3
100
AcDbEntity
  8
0
 62
     0
100
AcDbLine
 10
-361.5000000000055
 20
-300.2653956831291
 30
0.0
 11
-32.60106662384533
 21
-81.00000000000182
 31
0.0
  0
LINE
  5
273E
330
2DE3
100
AcDbEntity
  8
0
 62
     0
100
AcDbLine
 10
-361.5000000000073
 20
-297.2654291477138
 30
0.0
 11
-37.10102791772988
 21
-81.00000000000362
 31
0.0
  0
LINE
  5
273F
330
2DE3
100
AcDbEntity
  8
0
 62
     0
100
AcDbLine
 10
-361.5000000000055
 20
-294.2654626122967
 30
0.0
 11
-41.6009892116144
 21
-81.00000000000182
 31
0.0
  0
LINE
  5
2740
330
2DE3
100
AcDbEntity
  8
0
 62
     0
100
AcDbLine
 10
-361.5000000000073
 20
-291.2654960768814
 30
0.0
 11
-46.10095050550079
 21
-81.00000000000182
 31
0.0
  0
LINE
  5
2741
330
2DE3
100
AcDbEntity
  8
0
 62
     0
100
AcDbLine
 10
-361.5000000000073
 20
-288.2655295414642
 30
0.0
 11
-50.60091179938718
 21
-81.00000000000182
 31
0.0
  0
LINE
  5
2742
330
2DE3
100
AcDbEntity
  8
0
 62
     0
100
AcDbLine
 10
-361.5000000000073
 20
-285.2655630060489
 30
0.0
 11
-55.10087309327353
 21
-81.00000000000362
 31
0.0
  0
LINE
  5
2743
330
2DE3
100
AcDbEntity
  8
0
 62
     0
100
AcDbLine
 10
-361.5000000000073
 20
-282.2655964706319
 30
0.0
 11
-59.60083438715628
 21
-81.00000000000182
 31
0.0
  0
LINE
  5
2744
330
2DE3
100
AcDbEntity
  8
0
 62
     0
100
AcDbLine
 10
-361.5000000000073
 20
-279.2656299352147
 30
0.0
 11
-64.10079568104265
 21
-81.00000000000182
 31
0.0
  0
LINE
  5
2745
330
2DE3
100
AcDbEntity
  8
0
 62
     0
100
AcDbLine
 10
-361.5000000000073
 20
-276.2656633997996
 30
0.0
 11
-68.60075697492722
 21
-81.00000000000182
 31
0.0
  0
LINE
  5
2746
330
2DE3
100
AcDbEntity
  8
0
 62
     0
100
AcDbLine
 10
-361.5000000000055
 20
-273.2656968643841
 30
0.0
 11
-73.10071826881537
 21
-81.00000000000362
 31
0.0
  0
LINE
  5
2747
330
2DE3
100
AcDbEntity
  8
0
 62
     0
100
AcDbLine
 10
-361.5000000000091
 20
-270.2657303289689
 30
0.0
 11
-77.60067956270178
 21
-81.00000000000362
 31
0.0
  0
LINE
  5
2748
330
2DE3
100
AcDbEntity
  8
0
 62
     0
100
AcDbLine
 10
-361.5000000000055
 20
-267.2657637935499
 30
0.0
 11
-82.1006408565845
 21
-81.00000000000182
 31
0.0
  0
LINE
  5
2749
330
2DE3
100
AcDbEntity
  8
0
 62
     0
100
AcDbLine
 10
-361.5000000000073
 20
-264.2657972581346
 30
0.0
 11
-86.60060215047087
 21
-81.00000000000362
 31
0.0
  0
LINE
  5
274A
330
2DE3
100
AcDbEntity
  8
0
 62
     0
100
AcDbLine
 10
-361.5000000000073
 20
-261.2658307227175
 30
0.0
 11
-91.10056344435543
 21
-81.0
 31
0.0
  0
LINE
  5
274B
330
2DE3
100
AcDbEntity
  8
0
 62
     0
100
AcDbLine
 10
-361.5000000000073
 20
-258.2658641873022
 30
0.0
 11
-95.6005247382418
 21
-81.00000000000182
 31
0.0
  0
LINE
  5
274C
330
2DE3
100
AcDbEntity
  8
0
 62
     0
100
AcDbLine
 10
-361.5000000000073
 20
-255.2658976518851
 30
0.0
 11
-100.1004860321281
 21
-81.00000000000182
 31
0.0
  0
LINE
  5
274D
330
2DE3
100
AcDbEntity
  8
0
 62
     0
100
AcDbLine
 10
-361.5000000000073
 20
-252.2659311164716
 30
0.0
 11
-104.6004473260127
 21
-81.00000000000362
 31
0.0
  0
LINE
  5
274E
330
2DE3
100
AcDbEntity
  8
0
 62
     0
100
AcDbLine
 10
-361.5000000000073
 20
-249.2659645810545
 30
0.0
 11
-109.1004086198973
 21
-81.00000000000182
 31
0.0
  0
LINE
  5
274F
330
2DE3
100
AcDbEntity
  8
0
 62
     0
100
AcDbLine
 10
-361.5000000000055
 20
-246.2659980456374
 30
0.0
 11
-113.6003699137836
 21
-81.00000000000182
 31
0.0
  0
LINE
  5
2750
330
2DE3
100
AcDbEntity
  8
0
 62
     0
100
AcDbLine
 10
-361.5000000000073
 20
-243.2660315102221
 30
0.0
 11
-118.10033120767
 21
-81.00000000000182
 31
0.0
  0
LINE
  5
2751
330
2DE3
100
AcDbEntity
  8
0
 62
     0
100
AcDbLine
 10
-361.5000000000073
 20
-240.2660649748032
 30
0.0
 11
-122.6002925015564
 21
-81.00000000000182
 31
0.0
  0
LINE
  5
2752
330
2DE3
100
AcDbEntity
  8
0
 62
     0
100
AcDbLine
 10
-361.5000000000055
 20
-237.2660984393897
 30
0.0
 11
-127.1002537954427
 21
-81.00000000000362
 31
0.0
  0
LINE
  5
2753
330
2DE3
100
AcDbEntity
  8
0
 62
     0
100
AcDbLine
 10
-361.5000000000073
 20
-234.2661319039744
 30
0.0
 11
-131.6002150893255
 21
-81.00000000000362
 31
0.0
  0
LINE
  5
2754
330
2DE3
100
AcDbEntity
  8
0
 62
     0
100
AcDbLine
 10
-361.5000000000055
 20
-231.2661653685573
 30
0.0
 11
-136.1001763832119
 21
-81.00000000000182
 31
0.0
  0
LINE
  5
2755
330
2DE3
100
AcDbEntity
  8
0
 62
     0
100
AcDbLine
 10
-361.5000000000073
 20
-228.2661988331402
 30
0.0
 11
-140.6001376770982
 21
-81.00000000000182
 31
0.0
  0
LINE
  5
2756
330
2DE3
100
AcDbEntity
  8
0
 62
     0
100
AcDbLine
 10
-361.5000000000073
 20
-225.2662322977248
 30
0.0
 11
-145.1000989709808
 21
-81.00000000000182
 31
0.0
  0
LINE
  5
2757
330
2DE3
100
AcDbEntity
  8
0
 62
     0
100
AcDbLine
 10
-361.5000000000073
 20
-222.2662657623077
 30
0.0
 11
-149.6000602648673
 21
-81.00000000000182
 31
0.0
  0
LINE
  5
2758
330
2DE3
100
AcDbEntity
  8
0
 62
     0
100
AcDbLine
 10
-361.5000000000073
 20
-219.2662992268925
 30
0.0
 11
-154.1000215587555
 21
-81.00000000000362
 31
0.0
  0
LINE
  5
2759
330
2DE3
100
AcDbEntity
  8
0
 62
     0
100
AcDbLine
 10
-361.5000000000073
 20
-216.2663326914753
 30
0.0
 11
-158.5999828526382
 21
-81.0
 31
0.0
  0
LINE
  5
275A
330
2DE3
100
AcDbEntity
  8
0
 62
     0
100
AcDbLine
 10
-361.5000000000073
 20
-213.26636615606
 30
0.0
 11
-163.0999441465246
 21
-81.00000000000182
 31
0.0
  0
LINE
  5
275B
330
2DE3
100
AcDbEntity
  8
0
 62
     0
100
AcDbLine
 10
-361.5000000000055
 20
-210.2663996206429
 30
0.0
 11
-167.5999054404091
 21
-81.00000000000182
 31
0.0
  0
LINE
  5
275C
330
2DE3
100
AcDbEntity
  8
0
 62
     0
100
AcDbLine
 10
-361.5000000000073
 20
-207.2664330852276
 30
0.0
 11
-172.0998667342974
 21
-81.00000000000362
 31
0.0
  0
LINE
  5
275D
330
2DE3
100
AcDbEntity
  8
0
 62
     0
100
AcDbLine
 10
-361.5000000000073
 20
-204.2664665498105
 30
0.0
 11
-176.5998280281837
 21
-81.00000000000362
 31
0.0
  0
LINE
  5
275E
330
2DE3
100
AcDbEntity
  8
0
 62
     0
100
AcDbLine
 10
-361.5000000000073
 20
-201.2665000143934
 30
0.0
 11
-181.0997893220665
 21
-81.0
 31
0.0
  0
LINE
  5
275F
330
2DE3
100
AcDbEntity
  8
0
 62
     0
100
AcDbLine
 10
-361.5000000000073
 20
-198.2665334789781
 30
0.0
 11
-185.5997506159529
 21
-81.00000000000182
 31
0.0
  0
LINE
  5
2760
330
2DE3
100
AcDbEntity
  8
0
 62
     0
100
AcDbLine
 10
-361.5000000000073
 20
-195.2665669435628
 30
0.0
 11
-190.0997119098392
 21
-81.00000000000362
 31
0.0
  0
LINE
  5
2761
330
2DE3
100
AcDbEntity
  8
0
 62
     0
100
AcDbLine
 10
-361.5000000000055
 20
-192.2666004081456
 30
0.0
 11
-194.5996732037256
 21
-81.00000000000362
 31
0.0
  0
LINE
  5
2762
330
2DE3
100
AcDbEntity
  8
0
 62
     0
100
AcDbLine
 10
-361.5000000000091
 20
-189.2666338727304
 30
0.0
 11
-199.0996344976101
 21
-81.00000000000182
 31
0.0
  0
LINE
  5
2763
330
2DE3
100
AcDbEntity
  8
0
 62
     0
100
AcDbLine
 10
-361.5000000000055
 20
-186.2666673373133
 30
0.0
 11
-203.5995957914947
 21
-81.00000000000182
 31
0.0
  0
LINE
  5
2764
330
2DE3
100
AcDbEntity
  8
0
 62
     0
100
AcDbLine
 10
-361.5000000000073
 20
-183.2667008018961
 30
0.0
 11
-208.0995570853829
 21
-81.00000000000182
 31
0.0
  0
LINE
  5
2765
330
2DE3
100
AcDbEntity
  8
0
 62
     0
100
AcDbLine
 10
-361.5000000000055
 20
-180.2667342664808
 30
0.0
 11
-212.5995183792638
 21
-81.00000000000182
 31
0.0
  0
LINE
  5
2766
330
2DE3
100
AcDbEntity
  8
0
 62
     0
100
AcDbLine
 10
-361.5000000000073
 20
-177.2667677310637
 30
0.0
 11
-217.099479673152
 21
-81.00000000000182
 31
0.0
  0
LINE
  5
2767
330
2DE3
100
AcDbEntity
  8
0
 62
     0
100
AcDbLine
 10
-361.5000000000055
 20
-174.2668011956501
 30
0.0
 11
-221.5994409670366
 21
-81.00000000000362
 31
0.0
  0
LINE
  5
2768
330
2DE3
100
AcDbEntity
  8
0
 62
     0
100
AcDbLine
 10
-361.5000000000073
 20
-171.2668346602331
 30
0.0
 11
-226.0994022609247
 21
-81.00000000000362
 31
0.0
  0
LINE
  5
2769
330
2DE3
100
AcDbEntity
  8
0
 62
     0
100
AcDbLine
 10
-361.5000000000091
 20
-168.2668681248178
 30
0.0
 11
-230.5993635548075
 21
-81.00000000000182
 31
0.0
  0
LINE
  5
276A
330
2DE3
100
AcDbEntity
  8
0
 62
     0
100
AcDbLine
 10
-361.5000000000073
 20
-165.2669015894007
 30
0.0
 11
-235.0993248486939
 21
-81.00000000000182
 31
0.0
  0
LINE
  5
276B
330
2DE3
100
AcDbEntity
  8
0
 62
     0
100
AcDbLine
 10
-361.5000000000091
 20
-162.2669350539836
 30
0.0
 11
-239.5992861425802
 21
-81.00000000000182
 31
0.0
  0
LINE
  5
276C
330
2DE3
100
AcDbEntity
  8
0
 62
     0
100
AcDbLine
 10
-361.5000000000055
 20
-159.2669685185665
 30
0.0
 11
-244.0992474364666
 21
-81.00000000000362
 31
0.0
  0
LINE
  5
276D
330
2DE3
100
AcDbEntity
  8
0
 62
     0
100
AcDbLine
 10
-361.5000000000091
 20
-156.267001983153
 30
0.0
 11
-248.5992087303493
 21
-81.00000000000182
 31
0.0
  0
LINE
  5
276E
330
2DE3
100
AcDbEntity
  8
0
 62
     0
100
AcDbLine
 10
-361.5000000000055
 20
-153.2670354477359
 30
0.0
 11
-253.0991700242357
 21
-81.00000000000182
 31
0.0
  0
LINE
  5
276F
330
2DE3
100
AcDbEntity
  8
0
 62
     0
100
AcDbLine
 10
-361.5000000000073
 20
-150.2670689123188
 30
0.0
 11
-257.5991313181221
 21
-81.00000000000182
 31
0.0
  0
LINE
  5
2770
330
2DE3
100
AcDbEntity
  8
0
 62
     0
100
AcDbLine
 10
-361.5000000000073
 20
-147.2671023769034
 30
0.0
 11
-262.0990926120103
 21
-81.00000000000362
 31
0.0
  0
LINE
  5
2771
330
2DE3
100
AcDbEntity
  8
0
 62
     0
100
AcDbLine
 10
-361.5000000000073
 20
-144.2671358414864
 30
0.0
 11
-266.5990539058912
 21
-81.00000000000182
 31
0.0
  0
LINE
  5
2772
330
2DE3
100
AcDbEntity
  8
0
 62
     0
100
AcDbLine
 10
-361.5000000000073
 20
-141.2671693060711
 30
0.0
 11
-271.0990151997793
 21
-81.00000000000362
 31
0.0
  0
LINE
  5
2773
330
2DE3
100
AcDbEntity
  8
0
 62
     0
100
AcDbLine
 10
-361.5000000000091
 20
-138.2672027706539
 30
0.0
 11
-275.5989764936659
 21
-81.00000000000182
 31
0.0
  0
LINE
  5
2774
330
2DE3
100
AcDbEntity
  8
0
 62
     0
100
AcDbLine
 10
-361.5000000000073
 20
-135.2672362352386
 30
0.0
 11
-280.0989377875485
 21
-81.00000000000182
 31
0.0
  0
LINE
  5
2775
330
2DE3
100
AcDbEntity
  8
0
 62
     0
100
AcDbLine
 10
-361.5000000000073
 20
-132.2672696998215
 30
0.0
 11
-284.5988990814348
 21
-81.00000000000182
 31
0.0
  0
LINE
  5
2776
330
2DE3
100
AcDbEntity
  8
0
 62
     0
100
AcDbLine
 10
-361.5000000000073
 20
-129.2673031644062
 30
0.0
 11
-289.0988603753212
 21
-81.00000000000362
 31
0.0
  0
LINE
  5
2777
330
2DE3
100
AcDbEntity
  8
0
 62
     0
100
AcDbLine
 10
-361.5000000000073
 20
-126.2673366289891
 30
0.0
 11
-293.5988216692076
 21
-81.00000000000362
 31
0.0
  0
LINE
  5
2778
330
2DE3
100
AcDbEntity
  8
0
 62
     0
100
AcDbLine
 10
-361.5000000000055
 20
-123.267370093572
 30
0.0
 11
-298.0987829630903
 21
-81.0
 31
0.0
  0
LINE
  5
2779
330
2DE3
100
AcDbEntity
  8
0
 62
     0
100
AcDbLine
 10
-361.5000000000073
 20
-120.2674035581567
 30
0.0
 11
-302.5987442569767
 21
-81.00000000000182
 31
0.0
  0
LINE
  5
277A
330
2DE3
100
AcDbEntity
  8
0
 62
     0
100
AcDbLine
 10
-361.5000000000073
 20
-117.2674370227414
 30
0.0
 11
-307.0987055508648
 21
-81.00000000000362
 31
0.0
  0
LINE
  5
277B
330
2DE3
100
AcDbEntity
  8
0
 62
     0
100
AcDbLine
 10
-361.5000000000073
 20
-114.2674704873243
 30
0.0
 11
-311.5986668447495
 21
-81.00000000000362
 31
0.0
  0
LINE
  5
277C
330
2DE3
100
AcDbEntity
  8
0
 62
     0
100
AcDbLine
 10
-361.5000000000073
 20
-111.267503951909
 30
0.0
 11
-316.0986281386358
 21
-81.00000000000362
 31
0.0
  0
LINE
  5
277D
330
2DE3
100
AcDbEntity
  8
0
 62
     0
100
AcDbLine
 10
-361.5000000000073
 20
-108.2675374164937
 30
0.0
 11
-320.5985894325185
 21
-81.00000000000182
 31
0.0
  0
LINE
  5
277E
330
2DE3
100
AcDbEntity
  8
0
 62
     0
100
AcDbLine
 10
-361.5000000000073
 20
-105.2675708810766
 30
0.0
 11
-325.0985507264068
 21
-81.00000000000362
 31
0.0
  0
LINE
  5
277F
330
2DE3
100
AcDbEntity
  8
0
 62
     0
100
AcDbLine
 10
-361.5000000000073
 20
-102.2676043456613
 30
0.0
 11
-329.5985120202877
 21
-81.00000000000182
 31
0.0
  0
LINE
  5
2780
330
2DE3
100
AcDbEntity
  8
0
 62
     0
100
AcDbLine
 10
-361.5000000000073
 20
-99.26763781024236
 30
0.0
 11
-334.098473314176
 21
-81.00000000000182
 31
0.0
  0
LINE
  5
2781
330
2DE3
100
AcDbEntity
  8
0
 62
     0
100
AcDbLine
 10
-361.5000000000073
 20
-96.26767127482708
 30
0.0
 11
-338.5984346080622
 21
-81.00000000000362
 31
0.0
  0
LINE
  5
2782
330
2DE3
100
AcDbEntity
  8
0
 62
     0
100
AcDbLine
 10
-361.5000000000073
 20
-93.26770473941177
 30
0.0
 11
-343.0983959019486
 21
-81.00000000000182
 31
0.0
  0
LINE
  5
2783
330
2DE3
100
AcDbEntity
  8
0
 62
     0
100
AcDbLine
 10
-361.5000000000073
 20
-90.26773820399649
 30
0.0
 11
-347.598357195835
 21
-81.00000000000362
 31
0.0
  0
LINE
  5
2784
330
2DE3
100
AcDbEntity
  8
0
 62
     0
100
AcDbLine
 10
-361.5000000000073
 20
-87.26777166857937
 30
0.0
 11
-352.0983184897177
 21
-81.00000000000182
 31
0.0
  0
LINE
  5
2785
330
2DE3
100
AcDbEntity
  8
0
 62
     0
100
AcDbLine
 10
-361.5000000000073
 20
-84.26780513316227
 30
0.0
 11
-356.598279783604
 21
-81.00000000000182
 31
0.0
  0
LINE
  5
2786
330
2DE3
100
AcDbEntity
  8
0
 62
     0
100
AcDbLine
 10
-361.5000000000091
 20
-81.26783859774693
 30
0.0
 11
-361.0982410774905
 21
-81.00000000000362
 31
0.0
  0
ENDBLK
  5
2787
330
2DE3
100
AcDbEntity
  8
0
100
AcDbBlockEnd
  0
BLOCK
  5
2DE6
330
2DE5
100
AcDbEntity
  8
0
100
AcDbBlockBegin
  2
*X69
 70
     1
 10
0.0
 20
0.0
 30
0.0
  3
*X69
  1

  0
LINE
  5
278A
330
2DE5
100
AcDbEntity
  8
0
 62
     0
100
AcDbLine
 10
-361.5000000000017
 20
-679.41630497192
 30
0.0
 11
-359.1244513918572
 21
-681.0000000000016
 31
0.0
  0
LINE
  5
278B
330
2DE5
100
AcDbEntity
  8
0
 62
     0
100
AcDbLine
 10
-361.5000000000017
 20
-676.4163384365047
 30
0.0
 11
-354.6244900979719
 21
-681.0000000000027
 31
0.0
  0
LINE
  5
278C
330
2DE5
100
AcDbEntity
  8
0
 62
     0
100
AcDbLine
 10
-361.5000000000017
 20
-673.4163719010877
 30
0.0
 11
-350.1245288040863
 21
-681.0000000000016
 31
0.0
  0
LINE
  5
278D
330
2DE5
100
AcDbEntity
  8
0
 62
     0
100
AcDbLine
 10
-361.5000000000037
 20
-670.4164053656714
 30
0.0
 11
-345.6245675102009
 21
-681.0000000000027
 31
0.0
  0
LINE
  5
278E
330
2DE5
100
AcDbEntity
  8
0
 62
     0
100
AcDbLine
 10
-361.5000000000037
 20
-667.4164388302544
 30
0.0
 11
-341.1246062163154
 21
-681.0000000000027
 31
0.0
  0
LINE
  5
278F
330
2DE5
100
AcDbEntity
  8
0
 62
     0
100
AcDbLine
 10
-361.5000000000037
 20
-664.416472294839
 30
0.0
 11
-336.62464492243
 21
-681.0000000000027
 31
0.0
  0
LINE
  5
2790
330
2DE5
100
AcDbEntity
  8
0
 62
     0
100
AcDbLine
 10
-361.5000000000026
 20
-661.4165057594227
 30
0.0
 11
-332.1246836285436
 21
-681.0000000000027
 31
0.0
  0
LINE
  5
2791
330
2DE5
100
AcDbEntity
  8
0
 62
     0
100
AcDbLine
 10
-361.5000000000026
 20
-658.4165392240073
 30
0.0
 11
-327.6247223346591
 21
-681.0000000000027
 31
0.0
  0
LINE
  5
2792
330
2DE5
100
AcDbEntity
  8
0
 62
     0
100
AcDbLine
 10
-361.5000000000026
 20
-655.4165726885903
 30
0.0
 11
-323.1247610407737
 21
-681.0000000000016
 31
0.0
  0
LINE
  5
2793
330
2DE5
100
AcDbEntity
  8
0
 62
     0
100
AcDbLine
 10
-361.5000000000026
 20
-652.4166061531732
 30
0.0
 11
-318.6247997468881
 21
-681.0000000000016
 31
0.0
  0
LINE
  5
2794
330
2DE5
100
AcDbEntity
  8
0
 62
     0
100
AcDbLine
 10
-361.5000000000026
 20
-649.4166396177575
 30
0.0
 11
-314.1248384530026
 21
-681.0000000000016
 31
0.0
  0
LINE
  5
2795
330
2DE5
100
AcDbEntity
  8
0
 62
     0
100
AcDbLine
 10
-361.5000000000017
 20
-646.4166730823416
 30
0.0
 11
-309.6248771591172
 21
-681.0000000000008
 31
0.0
  0
LINE
  5
2796
330
2DE5
100
AcDbEntity
  8
0
 62
     0
100
AcDbLine
 10
-361.5000000000026
 20
-643.4167065469255
 30
0.0
 11
-305.1249158652308
 21
-681.0000000000016
 31
0.0
  0
LINE
  5
2797
330
2DE5
100
AcDbEntity
  8
0
 62
     0
100
AcDbLine
 10
-361.5000000000017
 20
-640.4167400115092
 30
0.0
 11
-300.6249545713454
 21
-681.0000000000016
 31
0.0
  0
LINE
  5
2798
330
2DE5
100
AcDbEntity
  8
0
 62
     0
100
AcDbLine
 10
-361.5000000000026
 20
-637.4167734760931
 30
0.0
 11
-296.1249932774608
 21
-681.0000000000027
 31
0.0
  0
LINE
  5
2799
330
2DE5
100
AcDbEntity
  8
0
 62
     0
100
AcDbLine
 10
-361.5000000000026
 20
-634.416806940676
 30
0.0
 11
-291.6250319835744
 21
-681.0000000000016
 31
0.0
  0
LINE
  5
279A
330
2DE5
100
AcDbEntity
  8
0
 62
     0
100
AcDbLine
 10
-361.5000000000026
 20
-631.4168404052614
 30
0.0
 11
-287.1250706896899
 21
-681.0000000000027
 31
0.0
  0
LINE
  5
279B
330
2DE5
100
AcDbEntity
  8
0
 62
     0
100
AcDbLine
 10
-361.5000000000017
 20
-628.4168738698443
 30
0.0
 11
-282.6251093958026
 21
-681.0000000000016
 31
0.0
  0
LINE
  5
279C
330
2DE5
100
AcDbEntity
  8
0
 62
     0
100
AcDbLine
 10
-361.5000000000017
 20
-625.4169073344292
 30
0.0
 11
-278.1251481019181
 21
-681.0000000000027
 31
0.0
  0
LINE
  5
279D
330
2DE5
100
AcDbEntity
  8
0
 62
     0
100
AcDbLine
 10
-361.5000000000017
 20
-622.4169407990118
 30
0.0
 11
-273.6251868080317
 21
-681.0000000000027
 31
0.0
  0
LINE
  5
279E
330
2DE5
100
AcDbEntity
  8
0
 62
     0
100
AcDbLine
 10
-361.5000000000017
 20
-619.4169742635964
 30
0.0
 11
-269.1252255141471
 21
-681.0000000000027
 31
0.0
  0
LINE
  5
279F
330
2DE5
100
AcDbEntity
  8
0
 62
     0
100
AcDbLine
 10
-361.5000000000017
 20
-616.4170077281803
 30
0.0
 11
-264.6252642202626
 21
-681.0000000000016
 31
0.0
  0
LINE
  5
27A0
330
2DE5
100
AcDbEntity
  8
0
 62
     0
100
AcDbLine
 10
-361.5000000000017
 20
-613.4170411927633
 30
0.0
 11
-260.1253029263762
 21
-681.0000000000008
 31
0.0
  0
LINE
  5
27A1
330
2DE5
100
AcDbEntity
  8
0
 62
     0
100
AcDbLine
 10
-361.5000000000026
 20
-610.4170746573473
 30
0.0
 11
-255.6253416324907
 21
-681.0000000000016
 31
0.0
  0
LINE
  5
27A2
330
2DE5
100
AcDbEntity
  8
0
 62
     0
100
AcDbLine
 10
-361.5000000000026
 20
-607.4171081219301
 30
0.0
 11
-251.1253803386053
 21
-681.0
 31
0.0
  0
LINE
  5
27A3
330
2DE5
100
AcDbEntity
  8
0
 62
     0
100
AcDbLine
 10
-361.5000000000026
 20
-604.4171415865148
 30
0.0
 11
-246.6254190447197
 21
-681.0000000000016
 31
0.0
  0
LINE
  5
27A4
330
2DE5
100
AcDbEntity
  8
0
 62
     0
100
AcDbLine
 10
-361.5000000000026
 20
-601.4171750510976
 30
0.0
 11
-242.1254577508344
 21
-681.0000000000008
 31
0.0
  0
LINE
  5
27A5
330
2DE5
100
AcDbEntity
  8
0
 62
     0
100
AcDbLine
 10
-361.5000000000026
 20
-598.4172085156833
 30
0.0
 11
-237.6254964569489
 21
-681.0000000000016
 31
0.0
  0
LINE
  5
27A6
330
2DE5
100
AcDbEntity
  8
0
 62
     0
100
AcDbLine
 10
-361.5000000000026
 20
-595.4172419802662
 30
0.0
 11
-233.1255351630625
 21
-681.0000000000016
 31
0.0
  0
LINE
  5
27A7
330
2DE5
100
AcDbEntity
  8
0
 62
     0
100
AcDbLine
 10
-361.5000000000017
 20
-592.4172754448508
 30
0.0
 11
-228.6255738691771
 21
-681.0000000000027
 31
0.0
  0
LINE
  5
27A8
330
2DE5
100
AcDbEntity
  8
0
 62
     0
100
AcDbLine
 10
-361.5000000000017
 20
-589.4173089094334
 30
0.0
 11
-224.1256125752907
 21
-681.0000000000016
 31
0.0
  0
LINE
  5
27A9
330
2DE5
100
AcDbEntity
  8
0
 62
     0
100
AcDbLine
 10
-361.5000000000017
 20
-586.4173423740185
 30
0.0
 11
-219.6256512814061
 21
-681.0000000000027
 31
0.0
  0
LINE
  5
27AA
330
2DE5
100
AcDbEntity
  8
0
 62
     0
100
AcDbLine
 10
-361.5000000000026
 20
-583.4173758386014
 30
0.0
 11
-215.1256899875197
 21
-681.0000000000016
 31
0.0
  0
LINE
  5
27AB
330
2DE5
100
AcDbEntity
  8
0
 62
     0
100
AcDbLine
 10
-361.5000000000026
 20
-580.4174093031861
 30
0.0
 11
-210.6257286936352
 21
-681.0000000000027
 31
0.0
  0
LINE
  5
27AC
330
2DE5
100
AcDbEntity
  8
0
 62
     0
100
AcDbLine
 10
-361.5000000000026
 20
-577.417442767769
 30
0.0
 11
-206.1257673997488
 21
-681.0000000000027
 31
0.0
  0
LINE
  5
27AD
330
2DE5
100
AcDbEntity
  8
0
 62
     0
100
AcDbLine
 10
-361.5000000000017
 20
-574.4174762323519
 30
0.0
 11
-201.6258061058652
 21
-681.0
 31
0.0
  0
LINE
  5
27AE
330
2DE5
100
AcDbEntity
  8
0
 62
     0
100
AcDbLine
 10
-361.5000000000017
 20
-571.4175096969363
 30
0.0
 11
-197.1258448119788
 21
-681.0000000000016
 31
0.0
  0
LINE
  5
27AF
330
2DE5
100
AcDbEntity
  8
0
 62
     0
100
AcDbLine
 10
-361.5000000000017
 20
-568.4175431615201
 30
0.0
 11
-192.6258835180951
 21
-680.9999999999988
 31
0.0
  0
LINE
  5
27B0
330
2DE5
100
AcDbEntity
  8
0
 62
     0
100
AcDbLine
 10
-361.5000000000017
 20
-565.4175766261048
 30
0.0
 11
-188.1259222242088
 21
-681.0000000000008
 31
0.0
  0
LINE
  5
27B1
330
2DE5
100
AcDbEntity
  8
0
 62
     0
100
AcDbLine
 10
-361.5000000000037
 20
-562.417610090687
 30
0.0
 11
-183.6259609303233
 21
-681.0000000000008
 31
0.0
  0
LINE
  5
27B2
330
2DE5
100
AcDbEntity
  8
0
 62
     0
100
AcDbLine
 10
-361.5000000000017
 20
-559.4176435552725
 30
0.0
 11
-179.125999636437
 21
-681.0000000000016
 31
0.0
  0
LINE
  5
27B3
330
2DE5
100
AcDbEntity
  8
0
 62
     0
100
AcDbLine
 10
-361.5000000000026
 20
-556.4176770198546
 30
0.0
 11
-174.6260383425524
 21
-681.0
 31
0.0
  0
LINE
  5
27B4
330
2DE5
100
AcDbEntity
  8
0
 62
     0
100
AcDbLine
 10
-361.5000000000009
 20
-553.417710484441
 30
0.0
 11
-170.1260770486669
 21
-681.0000000000008
 31
0.0
  0
LINE
  5
27B5
330
2DE5
100
AcDbEntity
  8
0
 62
     0
100
AcDbLine
 10
-361.5000000000026
 20
-550.4177439490231
 30
0.0
 11
-165.6261157547806
 21
-681.0000000000008
 31
0.0
  0
LINE
  5
27B6
330
2DE5
100
AcDbEntity
  8
0
 62
     0
100
AcDbLine
 10
-361.5000000000026
 20
-547.4177774136078
 30
0.0
 11
-161.1261544608941
 21
-681.0000000000027
 31
0.0
  0
LINE
  5
27B7
330
2DE5
100
AcDbEntity
  8
0
 62
     0
100
AcDbLine
 10
-361.5000000000026
 20
-544.4178108781905
 30
0.0
 11
-156.6261931670078
 21
-681.0000000000016
 31
0.0
  0
LINE
  5
27B8
330
2DE5
100
AcDbEntity
  8
0
 62
     0
100
AcDbLine
 10
-361.5000000000026
 20
-541.4178443427752
 30
0.0
 11
-152.1262318731251
 21
-681.0000000000016
 31
0.0
  0
LINE
  5
27B9
330
2DE5
100
AcDbEntity
  8
0
 62
     0
100
AcDbLine
 10
-361.5000000000017
 20
-538.4178778073581
 30
0.0
 11
-147.6262705792378
 21
-681.0000000000008
 31
0.0
  0
LINE
  5
27BA
330
2DE5
100
AcDbEntity
  8
0
 62
     0
100
AcDbLine
 10
-361.5000000000017
 20
-535.4179112719418
 30
0.0
 11
-143.1263092853514
 21
-681.0000000000008
 31
0.0
  0
LINE
  5
27BB
330
2DE5
100
AcDbEntity
  8
0
 62
     0
100
AcDbLine
 10
-361.5000000000017
 20
-532.4179447365268
 30
0.0
 11
-138.6263479914687
 21
-681.0000000000008
 31
0.0
  0
LINE
  5
27BC
330
2DE5
100
AcDbEntity
  8
0
 62
     0
100
AcDbLine
 10
-361.5000000000017
 20
-529.4179782011097
 30
0.0
 11
-134.1263866975823
 21
-681.0
 31
0.0
  0
LINE
  5
27BD
330
2DE5
100
AcDbEntity
  8
0
 62
     0
100
AcDbLine
 10
-361.5000000000017
 20
-526.4180116656944
 30
0.0
 11
-129.626425403696
 21
-681.0000000000016
 31
0.0
  0
LINE
  5
27BE
330
2DE5
100
AcDbEntity
  8
0
 62
     0
100
AcDbLine
 10
-361.5000000000026
 20
-523.4180451302762
 30
0.0
 11
-125.1264641098123
 21
-680.9999999999988
 31
0.0
  0
LINE
  5
27BF
330
2DE5
100
AcDbEntity
  8
0
 62
     0
100
AcDbLine
 10
-361.5000000000017
 20
-520.4180785948619
 30
0.0
 11
-120.6265028159259
 21
-681.0000000000008
 31
0.0
  0
LINE
  5
27C0
330
2DE5
100
AcDbEntity
  8
0
 62
     0
100
AcDbLine
 10
-361.5000000000017
 20
-517.4181120594449
 30
0.0
 11
-116.1265415220396
 21
-681.0000000000008
 31
0.0
  0
LINE
  5
27C1
330
2DE5
100
AcDbEntity
  8
0
 62
     0
100
AcDbLine
 10
-361.5000000000017
 20
-514.4181455240294
 30
0.0
 11
-111.6265802281532
 21
-681.0000000000016
 31
0.0
  0
LINE
  5
27C2
330
2DE5
100
AcDbEntity
  8
0
 62
     0
100
AcDbLine
 10
-361.5000000000017
 20
-511.4181789886122
 30
0.0
 11
-107.1266189342668
 21
-681.0000000000016
 31
0.0
  0
LINE
  5
27C3
330
2DE5
100
AcDbEntity
  8
0
 62
     0
100
AcDbLine
 10
-361.5000000000017
 20
-508.4182124531968
 30
0.0
 11
-102.6266576403841
 21
-681.0000000000008
 31
0.0
  0
LINE
  5
27C4
330
2DE5
100
AcDbEntity
  8
0
 62
     0
100
AcDbLine
 10
-361.5000000000009
 20
-505.4182459177808
 30
0.0
 11
-98.12669634649685
 21
-681.0000000000008
 31
0.0
  0
LINE
  5
27C5
330
2DE5
100
AcDbEntity
  8
0
 62
     0
100
AcDbLine
 10
-361.5000000000009
 20
-502.4182793823656
 30
0.0
 11
-93.62673505261044
 21
-681.0000000000027
 31
0.0
  0
LINE
  5
27C6
330
2DE5
100
AcDbEntity
  8
0
 62
     0
100
AcDbLine
 10
-361.5000000000009
 20
-499.4183128469485
 30
0.0
 11
-89.12677375872409
 21
-681.0000000000016
 31
0.0
  0
LINE
  5
27C7
330
2DE5
100
AcDbEntity
  8
0
 62
     0
100
AcDbLine
 10
-361.5000000000026
 20
-496.4183463115305
 30
0.0
 11
-84.62681246484136
 21
-681.0
 31
0.0
  0
LINE
  5
27C8
330
2DE5
100
AcDbEntity
  8
0
 62
     0
100
AcDbLine
 10
-361.5000000000026
 20
-493.4183797761152
 30
0.0
 11
-80.12685117095498
 21
-681.0000000000008
 31
0.0
  0
LINE
  5
27C9
330
2DE5
100
AcDbEntity
  8
0
 62
     0
100
AcDbLine
 10
-361.5000000000026
 20
-490.4184132406981
 30
0.0
 11
-75.62688987707224
 21
-680.9999999999988
 31
0.0
  0
LINE
  5
27CA
330
2DE5
100
AcDbEntity
  8
0
 62
     0
100
AcDbLine
 10
-361.5000000000017
 20
-487.4184467052836
 30
0.0
 11
-71.12692858318496
 21
-681.0000000000008
 31
0.0
  0
LINE
  5
27CB
330
2DE5
100
AcDbEntity
  8
0
 62
     0
100
AcDbLine
 10
-361.5000000000017
 20
-484.4184801698665
 30
0.0
 11
-66.62696728929859
 21
-681.0
 31
0.0
  0
LINE
  5
27CC
330
2DE5
100
AcDbEntity
  8
0
 62
     0
100
AcDbLine
 10
-361.5000000000017
 20
-481.4185136344512
 30
0.0
 11
-62.12700599541221
 21
-681.0000000000016
 31
0.0
  0
LINE
  5
27CD
330
2DE5
100
AcDbEntity
  8
0
 62
     0
100
AcDbLine
 10
-361.5000000000017
 20
-478.4185470990339
 30
0.0
 11
-57.62704470152584
 21
-681.0000000000016
 31
0.0
  0
LINE
  5
27CE
330
2DE5
100
AcDbEntity
  8
0
 62
     0
100
AcDbLine
 10
-361.5000000000026
 20
-475.4185805636179
 30
0.0
 11
-53.12708340764309
 21
-681.0000000000008
 31
0.0
  0
LINE
  5
27CF
330
2DE5
100
AcDbEntity
  8
0
 62
     0
100
AcDbLine
 10
-361.5000000000017
 20
-472.4186140282025
 30
0.0
 11
-48.62712211375674
 21
-681.0000000000008
 31
0.0
  0
LINE
  5
27D0
330
2DE5
100
AcDbEntity
  8
0
 62
     0
100
AcDbLine
 10
-361.5000000000009
 20
-469.4186474927874
 30
0.0
 11
-44.12716081986945
 21
-681.0000000000016
 31
0.0
  0
LINE
  5
27D1
330
2DE5
100
AcDbEntity
  8
0
 62
     0
100
AcDbLine
 10
-361.5000000000009
 20
-466.4186809573703
 30
0.0
 11
-39.62719952598309
 21
-681.0000000000016
 31
0.0
  0
LINE
  5
27D2
330
2DE5
100
AcDbEntity
  8
0
 62
     0
100
AcDbLine
 10
-361.5000000000017
 20
-463.4187144219541
 30
0.0
 11
-35.12723823210035
 21
-681.0000000000008
 31
0.0
  0
LINE
  5
27D3
330
2DE5
100
AcDbEntity
  8
0
 62
     0
100
AcDbLine
 10
-361.5000000000017
 20
-460.4187478865369
 30
0.0
 11
-30.62727693821398
 21
-681.0000000000008
 31
0.0
  0
LINE
  5
27D4
330
2DE5
100
AcDbEntity
  8
0
 62
     0
100
AcDbLine
 10
-361.5000000000017
 20
-457.4187813511223
 30
0.0
 11
-26.12731564432761
 21
-681.0000000000027
 31
0.0
  0
LINE
  5
27D5
330
2DE5
100
AcDbEntity
  8
0
 62
     0
100
AcDbLine
 10
-361.5000000000017
 20
-454.4188148157052
 30
0.0
 11
-21.62735435044488
 21
-681.0
 31
0.0
  0
LINE
  5
27D6
330
2DE5
100
AcDbEntity
  8
0
 62
     0
100
AcDbLine
 10
-361.5000000000009
 20
-451.4188482802881
 30
0.0
 11
-17.12739305655759
 21
-681.0
 31
0.0
  0
LINE
  5
27D7
330
2DE5
100
AcDbEntity
  8
0
 62
     0
100
AcDbLine
 10
-361.5000000000009
 20
-448.4188817448729
 30
0.0
 11
-12.62743176267122
 21
-681.0000000000016
 31
0.0
  0
LINE
  5
27D8
330
2DE5
100
AcDbEntity
  8
0
 62
     0
100
AcDbLine
 10
-361.5000000000009
 20
-445.4189152094559
 30
0.0
 11
-8.127470468784851
 21
-681.0000000000008
 31
0.0
  0
LINE
  5
27D9
330
2DE5
100
AcDbEntity
  8
0
 62
     0
100
AcDbLine
 10
-361.5000000000009
 20
-442.4189486740415
 30
0.0
 11
-3.627509174902112
 21
-681.0000000000008
 31
0.0
  0
LINE
  5
27DA
330
2DE5
100
AcDbEntity
  8
0
 62
     0
100
AcDbLine
 10
-361.5000000000009
 20
-439.4189821386243
 30
0.0
 11
0.8724521189842562
 21
-681.0
 31
0.0
  0
LINE
  5
27DB
330
2DE5
100
AcDbEntity
  8
0
 62
     0
100
AcDbLine
 10
-361.5000000000026
 20
-436.4190156032081
 30
0.0
 11
5.372413412870628
 21
-681.0000000000016
 31
0.0
  0
LINE
  5
27DC
330
2DE5
100
AcDbEntity
  8
0
 62
     0
100
AcDbLine
 10
-361.5000000000017
 20
-433.4190490677911
 30
0.0
 11
9.872374706757
 21
-681.0000000000016
 31
0.0
  0
LINE
  5
27DD
330
2DE5
100
AcDbEntity
  8
0
 62
     0
100
AcDbLine
 10
-361.5000000000017
 20
-430.4190825323757
 30
0.0
 11
14.37233600064064
 21
-681.0000000000008
 31
0.0
  0
LINE
  5
27DE
330
2DE5
100
AcDbEntity
  8
0
 62
     0
100
AcDbLine
 10
-361.5000000000017
 20
-427.4191159969586
 30
0.0
 11
18.87229729452701
 21
-681.0000000000008
 31
0.0
  0
LINE
  5
27DF
330
2DE5
100
AcDbEntity
  8
0
 62
     0
100
AcDbLine
 10
-361.5000000000017
 20
-424.4191494615439
 30
0.0
 11
23.37225858841339
 21
-681.0000000000016
 31
0.0
  0
LINE
  5
27E0
330
2DE5
100
AcDbEntity
  8
0
 62
     0
100
AcDbLine
 10
-361.5000000000017
 20
-421.419182926127
 30
0.0
 11
27.87221988229885
 21
-681.0000000000016
 31
0.0
  0
LINE
  5
27E1
330
2DE5
100
AcDbEntity
  8
0
 62
     0
100
AcDbLine
 10
-361.5000000000017
 20
-418.4192163907118
 30
0.0
 11
32.3721811761825
 21
-681.0000000000008
 31
0.0
  0
LINE
  5
27E2
330
2DE5
100
AcDbEntity
  8
0
 62
     0
100
AcDbLine
 10
-361.5000000000009
 20
-415.4192498552947
 30
0.0
 11
36.87214247006977
 21
-681.0000000000008
 31
0.0
  0
LINE
  5
27E3
330
2DE5
100
AcDbEntity
  8
0
 62
     0
100
AcDbLine
 10
-361.5000000000009
 20
-412.4192833198783
 30
0.0
 11
41.37210376395524
 21
-681.0000000000008
 31
0.0
  0
LINE
  5
27E4
330
2DE5
100
AcDbEntity
  8
0
 62
     0
100
AcDbLine
 10
-361.5000000000017
 20
-409.4193167844623
 30
0.0
 11
45.87206505783888
 21
-681.0
 31
0.0
  0
LINE
  5
27E5
330
2DE5
100
AcDbEntity
  8
0
 62
     0
100
AcDbLine
 10
-361.5000000000017
 20
-406.4193502490452
 30
0.0
 11
50.37202635172525
 21
-681.0
 31
0.0
  0
LINE
  5
27E6
330
2DE5
100
AcDbEntity
  8
0
 62
     0
100
AcDbLine
 10
-361.5000000000017
 20
-403.4193837136298
 30
0.0
 11
54.87198764561163
 21
-681.0000000000016
 31
0.0
  0
LINE
  5
27E7
330
2DE5
100
AcDbEntity
  8
0
 62
     0
100
AcDbLine
 10
-361.5000000000017
 20
-400.4194171782128
 30
0.0
 11
59.37194893949708
 21
-681.0000000000008
 31
0.0
  0
LINE
  5
27E8
330
2DE5
100
AcDbEntity
  8
0
 62
     0
100
AcDbLine
 10
-361.5000000000009
 20
-397.4194506427975
 30
0.0
 11
63.87191023338164
 21
-681.0000000000008
 31
0.0
  0
LINE
  5
27E9
330
2DE5
100
AcDbEntity
  8
0
 62
     0
100
AcDbLine
 10
-361.5000000000009
 20
-394.4194841073813
 30
0.0
 11
68.37187152726801
 21
-681.0
 31
0.0
  0
LINE
  5
27EA
330
2DE5
100
AcDbEntity
  8
0
 62
     0
100
AcDbLine
 10
-361.5000000000009
 20
-391.419517571966
 30
0.0
 11
72.87183282115347
 21
-681.0000000000016
 31
0.0
  0
LINE
  5
27EB
330
2DE5
100
AcDbEntity
  8
0
 62
     0
100
AcDbLine
 10
-361.5000000000009
 20
-388.4195510365488
 30
0.0
 11
77.37179411503982
 21
-681.0000000000016
 31
0.0
  0
LINE
  5
27EC
330
2DE5
100
AcDbEntity
  8
0
 62
     0
100
AcDbLine
 10
-361.5000000000009
 20
-385.4195845011337
 30
0.0
 11
81.87175540892623
 21
-681.0000000000027
 31
0.0
  0
LINE
  5
27ED
330
2DE5
100
AcDbEntity
  8
0
 62
     0
100
AcDbLine
 10
-361.5000000000009
 20
-382.4196179657165
 30
0.0
 11
86.37171670280986
 21
-681.0000000000008
 31
0.0
  0
LINE
  5
27EE
330
2DE5
100
AcDbEntity
  8
0
 62
     0
100
AcDbLine
 10
-361.5
 20
-379.419651430302
 30
0.0
 11
90.87167799669627
 21
-681.0000000000016
 31
0.0
  0
LINE
  5
27EF
330
2DE5
100
AcDbEntity
  8
0
 62
     0
100
AcDbLine
 10
-361.5000000000017
 20
-376.419684894884
 30
0.0
 11
95.37163929057985
 21
-681.0
 31
0.0
  0
LINE
  5
27F0
330
2DE5
100
AcDbEntity
  8
0
 62
     0
100
AcDbLine
 10
-361.5000000000017
 20
-373.4197183594671
 30
0.0
 11
99.87160058446626
 21
-681.0
 31
0.0
  0
LINE
  5
27F1
330
2DE5
100
AcDbEntity
  8
0
 62
     0
100
AcDbLine
 10
-361.5000000000017
 20
-370.4197518240517
 30
0.0
 11
104.3715618783517
 21
-681.0000000000008
 31
0.0
  0
LINE
  5
27F2
330
2DE5
100
AcDbEntity
  8
0
 62
     0
100
AcDbLine
 10
-361.5000000000017
 20
-367.4197852886345
 30
0.0
 11
108.8715231722381
 21
-681.0000000000008
 31
0.0
  0
LINE
  5
27F3
330
2DE5
100
AcDbEntity
  8
0
 62
     0
100
AcDbLine
 10
-361.5000000000009
 20
-364.4198187532202
 30
0.0
 11
113.3714844661226
 21
-681.0
 31
0.0
  0
LINE
  5
27F4
330
2DE5
100
AcDbEntity
  8
0
 62
     0
100
AcDbLine
 10
-361.5000000000009
 20
-361.4198522178031
 30
0.0
 11
117.871445760009
 21
-681.0
 31
0.0
  0
LINE
  5
27F5
330
2DE5
100
AcDbEntity
  8
0
 62
     0
100
AcDbLine
 10
-361.5000000000009
 20
-358.4198856823879
 30
0.0
 11
122.3714070538935
 21
-681.0000000000008
 31
0.0
  0
LINE
  5
27F6
330
2DE5
100
AcDbEntity
  8
0
 62
     0
100
AcDbLine
 10
-361.5000000000009
 20
-355.4199191469706
 30
0.0
 11
126.8713683477799
 21
-681.0
 31
0.0
  0
LINE
  5
27F7
330
2DE5
100
AcDbEntity
  8
0
 62
     0
100
AcDbLine
 10
-361.5000000000009
 20
-352.4199526115554
 30
0.0
 11
131.3713296416654
 21
-681.0000000000016
 31
0.0
  0
LINE
  5
27F8
330
2DE5
100
AcDbEntity
  8
0
 62
     0
100
AcDbLine
 10
-361.5000000000017
 20
-349.4199860761373
 30
0.0
 11
135.8712909355498
 21
-681.0
 31
0.0
  0
LINE
  5
27F9
330
2DE5
100
AcDbEntity
  8
0
 62
     0
100
AcDbLine
 10
-361.5000000000009
 20
-346.4200195407229
 30
0.0
 11
140.3712522294372
 21
-681.0000000000016
 31
0.0
  0
LINE
  5
27FA
330
2DE5
100
AcDbEntity
  8
0
 62
     0
100
AcDbLine
 10
-361.5000000000009
 20
-343.4200530053058
 30
0.0
 11
144.8712135233218
 21
-681.0000000000008
 31
0.0
  0
LINE
  5
27FB
330
2DE5
100
AcDbEntity
  8
0
 62
     0
100
AcDbLine
 10
-361.5000000000009
 20
-340.4200864698905
 30
0.0
 11
149.3711748172072
 21
-681.0000000000008
 31
0.0
  0
LINE
  5
27FC
330
2DE5
100
AcDbEntity
  8
0
 62
     0
100
AcDbLine
 10
-361.5000000000009
 20
-337.4201199344734
 30
0.0
 11
153.8711361110918
 21
-681.0
 31
0.0
  0
LINE
  5
27FD
330
2DE5
100
AcDbEntity
  8
0
 62
     0
100
AcDbLine
 10
-361.5000000000009
 20
-334.4201533990562
 30
0.0
 11
158.3710974049781
 21
-680.9999999999988
 31
0.0
  0
LINE
  5
27FE
330
2DE5
100
AcDbEntity
  8
0
 62
     0
100
AcDbLine
 10
-361.5000000000009
 20
-331.4201868636419
 30
0.0
 11
162.8710586988627
 21
-681.0
 31
0.0
  0
LINE
  5
27FF
330
2DE5
100
AcDbEntity
  8
0
 62
     0
100
AcDbLine
 10
-361.5000000000017
 20
-328.4202203282239
 30
0.0
 11
167.3710199927491
 21
-681.0
 31
0.0
  0
LINE
  5
2800
330
2DE5
100
AcDbEntity
  8
0
 62
     0
100
AcDbLine
 10
-361.5
 20
-325.4202537928095
 30
0.0
 11
171.8709812866344
 21
-681.0
 31
0.0
  0
LINE
  5
2801
330
2DE5
100
AcDbEntity
  8
0
 62
     0
100
AcDbLine
 10
-361.5000000000017
 20
-322.4202872573915
 30
0.0
 11
176.37094258052
 21
-681.0
 31
0.0
  0
LINE
  5
2802
330
2DE5
100
AcDbEntity
  8
0
 62
     0
100
AcDbLine
 10
-361.5000000000017
 20
-319.4203207219762
 30
0.0
 11
180.8709038744064
 21
-681.0000000000008
 31
0.0
  0
LINE
  5
2803
330
2DE5
100
AcDbEntity
  8
0
 62
     0
100
AcDbLine
 10
-361.5000000000017
 20
-316.42035418656
 30
0.0
 11
185.3708651682908
 21
-681.0
 31
0.0
  0
LINE
  5
2804
330
2DE5
100
AcDbEntity
  8
0
 62
     0
100
AcDbLine
 10
-361.5000000000017
 20
-313.4203876511449
 30
0.0
 11
189.8708264621772
 21
-681.0000000000016
 31
0.0
  0
LINE
  5
2805
330
2DE5
100
AcDbEntity
  8
0
 62
     0
100
AcDbLine
 10
-361.5000000000009
 20
-310.4204211157275
 30
0.0
 11
194.3707877560628
 21
-681.0
 31
0.0
  0
LINE
  5
2806
330
2DE5
100
AcDbEntity
  8
0
 62
     0
100
AcDbLine
 10
-361.5000000000009
 20
-307.4204545803123
 30
0.0
 11
198.8707490499491
 21
-681.0000000000016
 31
0.0
  0
LINE
  5
2807
330
2DE5
100
AcDbEntity
  8
0
 62
     0
100
AcDbLine
 10
-361.5000000000009
 20
-304.4204880448952
 30
0.0
 11
203.3707103438337
 21
-681.0
 31
0.0
  0
LINE
  5
2808
330
2DE5
100
AcDbEntity
  8
0
 62
     0
100
AcDbLine
 10
-361.5000000000017
 20
-301.420521509479
 30
0.0
 11
207.8706716377183
 21
-681.0000000000008
 31
0.0
  0
LINE
  5
2809
330
2DE5
100
AcDbEntity
  8
0
 62
     0
100
AcDbLine
 10
-361.5000000000009
 20
-298.4205549740636
 30
0.0
 11
212.3706329316037
 21
-681.0
 31
0.0
  0
LINE
  5
280A
330
2DE5
100
AcDbEntity
  8
0
 62
     0
100
AcDbLine
 10
-361.5000000000017
 20
-295.4205884386456
 30
0.0
 11
216.8705942254892
 21
-680.9999999999988
 31
0.0
  0
LINE
  5
280B
330
2DE5
100
AcDbEntity
  8
0
 62
     0
100
AcDbLine
 10
-361.5000000000009
 20
-292.4206219032303
 30
0.0
 11
221.3705555193755
 21
-681.0
 31
0.0
  0
LINE
  5
280C
330
2DE5
100
AcDbEntity
  8
0
 62
     0
100
AcDbLine
 10
-361.5000000000009
 20
-289.4206553678132
 30
0.0
 11
225.870516813261
 21
-680.9999999999988
 31
0.0
  0
LINE
  5
280D
330
2DE5
100
AcDbEntity
  8
0
 62
     0
100
AcDbLine
 10
-361.5000000000009
 20
-286.4206888323979
 30
0.0
 11
230.3704781071473
 21
-681.0000000000008
 31
0.0
  0
LINE
  5
280E
330
2DE5
100
AcDbEntity
  8
0
 62
     0
100
AcDbLine
 10
-361.5000000000009
 20
-283.4207222969817
 30
0.0
 11
234.870439401032
 21
-681.0
 31
0.0
  0
LINE
  5
280F
330
2DE5
100
AcDbEntity
  8
0
 62
     0
100
AcDbLine
 10
-361.5000000000009
 20
-280.4207557615664
 30
0.0
 11
239.3704006949183
 21
-681.0000000000008
 31
0.0
  0
LINE
  5
2810
330
2DE5
100
AcDbEntity
  8
0
 62
     0
100
AcDbLine
 10
-361.5000000000009
 20
-277.4207892261493
 30
0.0
 11
243.8703619888029
 21
-681.0
 31
0.0
  0
LINE
  5
2811
330
2DE5
100
AcDbEntity
  8
0
 62
     0
100
AcDbLine
 10
-361.5000000000017
 20
-274.4208226907332
 30
0.0
 11
248.3703232826901
 21
-681.0000000000016
 31
0.0
  0
LINE
  5
2812
330
2DE5
100
AcDbEntity
  8
0
 62
     0
100
AcDbLine
 10
-361.5
 20
-271.4208561553169
 30
0.0
 11
252.8702845765747
 21
-681.0
 31
0.0
  0
LINE
  5
2813
330
2DE5
100
AcDbEntity
  8
0
 62
     0
100
AcDbLine
 10
-361.5000000000017
 20
-268.4208896199016
 30
0.0
 11
257.3702458704611
 21
-681.0000000000016
 31
0.0
  0
LINE
  5
2814
330
2DE5
100
AcDbEntity
  8
0
 62
     0
100
AcDbLine
 10
-361.5000000000017
 20
-265.4209230844845
 30
0.0
 11
261.8702071643456
 21
-681.0
 31
0.0
  0
LINE
  5
2815
330
2DE5
100
AcDbEntity
  8
0
 62
     0
100
AcDbLine
 10
-361.5000000000017
 20
-262.4209565490692
 30
0.0
 11
266.3701684582302
 21
-681.0000000000008
 31
0.0
  0
LINE
  5
2816
330
2DE5
100
AcDbEntity
  8
0
 62
     0
100
AcDbLine
 10
-361.5000000000017
 20
-259.4209900136521
 30
0.0
 11
270.8701297521147
 21
-680.9999999999988
 31
0.0
  0
LINE
  5
2817
330
2DE5
100
AcDbEntity
  8
0
 62
     0
100
AcDbLine
 10
-361.5000000000009
 20
-256.4210234782367
 30
0.0
 11
275.370091046002
 21
-681.0000000000008
 31
0.0
  0
LINE
  5
2818
330
2DE5
100
AcDbEntity
  8
0
 62
     0
100
AcDbLine
 10
-361.5000000000009
 20
-253.4210569428205
 30
0.0
 11
279.8700523398884
 21
-681.0000000000008
 31
0.0
  0
LINE
  5
2819
330
2DE5
100
AcDbEntity
  8
0
 62
     0
100
AcDbLine
 10
-361.5000000000009
 20
-250.4210904074034
 30
0.0
 11
284.370013633773
 21
-680.9999999999988
 31
0.0
  0
LINE
  5
281A
330
2DE5
100
AcDbEntity
  8
0
 62
     0
100
AcDbLine
 10
-361.5000000000017
 20
-247.4211238719872
 30
0.0
 11
288.8699749276593
 21
-681.0000000000008
 31
0.0
  0
LINE
  5
281B
330
2DE5
100
AcDbEntity
  8
0
 62
     0
100
AcDbLine
 10
-361.5000000000009
 20
-244.421157336571
 30
0.0
 11
293.3699362215439
 21
-681.0
 31
0.0
  0
LINE
  5
281C
330
2DE5
100
AcDbEntity
  8
0
 62
     0
100
AcDbLine
 10
-361.5000000000009
 20
-241.4211908011548
 30
0.0
 11
297.8698975154312
 21
-681.0000000000008
 31
0.0
  0
LINE
  5
281D
330
2DE5
100
AcDbEntity
  8
0
 62
     0
100
AcDbLine
 10
-361.5000000000009
 20
-238.4212242657377
 30
0.0
 11
302.3698588093157
 21
-681.0
 31
0.0
  0
LINE
  5
281E
330
2DE5
100
AcDbEntity
  8
0
 62
     0
100
AcDbLine
 10
-361.5000000000009
 20
-235.4212577303233
 30
0.0
 11
306.8698201032021
 21
-681.0000000000008
 31
0.0
  0
LINE
  5
281F
330
2DE5
100
AcDbEntity
  8
0
 62
     0
100
AcDbLine
 10
-361.5000000000009
 20
-232.4212911949062
 30
0.0
 11
311.3697813970866
 21
-681.0
 31
0.0
  0
LINE
  5
2820
330
2DE5
100
AcDbEntity
  8
0
 62
     0
100
AcDbLine
 10
-361.5000000000009
 20
-229.4213246594909
 30
0.0
 11
315.869742690973
 21
-681.0000000000016
 31
0.0
  0
LINE
  5
2821
330
2DE5
100
AcDbEntity
  8
0
 62
     0
100
AcDbLine
 10
-361.5000000000009
 20
-226.4213581240738
 30
0.0
 11
320.3697039848576
 21
-681.0
 31
0.0
  0
LINE
  5
2822
330
2DE5
100
AcDbEntity
  8
0
 62
     0
100
AcDbLine
 10
-361.5
 20
-223.4213915886585
 30
0.0
 11
324.869665278743
 21
-681.0000000000008
 31
0.0
  0
LINE
  5
2823
330
2DE5
100
AcDbEntity
  8
0
 62
     0
100
AcDbLine
 10
-361.5000000000017
 20
-220.4214250532414
 30
0.0
 11
329.3696265726292
 21
-681.0
 31
0.0
  0
LINE
  5
2824
330
2DE5
100
AcDbEntity
  8
0
 62
     0
100
AcDbLine
 10
-361.5
 20
-217.421458517827
 30
0.0
 11
333.8695878665139
 21
-681.0000000000008
 31
0.0
  0
LINE
  5
2825
330
2DE5
100
AcDbEntity
  8
0
 62
     0
100
AcDbLine
 10
-361.5000000000017
 20
-214.421491982409
 30
0.0
 11
338.3695491604003
 21
-681.0000000000008
 31
0.0
  0
LINE
  5
2826
330
2DE5
100
AcDbEntity
  8
0
 62
     0
100
AcDbLine
 10
-361.5000000000017
 20
-211.4215254469918
 30
0.0
 11
342.8695104542849
 21
-680.9999999999988
 31
0.0
  0
LINE
  5
2827
330
2DE5
100
AcDbEntity
  8
0
 62
     0
100
AcDbLine
 10
-361.5000000000017
 20
-208.4215589115764
 30
0.0
 11
347.3694717481712
 21
-681.0000000000008
 31
0.0
  0
LINE
  5
2828
330
2DE5
100
AcDbEntity
  8
0
 62
     0
100
AcDbLine
 10
-361.5000000000009
 20
-205.4215923761603
 30
0.0
 11
351.8694330420566
 21
-680.9999999999988
 31
0.0
  0
LINE
  5
2829
330
2DE5
100
AcDbEntity
  8
0
 62
     0
100
AcDbLine
 10
-361.5000000000009
 20
-202.4216258407451
 30
0.0
 11
356.3693943359433
 21
-681.0000000000008
 31
0.0
  0
LINE
  5
282A
330
2DE5
100
AcDbEntity
  8
0
 62
     0
100
AcDbLine
 10
-361.5000000000009
 20
-199.4216593053278
 30
0.0
 11
360.8693556298277
 21
-681.0
 31
0.0
  0
LINE
  5
282B
330
2DE5
100
AcDbEntity
  8
0
 62
     0
100
AcDbLine
 10
-361.5000000000009
 20
-196.4216927699126
 30
0.0
 11
361.4999999999973
 21
-678.4204619711199
 31
0.0
  0
LINE
  5
282C
330
2DE5
100
AcDbEntity
  8
0
 62
     0
100
AcDbLine
 10
-361.5000000000017
 20
-193.4217262344946
 30
0.0
 11
361.4999999999973
 21
-675.4204954357036
 31
0.0
  0
LINE
  5
282D
330
2DE5
100
AcDbEntity
  8
0
 62
     0
100
AcDbLine
 10
-361.5000000000009
 20
-190.421759699081
 30
0.0
 11
361.4999999999973
 21
-672.4205289002884
 31
0.0
  0
LINE
  5
282E
330
2DE5
100
AcDbEntity
  8
0
 62
     0
100
AcDbLine
 10
-361.5000000000009
 20
-187.4217931636631
 30
0.0
 11
361.4999999999982
 21
-669.4205623648712
 31
0.0
  0
LINE
  5
282F
330
2DE5
100
AcDbEntity
  8
0
 62
     0
100
AcDbLine
 10
-361.5000000000009
 20
-184.4218266282478
 30
0.0
 11
361.4999999999982
 21
-666.420595829456
 31
0.0
  0
LINE
  5
2830
330
2DE5
100
AcDbEntity
  8
0
 62
     0
100
AcDbLine
 10
-361.5000000000009
 20
-181.4218600928304
 30
0.0
 11
361.4999999999982
 21
-663.4206292940388
 31
0.0
  0
LINE
  5
2831
330
2DE5
100
AcDbEntity
  8
0
 62
     0
100
AcDbLine
 10
-361.5000000000009
 20
-178.4218935574154
 30
0.0
 11
361.4999999999964
 21
-660.4206627586236
 31
0.0
  0
LINE
  5
2832
330
2DE5
100
AcDbEntity
  8
0
 62
     0
100
AcDbLine
 10
-361.5000000000009
 20
-175.4219270219983
 30
0.0
 11
361.4999999999982
 21
-657.4206962232074
 31
0.0
  0
LINE
  5
2833
330
2DE5
100
AcDbEntity
  8
0
 62
     0
100
AcDbLine
 10
-361.5000000000009
 20
-172.421960486582
 30
0.0
 11
361.4999999999964
 21
-654.4207296877893
 31
0.0
  0
LINE
  5
2834
330
2DE5
100
AcDbEntity
  8
0
 62
     0
100
AcDbLine
 10
-361.5
 20
-169.4219939511667
 30
0.0
 11
361.4999999999973
 21
-651.4207631523738
 31
0.0
  0
LINE
  5
2835
330
2DE5
100
AcDbEntity
  8
0
 62
     0
100
AcDbLine
 10
-361.5000000000017
 20
-166.4220274157487
 30
0.0
 11
361.4999999999973
 21
-648.4207966169567
 31
0.0
  0
LINE
  5
2836
330
2DE5
100
AcDbEntity
  8
0
 62
     0
100
AcDbLine
 10
-361.5
 20
-163.4220608803343
 30
0.0
 11
361.4999999999973
 21
-645.4208300815423
 31
0.0
  0
LINE
  5
2837
330
2DE5
100
AcDbEntity
  8
0
 62
     0
100
AcDbLine
 10
-361.5000000000017
 20
-160.4220943449163
 30
0.0
 11
361.4999999999973
 21
-642.4208635461255
 31
0.0
  0
LINE
  5
2838
330
2DE5
100
AcDbEntity
  8
0
 62
     0
100
AcDbLine
 10
-361.5000000000017
 20
-157.4221278095019
 30
0.0
 11
361.4999999999973
 21
-639.4208970107102
 31
0.0
  0
LINE
  5
2839
330
2DE5
100
AcDbEntity
  8
0
 62
     0
100
AcDbLine
 10
-361.5000000000017
 20
-154.4221612740848
 30
0.0
 11
361.4999999999973
 21
-636.4209304752929
 31
0.0
  0
LINE
  5
283A
330
2DE5
100
AcDbEntity
  8
0
 62
     0
100
AcDbLine
 10
-361.5000000000009
 20
-151.4221947386695
 30
0.0
 11
361.4999999999973
 21
-633.4209639398769
 31
0.0
  0
LINE
  5
283B
330
2DE5
100
AcDbEntity
  8
0
 62
     0
100
AcDbLine
 10
-361.5000000000009
 20
-148.4222282032524
 30
0.0
 11
361.4999999999991
 21
-630.4209974044615
 31
0.0
  0
LINE
  5
283C
330
2DE5
100
AcDbEntity
  8
0
 62
     0
100
AcDbLine
 10
-361.5000000000009
 20
-145.4222616678371
 30
0.0
 11
361.4999999999973
 21
-627.4210308690454
 31
0.0
  0
LINE
  5
283D
330
2DE5
100
AcDbEntity
  8
0
 62
     0
100
AcDbLine
 10
-361.5000000000009
 20
-142.4222951324209
 30
0.0
 11
361.4999999999973
 21
-624.421064333628
 31
0.0
  0
LINE
  5
283E
330
2DE5
100
AcDbEntity
  8
0
 62
     0
100
AcDbLine
 10
-361.5000000000017
 20
-139.4223285970047
 30
0.0
 11
361.4999999999973
 21
-621.4210977982129
 31
0.0
  0
LINE
  5
283F
330
2DE5
100
AcDbEntity
  8
0
 62
     0
100
AcDbLine
 10
-361.5000000000009
 20
-136.4223620615885
 30
0.0
 11
361.4999999999973
 21
-618.4211312627958
 31
0.0
  0
LINE
  5
2840
330
2DE5
100
AcDbEntity
  8
0
 62
     0
100
AcDbLine
 10
-361.5000000000009
 20
-133.4223955261705
 30
0.0
 11
361.4999999999982
 21
-615.4211647273788
 31
0.0
  0
LINE
  5
2841
330
2DE5
100
AcDbEntity
  8
0
 62
     0
100
AcDbLine
 10
-361.5000000000009
 20
-130.4224289907552
 30
0.0
 11
361.4999999999982
 21
-612.4211981919643
 31
0.0
  0
LINE
  5
2842
330
2DE5
100
AcDbEntity
  8
0
 62
     0
100
AcDbLine
 10
-361.5000000000009
 20
-127.422462455338
 30
0.0
 11
361.4999999999982
 21
-609.4212316565472
 31
0.0
  0
LINE
  5
2843
330
2DE5
100
AcDbEntity
  8
0
 62
     0
100
AcDbLine
 10
-361.5000000000009
 20
-124.4224959199236
 30
0.0
 11
361.4999999999964
 21
-606.421265121131
 31
0.0
  0
LINE
  5
2844
330
2DE5
100
AcDbEntity
  8
0
 62
     0
100
AcDbLine
 10
-361.5000000000009
 20
-121.4225293845065
 30
0.0
 11
361.4999999999964
 21
-603.4212985857139
 31
0.0
  0
LINE
  5
2845
330
2DE5
100
AcDbEntity
  8
0
 62
     0
100
AcDbLine
 10
-361.5000000000009
 20
-118.4225628490912
 30
0.0
 11
361.4999999999964
 21
-600.4213320502985
 31
0.0
  0
LINE
  5
2846
330
2DE5
100
AcDbEntity
  8
0
 62
     0
100
AcDbLine
 10
-361.5
 20
-115.4225963136741
 30
0.0
 11
361.4999999999973
 21
-597.4213655148823
 31
0.0
  0
LINE
  5
2847
330
2DE5
100
AcDbEntity
  8
0
 62
     0
100
AcDbLine
 10
-361.5000000000017
 20
-112.4226297782579
 30
0.0
 11
361.4999999999973
 21
-594.4213989794667
 31
0.0
  0
LINE
  5
2848
330
2DE5
100
AcDbEntity
  8
0
 62
     0
100
AcDbLine
 10
-361.5000000000017
 20
-109.4226632428417
 30
0.0
 11
361.4999999999973
 21
-591.4214324440498
 31
0.0
  0
LINE
  5
2849
330
2DE5
100
AcDbEntity
  8
0
 62
     0
100
AcDbLine
 10
-361.5000000000017
 20
-106.4226967074264
 30
0.0
 11
361.4999999999973
 21
-588.4214659086344
 31
0.0
  0
LINE
  5
284A
330
2DE5
100
AcDbEntity
  8
0
 62
     0
100
AcDbLine
 10
-361.5000000000017
 20
-103.4227301720093
 30
0.0
 11
361.4999999999973
 21
-585.4214993732174
 31
0.0
  0
LINE
  5
284B
330
2DE5
100
AcDbEntity
  8
0
 62
     0
100
AcDbLine
 10
-361.5000000000009
 20
-100.422763636594
 30
0.0
 11
361.4999999999982
 21
-582.4215328378032
 31
0.0
  0
LINE
  5
284C
330
2DE5
100
AcDbEntity
  8
0
 62
     0
100
AcDbLine
 10
-361.5000000000009
 20
-97.42279710117692
 30
0.0
 11
361.4999999999973
 21
-579.4215663023851
 31
0.0
  0
LINE
  5
284D
330
2DE5
100
AcDbEntity
  8
0
 62
     0
100
AcDbLine
 10
-361.5000000000009
 20
-94.42283056576071
 30
0.0
 11
361.4999999999973
 21
-576.421599766968
 31
0.0
  0
LINE
  5
284E
330
2DE5
100
AcDbEntity
  8
0
 62
     0
100
AcDbLine
 10
-361.5000000000009
 20
-91.42286403034542
 30
0.0
 11
361.4999999999973
 21
-573.4216332315527
 31
0.0
  0
LINE
  5
284F
330
2DE5
100
AcDbEntity
  8
0
 62
     0
100
AcDbLine
 10
-361.5000000000009
 20
-88.42289749492831
 30
0.0
 11
361.4999999999973
 21
-570.4216666961356
 31
0.0
  0
LINE
  5
2850
330
2DE5
100
AcDbEntity
  8
0
 62
     0
100
AcDbLine
 10
-361.5000000000017
 20
-85.42293095951208
 30
0.0
 11
361.4999999999973
 21
-567.4217001607201
 31
0.0
  0
LINE
  5
2851
330
2DE5
100
AcDbEntity
  8
0
 62
     0
100
AcDbLine
 10
-361.5000000000009
 20
-82.42296442409498
 30
0.0
 11
361.4999999999982
 21
-564.4217336253041
 31
0.0
  0
LINE
  5
2852
330
2DE5
100
AcDbEntity
  8
0
 62
     0
100
AcDbLine
 10
-359.134490792636
 20
-81.0
 30
0.0
 11
361.4999999999982
 21
-561.4217670898888
 31
0.0
  0
LINE
  5
2853
330
2DE5
100
AcDbEntity
  8
0
 62
     0
100
AcDbLine
 10
-354.6345294987515
 20
-80.99999999999818
 30
0.0
 11
361.4999999999982
 21
-558.4218005544717
 31
0.0
  0
LINE
  5
2854
330
2DE5
100
AcDbEntity
  8
0
 62
     0
100
AcDbLine
 10
-350.1345682048668
 20
-80.99999999999909
 30
0.0
 11
361.4999999999982
 21
-555.4218340190564
 31
0.0
  0
LINE
  5
2855
330
2DE5
100
AcDbEntity
  8
0
 62
     0
100
AcDbLine
 10
-345.6346069109823
 20
-80.99999999999726
 30
0.0
 11
361.4999999999964
 21
-552.4218674836381
 31
0.0
  0
LINE
  5
2856
330
2DE5
100
AcDbEntity
  8
0
 62
     0
100
AcDbLine
 10
-341.1346456170959
 20
-80.99999999999909
 30
0.0
 11
361.4999999999964
 21
-549.421900948224
 31
0.0
  0
LINE
  5
2857
330
2DE5
100
AcDbEntity
  8
0
 62
     0
100
AcDbLine
 10
-336.6346843232104
 20
-80.99999999999726
 30
0.0
 11
361.4999999999973
 21
-546.4219344128069
 31
0.0
  0
LINE
  5
2858
330
2DE5
100
AcDbEntity
  8
0
 62
     0
100
AcDbLine
 10
-332.1347230293241
 20
-80.99999999999909
 30
0.0
 11
361.4999999999973
 21
-543.4219678773913
 31
0.0
  0
LINE
  5
2859
330
2DE5
100
AcDbEntity
  8
0
 62
     0
100
AcDbLine
 10
-327.6347617354395
 20
-80.99999999999818
 30
0.0
 11
361.4999999999973
 21
-540.4220013419744
 31
0.0
  0
LINE
  5
285A
330
2DE5
100
AcDbEntity
  8
0
 62
     0
100
AcDbLine
 10
-323.1348004415531
 20
-80.99999999999909
 30
0.0
 11
361.4999999999973
 21
-537.4220348065591
 31
0.0
  0
LINE
  5
285B
330
2DE5
100
AcDbEntity
  8
0
 62
     0
100
AcDbLine
 10
-318.6348391476686
 20
-80.99999999999818
 30
0.0
 11
361.4999999999973
 21
-534.4220682711428
 31
0.0
  0
LINE
  5
285C
330
2DE5
100
AcDbEntity
  8
0
 62
     0
100
AcDbLine
 10
-314.1348778537822
 20
-80.99999999999818
 30
0.0
 11
361.4999999999973
 21
-531.4221017357257
 31
0.0
  0
LINE
  5
285D
330
2DE5
100
AcDbEntity
  8
0
 62
     0
100
AcDbLine
 10
-309.6349165598959
 20
-80.99999999999909
 30
0.0
 11
361.4999999999982
 21
-528.4221352003105
 31
0.0
  0
LINE
  5
285E
330
2DE5
100
AcDbEntity
  8
0
 62
     0
100
AcDbLine
 10
-305.1349552660103
 20
-80.99999999999818
 30
0.0
 11
361.4999999999973
 21
-525.4221686648925
 31
0.0
  0
LINE
  5
285F
330
2DE5
100
AcDbEntity
  8
0
 62
     0
100
AcDbLine
 10
-300.6349939721248
 20
-80.99999999999909
 30
0.0
 11
361.4999999999973
 21
-522.4222021294771
 31
0.0
  0
LINE
  5
2860
330
2DE5
100
AcDbEntity
  8
0
 62
     0
100
AcDbLine
 10
-296.1350326782394
 20
-80.99999999999818
 30
0.0
 11
361.4999999999973
 21
-519.422235594061
 31
0.0
  0
LINE
  5
2861
330
2DE5
100
AcDbEntity
  8
0
 62
     0
100
AcDbLine
 10
-291.6350713843548
 20
-80.99999999999909
 30
0.0
 11
361.4999999999973
 21
-516.4222690586456
 31
0.0
  0
LINE
  5
2862
330
2DE5
100
AcDbEntity
  8
0
 62
     0
100
AcDbLine
 10
-287.1351100904702
 20
-80.99999999999726
 30
0.0
 11
361.4999999999973
 21
-513.4223025232286
 31
0.0
  0
LINE
  5
2863
330
2DE5
100
AcDbEntity
  8
0
 62
     0
100
AcDbLine
 10
-282.6351487965831
 20
-80.99999999999909
 30
0.0
 11
361.4999999999982
 21
-510.422335987813
 31
0.0
  0
LINE
  5
2864
330
2DE5
100
AcDbEntity
  8
0
 62
     0
100
AcDbLine
 10
-278.1351875026976
 20
-80.99999999999818
 30
0.0
 11
361.4999999999982
 21
-507.422369452396
 31
0.0
  0
LINE
  5
2865
330
2DE5
100
AcDbEntity
  8
0
 62
     0
100
AcDbLine
 10
-273.6352262088121
 20
-80.99999999999909
 30
0.0
 11
361.4999999999964
 21
-504.4224029169796
 31
0.0
  0
LINE
  5
2866
330
2DE5
100
AcDbEntity
  8
0
 62
     0
100
AcDbLine
 10
-269.1352649149266
 20
-80.99999999999909
 30
0.0
 11
361.4999999999982
 21
-501.4224363815647
 31
0.0
  0
LINE
  5
2867
330
2DE5
100
AcDbEntity
  8
0
 62
     0
100
AcDbLine
 10
-264.6353036210412
 20
-80.99999999999909
 30
0.0
 11
361.4999999999964
 21
-498.4224698461485
 31
0.0
  0
LINE
  5
2868
330
2DE5
100
AcDbEntity
  8
0
 62
     0
100
AcDbLine
 10
-260.1353423271557
 20
-80.99999999999909
 30
0.0
 11
361.4999999999964
 21
-495.4225033107312
 31
0.0
  0
LINE
  5
2869
330
2DE5
100
AcDbEntity
  8
0
 62
     0
100
AcDbLine
 10
-255.6353810332694
 20
-80.99999999999726
 30
0.0
 11
361.4999999999973
 21
-492.4225367753142
 31
0.0
  0
LINE
  5
286A
330
2DE5
100
AcDbEntity
  8
0
 62
     0
100
AcDbLine
 10
-251.1354197393839
 20
-80.99999999999909
 30
0.0
 11
361.4999999999973
 21
-489.4225702398991
 31
0.0
  0
LINE
  5
286B
330
2DE5
100
AcDbEntity
  8
0
 62
     0
100
AcDbLine
 10
-246.6354584454994
 20
-80.99999999999818
 30
0.0
 11
361.4999999999973
 21
-486.4226037044828
 31
0.0
  0
LINE
  5
286C
330
2DE5
100
AcDbEntity
  8
0
 62
     0
100
AcDbLine
 10
-242.135497151613
 20
-80.99999999999909
 30
0.0
 11
361.4999999999973
 21
-483.4226371690672
 31
0.0
  0
LINE
  5
286D
330
2DE5
100
AcDbEntity
  8
0
 62
     0
100
AcDbLine
 10
-237.6355358577284
 20
-80.99999999999818
 30
0.0
 11
361.4999999999973
 21
-480.4226706336502
 31
0.0
  0
LINE
  5
286E
330
2DE5
100
AcDbEntity
  8
0
 62
     0
100
AcDbLine
 10
-233.1355745638429
 20
-80.99999999999818
 30
0.0
 11
361.4999999999964
 21
-477.4227040982339
 31
0.0
  0
LINE
  5
286F
330
2DE5
100
AcDbEntity
  8
0
 62
     0
100
AcDbLine
 10
-228.6356132699566
 20
-80.99999999999818
 30
0.0
 11
361.4999999999982
 21
-474.4227375628176
 31
0.0
  0
LINE
  5
2870
330
2DE5
100
AcDbEntity
  8
0
 62
     0
100
AcDbLine
 10
-224.1356519760711
 20
-80.99999999999909
 30
0.0
 11
361.4999999999973
 21
-471.4227710274025
 31
0.0
  0
LINE
  5
2871
330
2DE5
100
AcDbEntity
  8
0
 62
     0
100
AcDbLine
 10
-219.6356906821857
 20
-80.99999999999818
 30
0.0
 11
361.4999999999973
 21
-468.4228044919854
 31
0.0
  0
LINE
  5
2872
330
2DE5
100
AcDbEntity
  8
0
 62
     0
100
AcDbLine
 10
-215.1357293883011
 20
-80.99999999999909
 30
0.0
 11
361.4999999999973
 21
-465.4228379565703
 31
0.0
  0
LINE
  5
2873
330
2DE5
100
AcDbEntity
  8
0
 62
     0
100
AcDbLine
 10
-210.6357680944147
 20
-80.99999999999909
 30
0.0
 11
361.4999999999973
 21
-462.4228714211531
 31
0.0
  0
LINE
  5
2874
330
2DE5
100
AcDbEntity
  8
0
 62
     0
100
AcDbLine
 10
-206.1358068005293
 20
-80.99999999999909
 30
0.0
 11
361.4999999999982
 21
-459.4229048857378
 31
0.0
  0
LINE
  5
2875
330
2DE5
100
AcDbEntity
  8
0
 62
     0
100
AcDbLine
 10
-201.6358455066429
 20
-80.99999999999909
 30
0.0
 11
361.4999999999982
 21
-456.4229383503215
 31
0.0
  0
LINE
  5
2876
330
2DE5
100
AcDbEntity
  8
0
 62
     0
100
AcDbLine
 10
-197.1358842127564
 20
-80.99999999999818
 30
0.0
 11
361.4999999999982
 21
-453.4229718149044
 31
0.0
  0
LINE
  5
2877
330
2DE5
100
AcDbEntity
  8
0
 62
     0
100
AcDbLine
 10
-192.635922918872
 20
-80.99999999999909
 30
0.0
 11
361.4999999999964
 21
-450.423005279488
 31
0.0
  0
LINE
  5
2878
330
2DE5
100
AcDbEntity
  8
0
 62
     0
100
AcDbLine
 10
-188.1359616249856
 20
-80.99999999999909
 30
0.0
 11
361.4999999999982
 21
-447.4230387440717
 31
0.0
  0
LINE
  5
2879
330
2DE5
100
AcDbEntity
  8
0
 62
     0
100
AcDbLine
 10
-183.636000331101
 20
-80.99999999999909
 30
0.0
 11
361.4999999999964
 21
-444.4230722086556
 31
0.0
  0
LINE
  5
287A
330
2DE5
100
AcDbEntity
  8
0
 62
     0
100
AcDbLine
 10
-179.1360390372155
 20
-80.99999999999818
 30
0.0
 11
361.4999999999973
 21
-441.4231056732385
 31
0.0
  0
LINE
  5
287B
330
2DE5
100
AcDbEntity
  8
0
 62
     0
100
AcDbLine
 10
-174.636077743331
 20
-80.99999999999818
 30
0.0
 11
361.4999999999973
 21
-438.4231391378243
 31
0.0
  0
LINE
  5
287C
330
2DE5
100
AcDbEntity
  8
0
 62
     0
100
AcDbLine
 10
-170.1361164494447
 20
-80.99999999999818
 30
0.0
 11
361.4999999999973
 21
-435.4231726024071
 31
0.0
  0
LINE
  5
287D
330
2DE5
100
AcDbEntity
  8
0
 62
     0
100
AcDbLine
 10
-165.6361551555601
 20
-80.99999999999818
 30
0.0
 11
361.4999999999973
 21
-432.423206066992
 31
0.0
  0
LINE
  5
287E
330
2DE5
100
AcDbEntity
  8
0
 62
     0
100
AcDbLine
 10
-161.1361938616736
 20
-80.99999999999818
 30
0.0
 11
361.4999999999973
 21
-429.4232395315748
 31
0.0
  0
LINE
  5
287F
330
2DE5
100
AcDbEntity
  8
0
 62
     0
100
AcDbLine
 10
-156.6362325677873
 20
-81.0
 30
0.0
 11
361.4999999999973
 21
-426.4232729961594
 31
0.0
  0
LINE
  5
2880
330
2DE5
100
AcDbEntity
  8
0
 62
     0
100
AcDbLine
 10
-152.1362712739019
 20
-80.99999999999818
 30
0.0
 11
361.4999999999973
 21
-423.4233064607423
 31
0.0
  0
LINE
  5
2881
330
2DE5
100
AcDbEntity
  8
0
 62
     0
100
AcDbLine
 10
-147.6363099800155
 20
-81.0
 30
0.0
 11
361.4999999999982
 21
-420.4233399253279
 31
0.0
  0
LINE
  5
2882
330
2DE5
100
AcDbEntity
  8
0
 62
     0
100
AcDbLine
 10
145.6999999999989
 20
-273.5570740902976
 30
0.0
 11
147.5643936253255
 21
-274.7999999999984
 31
0.0
  0
LINE
  5
2883
330
2DE5
100
AcDbEntity
  8
0
 62
     0
100
AcDbLine
 10
147.5643936253291
 20
-274.8000000000001
 30
0.0
 11
361.4999999999973
 21
-417.4233733899097
 31
0.0
  0
LINE
  5
2884
330
2DE5
100
AcDbEntity
  8
0
 62
     0
100
AcDbLine
 10
-143.136348686131
 20
-80.99999999999909
 30
0.0
 11
145.6999999999971
 21
-273.5570740902958
 31
0.0
  0
LINE
  5
2885
330
2DE5
100
AcDbEntity
  8
0
 62
     0
100
AcDbLine
 10
145.6999999999989
 20
-270.5571075548805
 30
0.0
 11
152.0643549192118
 21
-274.7999999999984
 31
0.0
  0
LINE
  5
2886
330
2DE5
100
AcDbEntity
  8
0
 62
     0
100
AcDbLine
 10
152.0643549192136
 20
-274.7999999999993
 30
0.0
 11
361.4999999999973
 21
-414.4234068544927
 31
0.0
  0
LINE
  5
2887
330
2DE5
100
AcDbEntity
  8
0
 62
     0
100
AcDbLine
 10
-138.6363873922446
 20
-80.99999999999818
 30
0.0
 11
145.6999999999971
 21
-270.5571075548796
 31
0.0
  0
LINE
  5
2888
330
2DE5
100
AcDbEntity
  8
0
 62
     0
100
AcDbLine
 10
145.6999999999989
 20
-267.5571410194653
 30
0.0
 11
156.5643162130982
 21
-274.8000000000001
 31
0.0
  0
LINE
  5
2889
330
2DE5
100
AcDbEntity
  8
0
 62
     0
100
AcDbLine
 10
156.5643162130982
 20
-274.8000000000001
 30
0.0
 11
361.4999999999973
 21
-411.4234403190776
 31
0.0
  0
LINE
  5
288A
330
2DE5
100
AcDbEntity
  8
0
 62
     0
100
AcDbLine
 10
-134.13642609836
 20
-80.99999999999909
 30
0.0
 11
145.6999999999971
 21
-267.5571410194643
 31
0.0
  0
LINE
  5
288B
330
2DE5
100
AcDbEntity
  8
0
 62
     0
100
AcDbLine
 10
145.6999999999989
 20
-264.5571744840481
 30
0.0
 11
161.0642775069809
 21
-274.7999999999974
 31
0.0
  0
LINE
  5
288C
330
2DE5
100
AcDbEntity
  8
0
 62
     0
100
AcDbLine
 10
161.0642775069845
 20
-274.7999999999993
 30
0.0
 11
361.4999999999973
 21
-408.423473783661
 31
0.0
  0
LINE
  5
288D
330
2DE5
100
AcDbEntity
  8
0
 62
     0
100
AcDbLine
 10
-129.6364648044737
 20
-80.99999999999818
 30
0.0
 11
145.6999999999962
 21
-264.5571744840463
 31
0.0
  0
LINE
  5
288E
330
2DE5
100
AcDbEntity
  8
0
 62
     0
100
AcDbLine
 10
145.6999999999998
 20
-261.5572079486328
 30
0.0
 11
165.5642388008682
 21
-274.7999999999993
 31
0.0
  0
LINE
  5
288F
330
2DE5
100
AcDbEntity
  8
0
 62
     0
100
AcDbLine
 10
165.56423880087
 20
-274.8000000000001
 30
0.0
 11
361.4999999999982
 21
-405.4235072482461
 31
0.0
  0
LINE
  5
2890
330
2DE5
100
AcDbEntity
  8
0
 62
     0
100
AcDbLine
 10
-125.1365035105882
 20
-80.99999999999909
 30
0.0
 11
145.6999999999971
 21
-261.557207948631
 31
0.0
  0
LINE
  5
2891
330
2DE5
100
AcDbEntity
  8
0
 62
     0
100
AcDbLine
 10
145.6999999999998
 20
-258.5572414132166
 30
0.0
 11
170.0642000947546
 21
-274.7999999999984
 31
0.0
  0
LINE
  5
2892
330
2DE5
100
AcDbEntity
  8
0
 62
     0
100
AcDbLine
 10
170.0642000947564
 20
-274.7999999999993
 30
0.0
 11
361.4999999999982
 21
-402.4235407128289
 31
0.0
  0
LINE
  5
2893
330
2DE5
100
AcDbEntity
  8
0
 62
     0
100
AcDbLine
 10
-120.6365422167037
 20
-80.99999999999818
 30
0.0
 11
145.6999999999971
 21
-258.5572414132139
 31
0.0
  0
LINE
  5
2894
330
2DE5
100
AcDbEntity
  8
0
 62
     0
100
AcDbLine
 10
145.6999999999998
 20
-255.5572748778013
 30
0.0
 11
174.5641613886382
 21
-274.7999999999984
 31
0.0
  0
LINE
  5
2895
330
2DE5
100
AcDbEntity
  8
0
 62
     0
100
AcDbLine
 10
174.5641613886409
 20
-274.8000000000001
 30
0.0
 11
361.4999999999982
 21
-399.4235741774137
 31
0.0
  0
LINE
  5
2896
330
2DE5
100
AcDbEntity
  8
0
 62
     0
100
AcDbLine
 10
-116.1365809228173
 20
-80.99999999999909
 30
0.0
 11
145.6999999999971
 21
-255.5572748777995
 31
0.0
  0
LINE
  5
2897
330
2DE5
100
AcDbEntity
  8
0
 62
     0
100
AcDbLine
 10
145.6999999999998
 20
-252.5573083423842
 30
0.0
 11
179.0641226825237
 21
-274.7999999999974
 31
0.0
  0
LINE
  5
2898
330
2DE5
100
AcDbEntity
  8
0
 62
     0
100
AcDbLine
 10
179.0641226825273
 20
-274.8000000000001
 30
0.0
 11
361.4999999999964
 21
-396.4236076419957
 31
0.0
  0
LINE
  5
2899
330
2DE5
100
AcDbEntity
  8
0
 62
     0
100
AcDbLine
 10
-111.6366196289327
 20
-80.99999999999818
 30
0.0
 11
145.6999999999971
 21
-252.5573083423824
 31
0.0
  0
LINE
  5
289A
330
2DE5
100
AcDbEntity
  8
0
 62
     0
100
AcDbLine
 10
145.6999999999989
 20
-249.557341806968
 30
0.0
 11
183.5640839764101
 21
-274.7999999999993
 31
0.0
  0
LINE
  5
289B
330
2DE5
100
AcDbEntity
  8
0
 62
     0
100
AcDbLine
 10
183.5640839764118
 20
-274.8000000000001
 30
0.0
 11
361.4999999999982
 21
-393.4236411065822
 31
0.0
  0
LINE
  5
289C
330
2DE5
100
AcDbEntity
  8
0
 62
     0
100
AcDbLine
 10
-107.1366583350463
 20
-80.99999999999909
 30
0.0
 11
145.6999999999971
 21
-249.5573418069671
 31
0.0
  0
LINE
  5
289D
330
2DE5
100
AcDbEntity
  8
0
 62
     0
100
AcDbLine
 10
145.6999999999989
 20
-246.5573752715509
 30
0.0
 11
188.0640452702964
 21
-274.7999999999993
 31
0.0
  0
LINE
  5
289E
330
2DE5
100
AcDbEntity
  8
0
 62
     0
100
AcDbLine
 10
188.0640452702983
 20
-274.8000000000001
 30
0.0
 11
361.4999999999964
 21
-390.4236745711642
 31
0.0
  0
LINE
  5
289F
330
2DE5
100
AcDbEntity
  8
0
 62
     0
100
AcDbLine
 10
-102.63669704116
 20
-80.99999999999909
 30
0.0
 11
145.6999999999971
 21
-246.55737527155
 31
0.0
  0
LINE
  5
28A0
330
2DE5
100
AcDbEntity
  8
0
 62
     0
100
AcDbLine
 10
145.6999999999998
 20
-243.5574087361356
 30
0.0
 11
192.5640065641801
 21
-274.7999999999984
 31
0.0
  0
LINE
  5
28A1
330
2DE5
100
AcDbEntity
  8
0
 62
     0
100
AcDbLine
 10
192.5640065641846
 20
-274.800000000002
 30
0.0
 11
361.4999999999973
 21
-387.4237080357488
 31
0.0
  0
LINE
  5
28A2
330
2DE5
100
AcDbEntity
  8
0
 62
     0
100
AcDbLine
 10
-98.13673574727273
 20
-81.00000000000093
 30
0.0
 11
145.699999999998
 21
-243.5574087361347
 31
0.0
  0
LINE
  5
28A3
330
2DE5
100
AcDbEntity
  8
0
 62
     0
100
AcDbLine
 10
145.6999999999998
 20
-240.5574422007194
 30
0.0
 11
197.0639678580664
 21
-274.7999999999984
 31
0.0
  0
LINE
  5
28A4
330
2DE5
100
AcDbEntity
  8
0
 62
     0
100
AcDbLine
 10
197.0639678580701
 20
-274.8000000000001
 30
0.0
 11
361.4999999999973
 21
-384.4237415003318
 31
0.0
  0
LINE
  5
28A5
330
2DE5
100
AcDbEntity
  8
0
 62
     0
100
AcDbLine
 10
-93.63677445338993
 20
-80.99999999999818
 30
0.0
 11
145.699999999998
 21
-240.5574422007185
 31
0.0
  0
LINE
  5
28A6
330
2DE5
100
AcDbEntity
  8
0
 62
     0
100
AcDbLine
 10
145.6999999999998
 20
-237.5574756653041
 30
0.0
 11
201.5639291519528
 21
-274.8000000000001
 31
0.0
  0
LINE
  5
28A7
330
2DE5
100
AcDbEntity
  8
0
 62
     0
100
AcDbLine
 10
201.5639291519556
 20
-274.800000000002
 30
0.0
 11
361.4999999999973
 21
-381.4237749649164
 31
0.0
  0
LINE
  5
28A8
330
2DE5
100
AcDbEntity
  8
0
 62
     0
100
AcDbLine
 10
-89.13681315950359
 20
-81.0
 30
0.0
 11
145.6999999999962
 21
-237.5574756653023
 31
0.0
  0
LINE
  5
28A9
330
2DE5
100
AcDbEntity
  8
0
 62
     0
100
AcDbLine
 10
145.6999999999998
 20
-234.5575091298869
 30
0.0
 11
206.0638904458392
 21
-274.7999999999993
 31
0.0
  0
LINE
  5
28AA
330
2DE5
100
AcDbEntity
  8
0
 62
     0
100
AcDbLine
 10
206.0638904458401
 20
-274.8000000000001
 30
0.0
 11
361.4999999999973
 21
-378.4238084294993
 31
0.0
  0
LINE
  5
28AB
330
2DE5
100
AcDbEntity
  8
0
 62
     0
100
AcDbLine
 10
-84.63685186561724
 20
-81.0
 30
0.0
 11
145.6999999999962
 21
-234.5575091298851
 31
0.0
  0
LINE
  5
28AC
330
2DE5
100
AcDbEntity
  8
0
 62
     0
100
AcDbLine
 10
145.6999999999998
 20
-231.5575425944699
 30
0.0
 11
210.563851739722
 21
-274.7999999999974
 31
0.0
  0
LINE
  5
28AD
330
2DE5
100
AcDbEntity
  8
0
 62
     0
100
AcDbLine
 10
210.5638517397256
 20
-274.7999999999993
 30
0.0
 11
361.4999999999973
 21
-375.4238418940831
 31
0.0
  0
LINE
  5
28AE
330
2DE5
100
AcDbEntity
  8
0
 62
     0
100
AcDbLine
 10
-80.13689057173179
 20
-80.99999999999909
 30
0.0
 11
145.6999999999962
 21
-231.557542594468
 31
0.0
  0
LINE
  5
28AF
330
2DE5
100
AcDbEntity
  8
0
 62
     0
100
AcDbLine
 10
145.6999999999998
 20
-228.5575760590546
 30
0.0
 11
215.0638130336083
 21
-274.7999999999984
 31
0.0
  0
LINE
  5
28B0
330
2DE5
100
AcDbEntity
  8
0
 62
     0
100
AcDbLine
 10
215.0638130336101
 20
-274.7999999999993
 30
0.0
 11
361.4999999999973
 21
-372.4238753586678
 31
0.0
  0
LINE
  5
28B1
330
2DE5
100
AcDbEntity
  8
0
 62
     0
100
AcDbLine
 10
-75.6369292778454
 20
-81.00000000000093
 30
0.0
 11
145.6999999999962
 21
-228.5575760590528
 31
0.0
  0
LINE
  5
28B2
330
2DE5
100
AcDbEntity
  8
0
 62
     0
100
AcDbLine
 10
145.7000000000007
 20
-225.5576095236385
 30
0.0
 11
219.5637743274956
 21
-274.7999999999984
 31
0.0
  0
LINE
  5
28B3
330
2DE5
100
AcDbEntity
  8
0
 62
     0
100
AcDbLine
 10
219.5637743274974
 20
-274.7999999999993
 30
0.0
 11
361.4999999999973
 21
-369.4239088232498
 31
0.0
  0
LINE
  5
28B4
330
2DE5
100
AcDbEntity
  8
0
 62
     0
100
AcDbLine
 10
-71.13696798396086
 20
-80.99999999999818
 30
0.0
 11
145.6999999999971
 21
-225.5576095236356
 31
0.0
  0
LINE
  5
28B5
330
2DE5
100
AcDbEntity
  8
0
 62
     0
100
AcDbLine
 10
145.6999999999989
 20
-222.5576429882222
 30
0.0
 11
224.0637356213783
 21
-274.7999999999974
 31
0.0
  0
LINE
  5
28B6
330
2DE5
100
AcDbEntity
  8
0
 62
     0
100
AcDbLine
 10
224.063735621382
 20
-274.8000000000001
 30
0.0
 11
361.4999999999982
 21
-366.4239422878354
 31
0.0
  0
LINE
  5
28B7
330
2DE5
100
AcDbEntity
  8
0
 62
     0
100
AcDbLine
 10
-66.63700669007448
 20
-81.0
 30
0.0
 11
145.6999999999971
 21
-222.5576429882212
 31
0.0
  0
LINE
  5
28B8
330
2DE5
100
AcDbEntity
  8
0
 62
     0
100
AcDbLine
 10
145.6999999999989
 20
-219.557676452805
 30
0.0
 11
228.5636969152647
 21
-274.7999999999974
 31
0.0
  0
LINE
  5
28B9
330
2DE5
100
AcDbEntity
  8
0
 62
     0
100
AcDbLine
 10
228.5636969152683
 20
-274.7999999999993
 30
0.0
 11
361.4999999999973
 21
-363.4239757524174
 31
0.0
  0
LINE
  5
28BA
330
2DE5
100
AcDbEntity
  8
0
 62
     0
100
AcDbLine
 10
-62.13704539619175
 20
-80.99999999999726
 30
0.0
 11
145.6999999999971
 21
-219.5576764528041
 31
0.0
  0
LINE
  5
28BB
330
2DE5
100
AcDbEntity
  8
0
 62
     0
100
AcDbLine
 10
145.6999999999989
 20
-216.5577099173897
 30
0.0
 11
233.0636582091511
 21
-274.7999999999993
 31
0.0
  0
LINE
  5
28BC
330
2DE5
100
AcDbEntity
  8
0
 62
     0
100
AcDbLine
 10
233.0636582091528
 20
-274.8000000000001
 30
0.0
 11
361.4999999999973
 21
-360.424009217003
 31
0.0
  0
LINE
  5
28BD
330
2DE5
100
AcDbEntity
  8
0
 62
     0
100
AcDbLine
 10
-57.63708410230538
 20
-80.99999999999909
 30
0.0
 11
145.6999999999971
 21
-216.5577099173888
 31
0.0
  0
LINE
  5
28BE
330
2DE5
100
AcDbEntity
  8
0
 62
     0
100
AcDbLine
 10
145.6999999999989
 20
-213.5577433819726
 30
0.0
 11
237.5636195030375
 21
-274.7999999999984
 31
0.0
  0
LINE
  5
28BF
330
2DE5
100
AcDbEntity
  8
0
 62
     0
100
AcDbLine
 10
237.5636195030383
 20
-274.8000000000001
 30
0.0
 11
361.4999999999973
 21
-357.4240426815858
 31
0.0
  0
LINE
  5
28C0
330
2DE5
100
AcDbEntity
  8
0
 62
     0
100
AcDbLine
 10
-53.13712280841901
 20
-80.99999999999909
 30
0.0
 11
145.6999999999971
 21
-213.5577433819717
 31
0.0
  0
LINE
  5
28C1
330
2DE5
100
AcDbEntity
  8
0
 62
     0
100
AcDbLine
 10
145.6999999999989
 20
-210.5577768465582
 30
0.0
 11
242.0635807969202
 21
-274.7999999999984
 31
0.0
  0
LINE
  5
28C2
330
2DE5
100
AcDbEntity
  8
0
 62
     0
100
AcDbLine
 10
242.0635807969247
 20
-274.8000000000011
 30
0.0
 11
361.4999999999973
 21
-354.4240761461706
 31
0.0
  0
LINE
  5
28C3
330
2DE5
100
AcDbEntity
  8
0
 62
     0
100
AcDbLine
 10
-48.63716151453354
 20
-81.0
 30
0.0
 11
145.6999999999971
 21
-210.5577768465564
 31
0.0
  0
LINE
  5
28C4
330
2DE5
100
AcDbEntity
  8
0
 62
     0
100
AcDbLine
 10
145.6999999999998
 20
-207.5578103111411
 30
0.0
 11
246.5635420908075
 21
-274.7999999999984
 31
0.0
  0
LINE
  5
28C5
330
2DE5
100
AcDbEntity
  8
0
 62
     0
100
AcDbLine
 10
246.5635420908101
 20
-274.8000000000001
 30
0.0
 11
361.4999999999982
 21
-351.4241096107535
 31
0.0
  0
LINE
  5
28C6
330
2DE5
100
AcDbEntity
  8
0
 62
     0
100
AcDbLine
 10
-44.13720022064626
 20
-81.0
 30
0.0
 11
145.699999999998
 21
-207.5578103111402
 31
0.0
  0
LINE
  5
28C7
330
2DE5
100
AcDbEntity
  8
0
 62
     0
100
AcDbLine
 10
145.6999999999998
 20
-204.5578437757257
 30
0.0
 11
251.0635033846938
 21
-274.7999999999993
 31
0.0
  0
LINE
  5
28C8
330
2DE5
100
AcDbEntity
  8
0
 62
     0
100
AcDbLine
 10
251.0635033846966
 20
-274.8000000000011
 30
0.0
 11
361.4999999999982
 21
-348.4241430753382
 31
0.0
  0
LINE
  5
28C9
330
2DE5
100
AcDbEntity
  8
0
 62
     0
100
AcDbLine
 10
-39.63723892676262
 20
-80.99999999999909
 30
0.0
 11
145.6999999999971
 21
-204.557843775724
 31
0.0
  0
LINE
  5
28CA
330
2DE5
100
AcDbEntity
  8
0
 62
     0
100
AcDbLine
 10
145.699999999998
 20
-201.5578772403077
 30
0.0
 11
255.5634646785802
 21
-274.7999999999993
 31
0.0
  0
LINE
  5
28CB
330
2DE5
100
AcDbEntity
  8
0
 62
     0
100
AcDbLine
 10
255.5634646785811
 20
-274.8000000000001
 30
0.0
 11
361.4999999999982
 21
-345.4241765399221
 31
0.0
  0
LINE
  5
28CC
330
2DE5
100
AcDbEntity
  8
0
 62
     0
100
AcDbLine
 10
-35.13727763287625
 20
-80.99999999999909
 30
0.0
 11
145.6999999999971
 21
-201.5578772403069
 31
0.0
  0
LINE
  5
28CD
330
2DE5
100
AcDbEntity
  8
0
 62
     0
100
AcDbLine
 10
145.6999999999998
 20
-198.5579107048934
 30
0.0
 11
260.0634259724629
 21
-274.7999999999984
 31
0.0
  0
LINE
  5
28CE
330
2DE5
100
AcDbEntity
  8
0
 62
     0
100
AcDbLine
 10
260.0634259724675
 20
-274.800000000002
 30
0.0
 11
361.4999999999964
 21
-342.4242100045058
 31
0.0
  0
LINE
  5
28CF
330
2DE5
100
AcDbEntity
  8
0
 62
     0
100
AcDbLine
 10
-30.63731633899079
 20
-81.00000000000093
 30
0.0
 11
145.6999999999971
 21
-198.5579107048916
 31
0.0
  0
LINE
  5
28D0
330
2DE5
100
AcDbEntity
  8
0
 62
     0
100
AcDbLine
 10
145.6999999999989
 20
-195.5579441694754
 30
0.0
 11
264.5633872663493
 21
-274.7999999999984
 31
0.0
  0
LINE
  5
28D1
330
2DE5
100
AcDbEntity
  8
0
 62
     0
100
AcDbLine
 10
264.563387266352
 20
-274.8000000000001
 30
0.0
 11
361.4999999999982
 21
-339.4242434690895
 31
0.0
  0
LINE
  5
28D2
330
2DE5
100
AcDbEntity
  8
0
 62
     0
100
AcDbLine
 10
-26.13735504510442
 20
-81.0
 30
0.0
 11
145.6999999999971
 21
-195.5579441694744
 31
0.0
  0
LINE
  5
28D3
330
2DE5
100
AcDbEntity
  8
0
 62
     0
100
AcDbLine
 10
145.6999999999989
 20
-192.557977634061
 30
0.0
 11
269.0633485602357
 21
-274.8000000000001
 31
0.0
  0
LINE
  5
28D4
330
2DE5
100
AcDbEntity
  8
0
 62
     0
100
AcDbLine
 10
269.0633485602365
 20
-274.8000000000011
 30
0.0
 11
361.4999999999964
 21
-336.4242769336734
 31
0.0
  0
LINE
  5
28D5
330
2DE5
100
AcDbEntity
  8
0
 62
     0
100
AcDbLine
 10
-21.63739375122077
 20
-81.0
 30
0.0
 11
145.6999999999971
 21
-192.5579776340601
 31
0.0
  0
LINE
  5
28D6
330
2DE5
100
AcDbEntity
  8
0
 62
     0
100
AcDbLine
 10
145.6999999999998
 20
-189.5580110986436
 30
0.0
 11
273.563309854123
 21
-274.7999999999993
 31
0.0
  0
LINE
  5
28D7
330
2DE5
100
AcDbEntity
  8
0
 62
     0
100
AcDbLine
 10
273.563309854123
 20
-274.7999999999993
 30
0.0
 11
361.4999999999973
 21
-333.4243103982562
 31
0.0
  0
LINE
  5
28D8
330
2DE5
100
AcDbEntity
  8
0
 62
     0
100
AcDbLine
 10
-17.1374324573344
 20
-81.0
 30
0.0
 11
145.699999999998
 21
-189.5580110986428
 31
0.0
  0
LINE
  5
28D9
330
2DE5
100
AcDbEntity
  8
0
 62
     0
100
AcDbLine
 10
145.6999999999998
 20
-186.5580445632267
 30
0.0
 11
278.0632711480057
 21
-274.7999999999974
 31
0.0
  0
LINE
  5
28DA
330
2DE5
100
AcDbEntity
  8
0
 62
     0
100
AcDbLine
 10
278.0632711480084
 20
-274.7999999999993
 30
0.0
 11
361.4999999999973
 21
-330.4243438628391
 31
0.0
  0
LINE
  5
28DB
330
2DE5
100
AcDbEntity
  8
0
 62
     0
100
AcDbLine
 10
-12.63747116344802
 20
-80.99999999999909
 30
0.0
 11
145.699999999998
 21
-186.5580445632257
 31
0.0
  0
LINE
  5
28DC
330
2DE5
100
AcDbEntity
  8
0
 62
     0
100
AcDbLine
 10
145.6999999999998
 20
-183.5580780278114
 30
0.0
 11
282.5632324418921
 21
-274.7999999999984
 31
0.0
  0
LINE
  5
28DD
330
2DE5
100
AcDbEntity
  8
0
 62
     0
100
AcDbLine
 10
282.5632324418939
 20
-274.8000000000001
 30
0.0
 11
361.4999999999973
 21
-327.4243773274247
 31
0.0
  0
LINE
  5
28DE
330
2DE5
100
AcDbEntity
  8
0
 62
     0
100
AcDbLine
 10
-8.137509869564384
 20
-80.99999999999909
 30
0.0
 11
145.699999999998
 21
-183.5580780278105
 31
0.0
  0
LINE
  5
28DF
330
2DE5
100
AcDbEntity
  8
0
 62
     0
100
AcDbLine
 10
145.6999999999998
 20
-180.5581114923943
 30
0.0
 11
287.0631937357785
 21
-274.7999999999984
 31
0.0
  0
LINE
  5
28E0
330
2DE5
100
AcDbEntity
  8
0
 62
     0
100
AcDbLine
 10
287.0631937357794
 20
-274.7999999999993
 30
0.0
 11
361.4999999999973
 21
-324.4244107920076
 31
0.0
  0
LINE
  5
28E1
330
2DE5
100
AcDbEntity
  8
0
 62
     0
100
AcDbLine
 10
-3.637548575678008
 20
-80.99999999999818
 30
0.0
 11
145.699999999998
 21
-180.5581114923934
 31
0.0
  0
LINE
  5
28E2
330
2DE5
100
AcDbEntity
  8
0
 62
     0
100
AcDbLine
 10
145.6999999999998
 20
-177.5581449569799
 30
0.0
 11
291.5631550296612
 21
-274.7999999999984
 31
0.0
  0
LINE
  5
28E3
330
2DE5
100
AcDbEntity
  8
0
 62
     0
100
AcDbLine
 10
291.5631550296657
 20
-274.8000000000011
 30
0.0
 11
361.4999999999973
 21
-321.4244442565923
 31
0.0
  0
LINE
  5
28E4
330
2DE5
100
AcDbEntity
  8
0
 62
     0
100
AcDbLine
 10
0.8624127182074515
 20
-81.0
 30
0.0
 11
145.6999999999998
 21
-177.5581449569799
 31
0.0
  0
LINE
  5
28E5
330
2DE5
100
AcDbEntity
  8
0
 62
     0
100
AcDbLine
 10
145.6999999999989
 20
-174.5581784215618
 30
0.0
 11
296.0631163235484
 21
-274.7999999999974
 31
0.0
  0
LINE
  5
28E6
330
2DE5
100
AcDbEntity
  8
0
 62
     0
100
AcDbLine
 10
296.0631163235512
 20
-274.7999999999993
 30
0.0
 11
361.4999999999982
 21
-318.4244777211752
 31
0.0
  0
LINE
  5
28E7
330
2DE5
100
AcDbEntity
  8
0
 62
     0
100
AcDbLine
 10
5.362374012094733
 20
-81.0
 30
0.0
 11
145.6999999999989
 21
-174.5581784215618
 31
0.0
  0
LINE
  5
28E8
330
2DE5
100
AcDbEntity
  8
0
 62
     0
100
AcDbLine
 10
145.7000000000007
 20
-171.5582118861474
 30
0.0
 11
300.5630776174348
 21
-274.7999999999993
 31
0.0
  0
LINE
  5
28E9
330
2DE5
100
AcDbEntity
  8
0
 62
     0
100
AcDbLine
 10
300.5630776174375
 20
-274.8000000000011
 30
0.0
 11
361.4999999999973
 21
-315.424511185759
 31
0.0
  0
LINE
  5
28EA
330
2DE5
100
AcDbEntity
  8
0
 62
     0
100
AcDbLine
 10
9.862335305978376
 20
-80.99999999999909
 30
0.0
 11
145.6999999999989
 21
-171.5582118861466
 31
0.0
  0
LINE
  5
28EB
330
2DE5
100
AcDbEntity
  8
0
 62
     0
100
AcDbLine
 10
145.6999999999989
 20
-168.5582453507294
 30
0.0
 11
305.0630389113212
 21
-274.7999999999984
 31
0.0
  0
LINE
  5
28EC
330
2DE5
100
AcDbEntity
  8
0
 62
     0
100
AcDbLine
 10
305.0630389113221
 20
-274.8000000000001
 30
0.0
 11
361.4999999999982
 21
-312.4245446503437
 31
0.0
  0
LINE
  5
28ED
330
2DE5
100
AcDbEntity
  8
0
 62
     0
100
AcDbLine
 10
14.36229659986384
 20
-80.99999999999909
 30
0.0
 11
145.6999999999989
 21
-168.5582453507294
 31
0.0
  0
LINE
  5
28EE
330
2DE5
100
AcDbEntity
  8
0
 62
     0
100
AcDbLine
 10
145.6999999999989
 20
-165.5582788153141
 30
0.0
 11
309.5630002052039
 21
-274.7999999999984
 31
0.0
  0
LINE
  5
28EF
330
2DE5
100
AcDbEntity
  8
0
 62
     0
100
AcDbLine
 10
309.5630002052085
 20
-274.8000000000011
 30
0.0
 11
361.4999999999973
 21
-309.4245781149275
 31
0.0
  0
LINE
  5
28F0
330
2DE5
100
AcDbEntity
  8
0
 62
     0
100
AcDbLine
 10
18.86225789375021
 20
-81.0
 30
0.0
 11
145.6999999999989
 21
-165.5582788153141
 31
0.0
  0
LINE
  5
28F1
330
2DE5
100
AcDbEntity
  8
0
 62
     0
100
AcDbLine
 10
145.6999999999989
 20
-162.558312279898
 30
0.0
 11
314.0629614990903
 21
-274.7999999999984
 31
0.0
  0
LINE
  5
28F2
330
2DE5
100
AcDbEntity
  8
0
 62
     0
100
AcDbLine
 10
314.0629614990928
 20
-274.8000000000001
 30
0.0
 11
361.4999999999973
 21
-306.4246115795104
 31
0.0
  0
LINE
  5
28F3
330
2DE5
100
AcDbEntity
  8
0
 62
     0
100
AcDbLine
 10
23.36221918763659
 20
-81.0
 30
0.0
 11
145.6999999999989
 21
-162.558312279898
 31
0.0
  0
LINE
  5
28F4
330
2DE5
100
AcDbEntity
  8
0
 62
     0
100
AcDbLine
 10
145.6999999999989
 20
-159.5583457444827
 30
0.0
 11
318.5629227929767
 21
-274.7999999999993
 31
0.0
  0
LINE
  5
28F5
330
2DE5
100
AcDbEntity
  8
0
 62
     0
100
AcDbLine
 10
318.5629227929794
 20
-274.8000000000011
 30
0.0
 11
361.4999999999973
 21
-303.4246450440951
 31
0.0
  0
LINE
  5
28F6
330
2DE5
100
AcDbEntity
  8
0
 62
     0
100
AcDbLine
 10
27.86218048152296
 20
-81.00000000000182
 30
0.0
 11
145.6999999999989
 21
-159.5583457444827
 31
0.0
  0
LINE
  5
28F7
330
2DE5
100
AcDbEntity
  8
0
 62
     0
100
AcDbLine
 10
145.6999999999998
 20
-156.5583792090656
 30
0.0
 11
323.062884086864
 21
-274.7999999999993
 31
0.0
  0
LINE
  5
28F8
330
2DE5
100
AcDbEntity
  8
0
 62
     0
100
AcDbLine
 10
323.0628840868649
 20
-274.8000000000001
 30
0.0
 11
361.4999999999982
 21
-300.424678508678
 31
0.0
  0
LINE
  5
28F9
330
2DE5
100
AcDbEntity
  8
0
 62
     0
100
AcDbLine
 10
32.36214177540661
 20
-80.99999999999909
 30
0.0
 11
145.6999999999998
 21
-156.5583792090656
 31
0.0
  0
LINE
  5
28FA
330
2DE5
100
AcDbEntity
  8
0
 62
     0
100
AcDbLine
 10
145.6999999999998
 20
-153.5584126736503
 30
0.0
 11
327.5628453807494
 21
-274.8000000000011
 31
0.0
  0
LINE
  5
28FB
330
2DE5
100
AcDbEntity
  8
0
 62
     0
100
AcDbLine
 10
327.5628453807494
 20
-274.8000000000011
 30
0.0
 11
361.4999999999982
 21
-297.4247119732636
 31
0.0
  0
LINE
  5
28FC
330
2DE5
100
AcDbEntity
  8
0
 62
     0
100
AcDbLine
 10
36.86210306929297
 20
-81.00000000000093
 30
0.0
 11
145.6999999999998
 21
-153.5584126736503
 31
0.0
  0
LINE
  5
28FD
330
2DE5
100
AcDbEntity
  8
0
 62
     0
100
AcDbLine
 10
145.6999999999998
 20
-150.5584461382332
 30
0.0
 11
332.0628066746331
 21
-274.7999999999984
 31
0.0
  0
LINE
  5
28FE
330
2DE5
100
AcDbEntity
  8
0
 62
     0
100
AcDbLine
 10
332.0628066746341
 20
-274.7999999999993
 30
0.0
 11
361.4999999999982
 21
-294.4247454378465
 31
0.0
  0
LINE
  5
28FF
330
2DE5
100
AcDbEntity
  8
0
 62
     0
100
AcDbLine
 10
41.36206436317934
 20
-81.00000000000093
 30
0.0
 11
145.6999999999998
 21
-150.5584461382332
 31
0.0
  0
LINE
  5
2900
330
2DE5
100
AcDbEntity
  8
0
 62
     0
100
AcDbLine
 10
145.699999999998
 20
-147.558479602816
 30
0.0
 11
336.5627679685194
 21
-274.7999999999984
 31
0.0
  0
LINE
  5
2901
330
2DE5
100
AcDbEntity
  8
0
 62
     0
100
AcDbLine
 10
336.5627679685204
 20
-274.7999999999993
 30
0.0
 11
361.4999999999982
 21
-291.4247789024294
 31
0.0
  0
LINE
  5
2902
330
2DE5
100
AcDbEntity
  8
0
 62
     0
100
AcDbLine
 10
45.86202565706208
 20
-80.99999999999818
 30
0.0
 11
145.699999999998
 21
-147.558479602816
 31
0.0
  0
LINE
  5
2903
330
2DE5
100
AcDbEntity
  8
0
 62
     0
100
AcDbLine
 10
145.6999999999998
 20
-144.5585130674017
 30
0.0
 11
341.0627292624022
 21
-274.7999999999974
 31
0.0
  0
LINE
  5
2904
330
2DE5
100
AcDbEntity
  8
0
 62
     0
100
AcDbLine
 10
341.0627292624068
 20
-274.8000000000001
 30
0.0
 11
361.4999999999964
 21
-288.4248123670131
 31
0.0
  0
LINE
  5
2905
330
2DE5
100
AcDbEntity
  8
0
 62
     0
100
AcDbLine
 10
50.36198695094846
 20
-81.0
 30
0.0
 11
145.6999999999998
 21
-144.5585130674017
 31
0.0
  0
LINE
  5
2906
330
2DE5
100
AcDbEntity
  8
0
 62
     0
100
AcDbLine
 10
145.699999999998
 20
-141.5585465319836
 30
0.0
 11
345.5626905562886
 21
-274.7999999999974
 31
0.0
  0
LINE
  5
2907
330
2DE5
100
AcDbEntity
  8
0
 62
     0
100
AcDbLine
 10
345.5626905562913
 20
-274.7999999999993
 30
0.0
 11
361.4999999999964
 21
-285.424845831596
 31
0.0
  0
LINE
  5
2908
330
2DE5
100
AcDbEntity
  8
0
 62
     0
100
AcDbLine
 10
54.86194824483482
 20
-80.99999999999909
 30
0.0
 11
145.699999999998
 21
-141.5585465319836
 31
0.0
  0
LINE
  5
2909
330
2DE5
100
AcDbEntity
  8
0
 62
     0
100
AcDbLine
 10
145.6999999999998
 20
-138.5585799965683
 30
0.0
 11
350.0626518501757
 21
-274.7999999999984
 31
0.0
  0
LINE
  5
290A
330
2DE5
100
AcDbEntity
  8
0
 62
     0
100
AcDbLine
 10
350.0626518501785
 20
-274.8000000000011
 30
0.0
 11
361.4999999999973
 21
-282.4248792961807
 31
0.0
  0
LINE
  5
290B
330
2DE5
100
AcDbEntity
  8
0
 62
     0
100
AcDbLine
 10
59.36190953871935
 20
-80.99999999999909
 30
0.0
 11
145.6999999999998
 21
-138.5585799965683
 31
0.0
  0
LINE
  5
290C
330
2DE5
100
AcDbEntity
  8
0
 62
     0
100
AcDbLine
 10
145.6999999999998
 20
-135.5586134611512
 30
0.0
 11
354.5626131440622
 21
-274.7999999999984
 31
0.0
  0
LINE
  5
290D
330
2DE5
100
AcDbEntity
  8
0
 62
     0
100
AcDbLine
 10
354.5626131440631
 20
-274.7999999999993
 30
0.0
 11
361.4999999999973
 21
-279.4249127607645
 31
0.0
  0
LINE
  5
290E
330
2DE5
100
AcDbEntity
  8
0
 62
     0
100
AcDbLine
 10
63.86187083260484
 20
-80.99999999999818
 30
0.0
 11
145.6999999999998
 21
-135.5586134611512
 31
0.0
  0
LINE
  5
290F
330
2DE5
100
AcDbEntity
  8
0
 62
     0
100
AcDbLine
 10
145.6999999999998
 20
-132.5586469257368
 30
0.0
 11
359.0625744379476
 21
-274.8000000000001
 31
0.0
  0
LINE
  5
2910
330
2DE5
100
AcDbEntity
  8
0
 62
     0
100
AcDbLine
 10
359.0625744379495
 20
-274.8000000000011
 30
0.0
 11
361.4999999999973
 21
-276.4249462253492
 31
0.0
  0
LINE
  5
2911
330
2DE5
100
AcDbEntity
  8
0
 62
     0
100
AcDbLine
 10
68.36183212649121
 20
-81.0
 30
0.0
 11
145.6999999999998
 21
-132.5586469257368
 31
0.0
  0
LINE
  5
2912
330
2DE5
100
AcDbEntity
  8
0
 62
     0
100
AcDbLine
 10
145.6999999999998
 20
-129.5586803903197
 30
0.0
 11
361.4999999999991
 21
-273.424979689933
 31
0.0
  0
LINE
  5
2913
330
2DE5
100
AcDbEntity
  8
0
 62
     0
100
AcDbLine
 10
72.86179342037758
 20
-81.0
 30
0.0
 11
145.6999999999998
 21
-129.5586803903197
 31
0.0
  0
LINE
  5
2914
330
2DE5
100
AcDbEntity
  8
0
 62
     0
100
AcDbLine
 10
145.6999999999998
 20
-126.5587138549044
 30
0.0
 11
361.4999999999973
 21
-270.4250131545168
 31
0.0
  0
LINE
  5
2915
330
2DE5
100
AcDbEntity
  8
0
 62
     0
100
AcDbLine
 10
77.36175471426395
 20
-81.00000000000093
 30
0.0
 11
145.6999999999998
 21
-126.5587138549044
 31
0.0
  0
LINE
  5
2916
330
2DE5
100
AcDbEntity
  8
0
 62
     0
100
AcDbLine
 10
145.6999999999998
 20
-123.5587473194873
 30
0.0
 11
361.4999999999973
 21
-267.4250466190997
 31
0.0
  0
LINE
  5
2917
330
2DE5
100
AcDbEntity
  8
0
 62
     0
100
AcDbLine
 10
81.86171600814668
 20
-80.99999999999909
 30
0.0
 11
145.6999999999998
 21
-123.5587473194873
 31
0.0
  0
LINE
  5
2918
330
2DE5
100
AcDbEntity
  8
0
 62
     0
100
AcDbLine
 10
145.6999999999989
 20
-120.5587807840711
 30
0.0
 11
361.4999999999982
 21
-264.4250800836853
 31
0.0
  0
LINE
  5
2919
330
2DE5
100
AcDbEntity
  8
0
 62
     0
100
AcDbLine
 10
86.36167730203395
 20
-81.00000000000093
 30
0.0
 11
145.6999999999989
 21
-120.5587807840711
 31
0.0
  0
LINE
  5
291A
330
2DE5
100
AcDbEntity
  8
0
 62
     0
100
AcDbLine
 10
145.7000000000007
 20
-117.5588142486558
 30
0.0
 11
361.4999999999982
 21
-261.4251135482682
 31
0.0
  0
LINE
  5
291B
330
2DE5
100
AcDbEntity
  8
0
 62
     0
100
AcDbLine
 10
90.86163859592032
 20
-81.0
 30
0.0
 11
145.7000000000007
 21
-117.5588142486558
 31
0.0
  0
LINE
  5
291C
330
2DE5
100
AcDbEntity
  8
0
 62
     0
100
AcDbLine
 10
145.6999999999989
 20
-114.5588477132396
 30
0.0
 11
361.4999999999982
 21
-258.4251470128529
 31
0.0
  0
LINE
  5
291D
330
2DE5
100
AcDbEntity
  8
0
 62
     0
100
AcDbLine
 10
95.36159988980671
 20
-81.00000000000182
 30
0.0
 11
145.6999999999989
 21
-114.5588477132396
 31
0.0
  0
LINE
  5
291E
330
2DE5
100
AcDbEntity
  8
0
 62
     0
100
AcDbLine
 10
145.6999999999989
 20
-111.5588811778225
 30
0.0
 11
361.4999999999982
 21
-255.4251804774358
 31
0.0
  0
LINE
  5
291F
330
2DE5
100
AcDbEntity
  8
0
 62
     0
100
AcDbLine
 10
99.86156118368946
 20
-80.99999999999909
 30
0.0
 11
145.6999999999989
 21
-111.5588811778225
 31
0.0
  0
LINE
  5
2920
330
2DE5
100
AcDbEntity
  8
0
 62
     0
100
AcDbLine
 10
145.6999999999989
 20
-108.5589146424054
 30
0.0
 11
361.4999999999982
 21
-252.4252139420196
 31
0.0
  0
LINE
  5
2921
330
2DE5
100
AcDbEntity
  8
0
 62
     0
100
AcDbLine
 10
104.3615224775758
 20
-80.99999999999909
 30
0.0
 11
145.6999999999989
 21
-108.5589146424054
 31
0.0
  0
LINE
  5
2922
330
2DE5
100
AcDbEntity
  8
0
 62
     0
100
AcDbLine
 10
145.6999999999989
 20
-105.5589481069901
 30
0.0
 11
361.4999999999973
 21
-249.4252474066034
 31
0.0
  0
LINE
  5
2923
330
2DE5
100
AcDbEntity
  8
0
 62
     0
100
AcDbLine
 10
108.8614837714622
 20
-81.00000000000093
 30
0.0
 11
145.6999999999989
 21
-105.5589481069901
 31
0.0
  0
LINE
  5
2924
330
2DE5
100
AcDbEntity
  8
0
 62
     0
100
AcDbLine
 10
145.6999999999998
 20
-102.558981571573
 30
0.0
 11
361.4999999999991
 21
-246.4252808711872
 31
0.0
  0
LINE
  5
2925
330
2DE5
100
AcDbEntity
  8
0
 62
     0
100
AcDbLine
 10
113.3614450653458
 20
-80.99999999999818
 30
0.0
 11
145.6999999999998
 21
-102.558981571573
 31
0.0
  0
LINE
  5
2926
330
2DE5
100
AcDbEntity
  8
0
 62
     0
100
AcDbLine
 10
145.6999999999998
 20
-99.5590150361586
 30
0.0
 11
361.4999999999982
 21
-243.425314335771
 31
0.0
  0
LINE
  5
2927
330
2DE5
100
AcDbEntity
  8
0
 62
     0
100
AcDbLine
 10
117.8614063592322
 20
-81.0
 30
0.0
 11
145.6999999999998
 21
-99.5590150361586
 31
0.0
  0
LINE
  5
2928
330
2DE5
100
AcDbEntity
  8
0
 62
     0
100
AcDbLine
 10
145.6999999999998
 20
-96.55904850074149
 30
0.0
 11
361.4999999999982
 21
-240.4253478003539
 31
0.0
  0
LINE
  5
2929
330
2DE5
100
AcDbEntity
  8
0
 62
     0
100
AcDbLine
 10
122.3613676531186
 20
-80.99999999999909
 30
0.0
 11
145.6999999999998
 21
-96.55904850074149
 31
0.0
  0
LINE
  5
292A
330
2DE5
100
AcDbEntity
  8
0
 62
     0
100
AcDbLine
 10
145.699999999998
 20
-93.55908196532528
 30
0.0
 11
361.4999999999982
 21
-237.4253812649385
 31
0.0
  0
LINE
  5
292B
330
2DE5
100
AcDbEntity
  8
0
 62
     0
100
AcDbLine
 10
126.8613289470049
 20
-81.00000000000093
 30
0.0
 11
145.699999999998
 21
-93.55908196532528
 31
0.0
  0
LINE
  5
292C
330
2DE5
100
AcDbEntity
  8
0
 62
     0
100
AcDbLine
 10
145.6999999999998
 20
-90.55911542990907
 30
0.0
 11
361.4999999999982
 21
-234.4254147295223
 31
0.0
  0
LINE
  5
292D
330
2DE5
100
AcDbEntity
  8
0
 62
     0
100
AcDbLine
 10
131.3612902408877
 20
-80.99999999999818
 30
0.0
 11
145.6999999999998
 21
-90.55911542990907
 31
0.0
  0
LINE
  5
292E
330
2DE5
100
AcDbEntity
  8
0
 62
     0
100
AcDbLine
 10
145.699999999998
 20
-87.55914889449284
 30
0.0
 11
361.4999999999982
 21
-231.4254481941071
 31
0.0
  0
LINE
  5
292F
330
2DE5
100
AcDbEntity
  8
0
 62
     0
100
AcDbLine
 10
135.861251534774
 20
-81.0
 30
0.0
 11
145.699999999998
 21
-87.55914889449284
 31
0.0
  0
LINE
  5
2930
330
2DE5
100
AcDbEntity
  8
0
 62
     0
100
AcDbLine
 10
145.7000000000007
 20
-84.55918235907756
 30
0.0
 11
361.4999999999991
 21
-228.4254816586899
 31
0.0
  0
LINE
  5
2931
330
2DE5
100
AcDbEntity
  8
0
 62
     0
100
AcDbLine
 10
140.3612128286613
 20
-81.0
 30
0.0
 11
145.6999999999989
 21
-84.55918235907665
 31
0.0
  0
LINE
  5
2932
330
2DE5
100
AcDbEntity
  8
0
 62
     0
100
AcDbLine
 10
145.6999999999989
 20
-81.55921582366136
 30
0.0
 11
361.4999999999991
 21
-225.4255151232746
 31
0.0
  0
LINE
  5
2933
330
2DE5
100
AcDbEntity
  8
0
 62
     0
100
AcDbLine
 10
144.8611741225477
 20
-81.00000000000093
 30
0.0
 11
145.6999999999989
 21
-81.55921582366136
 31
0.0
  0
LINE
  5
2934
330
2DE5
100
AcDbEntity
  8
0
 62
     0
100
AcDbLine
 10
149.3611354164331
 20
-81.00000000000093
 30
0.0
 11
361.4999999999991
 21
-222.4255485878575
 31
0.0
  0
LINE
  5
2935
330
2DE5
100
AcDbEntity
  8
0
 62
     0
100
AcDbLine
 10
153.8610967103168
 20
-81.00000000000093
 30
0.0
 11
361.4999999999991
 21
-219.4255820524432
 31
0.0
  0
LINE
  5
2936
330
2DE5
100
AcDbEntity
  8
0
 62
     0
100
AcDbLine
 10
158.3610580042032
 20
-81.0
 30
0.0
 11
361.4999999999973
 21
-216.4256155170251
 31
0.0
  0
LINE
  5
2937
330
2DE5
100
AcDbEntity
  8
0
 62
     0
100
AcDbLine
 10
162.8610192980859
 20
-80.99999999999818
 30
0.0
 11
361.4999999999991
 21
-213.4256489816089
 31
0.0
  0
LINE
  5
2938
330
2DE5
100
AcDbEntity
  8
0
 62
     0
100
AcDbLine
 10
167.3609805919732
 20
-80.99999999999909
 30
0.0
 11
361.4999999999982
 21
-210.4256824461927
 31
0.0
  0
LINE
  5
2939
330
2DE5
100
AcDbEntity
  8
0
 62
     0
100
AcDbLine
 10
171.8609418858596
 20
-80.99999999999909
 30
0.0
 11
361.4999999999982
 21
-207.4257159107756
 31
0.0
  0
LINE
  5
293A
330
2DE5
100
AcDbEntity
  8
0
 62
     0
100
AcDbLine
 10
176.3609031797458
 20
-81.00000000000093
 30
0.0
 11
361.4999999999982
 21
-204.4257493753612
 31
0.0
  0
LINE
  5
293B
330
2DE5
100
AcDbEntity
  8
0
 62
     0
100
AcDbLine
 10
180.8608644736287
 20
-80.99999999999818
 30
0.0
 11
361.4999999999982
 21
-201.4257828399441
 31
0.0
  0
LINE
  5
293C
330
2DE5
100
AcDbEntity
  8
0
 62
     0
100
AcDbLine
 10
185.360825767515
 20
-81.0
 30
0.0
 11
361.4999999999982
 21
-198.4258163045288
 31
0.0
  0
LINE
  5
293D
330
2DE5
100
AcDbEntity
  8
0
 62
     0
100
AcDbLine
 10
189.8607870614023
 20
-80.99999999999909
 30
0.0
 11
361.4999999999991
 21
-195.4258497691116
 31
0.0
  0
LINE
  5
293E
330
2DE5
100
AcDbEntity
  8
0
 62
     0
100
AcDbLine
 10
194.3607483552878
 20
-81.00000000000093
 30
0.0
 11
361.4999999999991
 21
-192.4258832336963
 31
0.0
  0
LINE
  5
293F
330
2DE5
100
AcDbEntity
  8
0
 62
     0
100
AcDbLine
 10
198.8607096491741
 20
-81.00000000000093
 30
0.0
 11
361.4999999999982
 21
-189.4259166982783
 31
0.0
  0
LINE
  5
2940
330
2DE5
100
AcDbEntity
  8
0
 62
     0
100
AcDbLine
 10
203.3606709430578
 20
-81.0
 30
0.0
 11
361.4999999999991
 21
-186.4259501628648
 31
0.0
  0
LINE
  5
2941
330
2DE5
100
AcDbEntity
  8
0
 62
     0
100
AcDbLine
 10
207.8606322369442
 20
-81.0
 30
0.0
 11
361.4999999999982
 21
-183.4259836274468
 31
0.0
  0
LINE
  5
2942
330
2DE5
100
AcDbEntity
  8
0
 62
     0
100
AcDbLine
 10
212.3605935308296
 20
-81.00000000000182
 30
0.0
 11
361.4999999999982
 21
-180.4260170920315
 31
0.0
  0
LINE
  5
2943
330
2DE5
100
AcDbEntity
  8
0
 62
     0
100
AcDbLine
 10
216.8605548247142
 20
-80.99999999999909
 30
0.0
 11
361.4999999999991
 21
-177.4260505566144
 31
0.0
  0
LINE
  5
2944
330
2DE5
100
AcDbEntity
  8
0
 62
     0
100
AcDbLine
 10
221.3605161186006
 20
-80.99999999999909
 30
0.0
 11
361.4999999999991
 21
-174.4260840211973
 31
0.0
  0
LINE
  5
2945
330
2DE5
100
AcDbEntity
  8
0
 62
     0
100
AcDbLine
 10
225.860477412486
 20
-81.0
 30
0.0
 11
361.4999999999991
 21
-171.4261174857829
 31
0.0
  0
LINE
  5
2946
330
2DE5
100
AcDbEntity
  8
0
 62
     0
100
AcDbLine
 10
230.3604387063697
 20
-80.99999999999818
 30
0.0
 11
361.4999999999991
 21
-168.4261509503658
 31
0.0
  0
LINE
  5
2947
330
2DE5
100
AcDbEntity
  8
0
 62
     0
100
AcDbLine
 10
234.860400000256
 20
-80.99999999999909
 30
0.0
 11
361.4999999999991
 21
-165.4261844149505
 31
0.0
  0
LINE
  5
2948
330
2DE5
100
AcDbEntity
  8
0
 62
     0
100
AcDbLine
 10
239.3603612941424
 20
-80.99999999999909
 30
0.0
 11
361.4999999999973
 21
-162.4262178795324
 31
0.0
  0
LINE
  5
2949
330
2DE5
100
AcDbEntity
  8
0
 62
     0
100
AcDbLine
 10
243.8603225880288
 20
-81.00000000000093
 30
0.0
 11
361.5
 21
-159.4262513441181
 31
0.0
  0
LINE
  5
294A
330
2DE5
100
AcDbEntity
  8
0
 62
     0
100
AcDbLine
 10
248.3602838819152
 20
-81.0
 30
0.0
 11
361.4999999999982
 21
-156.4262848087009
 31
0.0
  0
LINE
  5
294B
330
2DE5
100
AcDbEntity
  8
0
 62
     0
100
AcDbLine
 10
252.8602451757988
 20
-81.0
 30
0.0
 11
361.4999999999982
 21
-153.4263182732857
 31
0.0
  0
LINE
  5
294C
330
2DE5
100
AcDbEntity
  8
0
 62
     0
100
AcDbLine
 10
257.3602064696843
 20
-80.99999999999909
 30
0.0
 11
361.4999999999982
 21
-150.4263517378686
 31
0.0
  0
LINE
  5
294D
330
2DE5
100
AcDbEntity
  8
0
 62
     0
100
AcDbLine
 10
261.8601677635707
 20
-81.00000000000093
 30
0.0
 11
361.4999999999982
 21
-147.4263852024533
 31
0.0
  0
LINE
  5
294E
330
2DE5
100
AcDbEntity
  8
0
 62
     0
100
AcDbLine
 10
266.3601290574571
 20
-81.00000000000093
 30
0.0
 11
361.4999999999982
 21
-144.4264186670361
 31
0.0
  0
LINE
  5
294F
330
2DE5
100
AcDbEntity
  8
0
 62
     0
100
AcDbLine
 10
270.8600903513416
 20
-81.0
 30
0.0
 11
361.4999999999991
 21
-141.4264521316217
 31
0.0
  0
LINE
  5
2950
330
2DE5
100
AcDbEntity
  8
0
 62
     0
100
AcDbLine
 10
275.360051645227
 20
-81.0
 30
0.0
 11
361.4999999999991
 21
-138.4264855962046
 31
0.0
  0
LINE
  5
2951
330
2DE5
100
AcDbEntity
  8
0
 62
     0
100
AcDbLine
 10
279.8600129391107
 20
-80.99999999999909
 30
0.0
 11
361.4999999999982
 21
-135.4265190607884
 31
0.0
  0
LINE
  5
2952
330
2DE5
100
AcDbEntity
  8
0
 62
     0
100
AcDbLine
 10
284.3599742329971
 20
-80.99999999999909
 30
0.0
 11
361.4999999999991
 21
-132.4265525253722
 31
0.0
  0
LINE
  5
2953
330
2DE5
100
AcDbEntity
  8
0
 62
     0
100
AcDbLine
 10
288.8599355268825
 20
-80.99999999999909
 30
0.0
 11
361.4999999999982
 21
-129.4265859899542
 31
0.0
  0
LINE
  5
2954
330
2DE5
100
AcDbEntity
  8
0
 62
     0
100
AcDbLine
 10
293.3598968207689
 20
-81.0
 30
0.0
 11
361.4999999999982
 21
-126.4266194545389
 31
0.0
  0
LINE
  5
2955
330
2DE5
100
AcDbEntity
  8
0
 62
     0
100
AcDbLine
 10
297.8598581146563
 20
-81.0
 30
0.0
 11
361.4999999999991
 21
-123.4266529191227
 31
0.0
  0
LINE
  5
2956
330
2DE5
100
AcDbEntity
  8
0
 62
     0
100
AcDbLine
 10
302.3598194085398
 20
-80.99999999999909
 30
0.0
 11
361.4999999999991
 21
-120.4266863837074
 31
0.0
  0
LINE
  5
2957
330
2DE5
100
AcDbEntity
  8
0
 62
     0
100
AcDbLine
 10
306.8597807024253
 20
-80.99999999999909
 30
0.0
 11
361.4999999999991
 21
-117.4267198482903
 31
0.0
  0
LINE
  5
2958
330
2DE5
100
AcDbEntity
  8
0
 62
     0
100
AcDbLine
 10
311.3597419963117
 20
-81.00000000000093
 30
0.0
 11
361.4999999999991
 21
-114.426753312875
 31
0.0
  0
LINE
  5
2959
330
2DE5
100
AcDbEntity
  8
0
 62
     0
100
AcDbLine
 10
315.859703290198
 20
-81.0
 30
0.0
 11
361.4999999999991
 21
-111.4267867774579
 31
0.0
  0
LINE
  5
295A
330
2DE5
100
AcDbEntity
  8
0
 62
     0
100
AcDbLine
 10
320.3596645840808
 20
-81.0
 30
0.0
 11
361.4999999999973
 21
-108.4268202420426
 31
0.0
  0
LINE
  5
295B
330
2DE5
100
AcDbEntity
  8
0
 62
     0
100
AcDbLine
 10
324.8596258779681
 20
-81.0
 30
0.0
 11
361.5
 21
-105.4268537066264
 31
0.0
  0
LINE
  5
295C
330
2DE5
100
AcDbEntity
  8
0
 62
     0
100
AcDbLine
 10
329.3595871718542
 20
-81.00000000000093
 30
0.0
 11
361.4999999999982
 21
-102.4268871712102
 31
0.0
  0
LINE
  5
295D
330
2DE5
100
AcDbEntity
  8
0
 62
     0
100
AcDbLine
 10
333.8595484657381
 20
-80.99999999999909
 30
0.0
 11
361.4999999999982
 21
-99.42692063579308
 31
0.0
  0
LINE
  5
295E
330
2DE5
100
AcDbEntity
  8
0
 62
     0
100
AcDbLine
 10
338.3595097596235
 20
-81.0
 30
0.0
 11
361.4999999999982
 21
-96.42695410037777
 31
0.0
  0
LINE
  5
295F
330
2DE5
100
AcDbEntity
  8
0
 62
     0
100
AcDbLine
 10
342.8594710535099
 20
-81.0
 30
0.0
 11
361.4999999999982
 21
-93.42698756496156
 31
0.0
  0
LINE
  5
2960
330
2DE5
100
AcDbEntity
  8
0
 62
     0
100
AcDbLine
 10
347.3594323473963
 20
-81.0
 30
0.0
 11
361.4999999999982
 21
-90.42702102954445
 31
0.0
  0
LINE
  5
2961
330
2DE5
100
AcDbEntity
  8
0
 62
     0
100
AcDbLine
 10
351.8593936412799
 20
-80.99999999999909
 30
0.0
 11
361.4999999999991
 21
-87.42705449412916
 31
0.0
  0
LINE
  5
2962
330
2DE5
100
AcDbEntity
  8
0
 62
     0
100
AcDbLine
 10
356.3593549351663
 20
-80.99999999999909
 30
0.0
 11
361.4999999999991
 21
-84.42708795871203
 31
0.0
  0
LINE
  5
2963
330
2DE5
100
AcDbEntity
  8
0
 62
     0
100
AcDbLine
 10
360.8593162290526
 20
-81.0
 30
0.0
 11
361.4999999999982
 21
-81.42712142329584
 31
0.0
  0
ENDBLK
  5
2964
330
2DE5
100
AcDbEntity
  8
0
100
AcDbBlockEnd
  0
ENDSEC
  0
SECTION
  2
ENTITIES
  0
TEXT
  5
953
330
2D11
100
AcDbEntity
  8
OUTLINE
  6
Continuous
 62
     3
100
AcDbText
 10
-418.231467
 20
13.715189
 30
0.0
 40
64.0
  1
 
 41
0.9
100
AcDbText
  0
TEXT
  5
954
330
2D11
100
AcDbEntity
  8
OUTLINE
  6
Continuous
 62
     3
100
AcDbText
 10
-418.231467
 20
13.715189
 30
0.0
 40
64.0
  1
 
 41
0.9
100
AcDbText
  0
TEXT
  5
955
330
2D11
100
AcDbEntity
  8
OUTLINE
  6
Continuous
 62
     3
100
AcDbText
 10
1341.41903
 20
-706.0588199999997
 30
0.0
 40
64.0
  1
 
 41
0.9
100
AcDbText
  0
TEXT
  5
956
330
2D11
100
AcDbEntity
  8
OUTLINE
  6
Continuous
 62
     3
100
AcDbText
 10
1341.41903
 20
-706.0588199999997
 30
0.0
 40
64.0
  1
 
 41
0.9
100
AcDbText
  0
TEXT
  5
957
330
2D11
100
AcDbEntity
  8
OUTLINE
  6
Continuous
 62
     3
100
AcDbText
 10
1341.41903
 20
-706.0588199999997
 30
0.0
 40
64.0
  1
 
 41
0.9
100
AcDbText
  0
TEXT
  5
958
330
2D11
100
AcDbEntity
  8
OUTLINE
  6
Continuous
 62
     3
100
AcDbText
 10
1341.41903
 20
-706.0588199999997
 30
0.0
 40
64.0
  1
 
 41
0.9
100
AcDbText
  0
TEXT
  5
29B7
330
2D11
100
AcDbEntity
  8
ETC
100
AcDbText
 10
527.6816116987993
 20
565.8763752417772
 30
0.0
 40
64.0
  1
システム部材
 41
0.9
100
AcDbText
  0
TEXT
  5
29B8
330
2D11
100
AcDbEntity
  8
ETC
100
AcDbText
 10
533.8896096987972
 20
666.7597012417775
 30
0.0
 40
64.0
  1
W-70TDACM-A_6
 41
0.9
100
AcDbText
  0
CIRCLE
  5
29B9
330
2D11
100
AcDbEntity
  8
ARRANGE
100
AcDbCircle
 10
0.0
 20
0.0
 30
0.0
 40
40.0
  0
LINE
  5
29BA
330
2D11
100
AcDbEntity
  8
BASIS
100
AcDbLine
 10
0.0
 20
25.0
 30
0.0
 11
0.0
 21
-727.0
 31
0.0
  0
LINE
  5
29BB
330
2D11
100
AcDbEntity
  8
DETAIL
100
AcDbLine
 10
361.5
 20
-681.0
 30
0.0
 11
361.5
 21
-81.0
 31
0.0
  0
LINE
  5
29BC
330
2D11
100
AcDbEntity
  8
DETAIL
100
AcDbLine
 10
-361.4999999999998
 20
-681.0
 30
0.0
 11
-361.4999999999998
 21
-81.0
 31
0.0
  0
LINE
  5
29BD
330
2D11
100
AcDbEntity
  8
DETAIL
100
AcDbLine
 10
-386.9999999999998
 20
-702.0
 30
0.0
 11
-386.9999999999998
 21
-3.0
 31
0.0
  0
LINE
  5
29BE
330
2D11
100
AcDbEntity
  8
DETAIL
100
AcDbLine
 10
387.0
 20
-702.0
 30
0.0
 11
387.0
 21
-3.0
 31
0.0
  0
LINE
  5
29BF
330
2D11
100
AcDbEntity
  8
DETAIL
100
AcDbLine
 10
-361.4999999999998
 20
-81.0
 30
0.0
 11
361.5
 21
-81.0
 31
0.0
  0
LINE
  5
29C0
330
2D11
100
AcDbEntity
  8
DETAIL
100
AcDbLine
 10
-386.9999999999998
 20
-40.0
 30
0.0
 11
387.0
 21
-40.0
 31
0.0
  0
LINE
  5
29C1
330
2D11
100
AcDbEntity
  8
DETAIL
100
AcDbLine
 10
-424.9999999999998
 20
0.0
 30
0.0
 11
425.0
 21
0.0
 31
0.0
  0
LINE
  5
29C2
330
2D11
100
AcDbEntity
  8
DETAIL
100
AcDbLine
 10
-424.9999999999998
 20
-3.0
 30
0.0
 11
425.0
 21
-3.0
 31
0.0
  0
LINE
  5
29C3
330
2D11
100
AcDbEntity
  8
NOTE
100
AcDbLine
 10
-399.9999999999998
 20
-12.5
 30
0.0
 11
-399.9999999999998
 21
12.5
 31
0.0
  0
LINE
  5
29C4
330
2D11
100
AcDbEntity
  8
DETAIL
100
AcDbLine
 10
-424.9999999999998
 20
0.0
 30
0.0
 11
-424.9999999999998
 21
-3.0
 31
0.0
  0
LINE
  5
29C5
330
2D11
100
AcDbEntity
  8
NOTE
100
AcDbLine
 10
399.9999999999982
 20
-12.5
 30
0.0
 11
399.9999999999982
 21
12.5
 31
0.0
  0
LINE
  5
29C6
330
2D11
100
AcDbEntity
  8
DETAIL
100
AcDbLine
 10
425.0
 20
-3.0
 30
0.0
 11
425.0
 21
0.0
 31
0.0
  0
LINE
  5
29C7
330
2D11
100
AcDbEntity
  8
DETAIL
100
AcDbLine
 10
-361.4999999999998
 20
-681.0
 30
0.0
 11
361.5
 21
-681.0
 31
0.0
  0
LINE
  5
29C8
330
2D11
100
AcDbEntity
  8
DETAIL
100
AcDbLine
 10
-386.9999999999998
 20
-702.0
 30
0.0
 11
387.0
 21
-702.0
 31
0.0
  0
LINE
  5
29C9
330
2D11
100
AcDbEntity
  8
OUTLINE
100
AcDbLine
 10
172.9999999999981
 20
-702.0
 30
0.0
 11
342.0
 21
-702.0
 31
0.0
  0
POINT
  5
29CA
330
2D11
100
AcDbEntity
  8
ARRANGE
100
AcDbPoint
 10
0.0
 20
0.0
 30
0.0
 39
50.0
  0
LINE
  5
29CB
330
2D11
100
AcDbEntity
  8
DETAIL
100
AcDbLine
 10
-386.9999999999998
 20
-60.0
 30
0.0
 11
387.0
 21
-60.0
 31
0.0
  0
LINE
  5
29CC
330
2D11
100
AcDbEntity
  8
OUTLINE
100
AcDbLine
 10
172.9999999999981
 20
-702.0
 30
0.0
 11
342.0
 21
-702.0
 31
0.0
  0
INSERT
  5
29CD
330
2D11
100
AcDbEntity
  8
0
100
AcDbBlockReference
  2
*U66
 10
0.0
 20
0.0
 30
0.0
1001
ACAD
1000
DSTYLE
1002
{
1070
    41
1040
12.0
1070
    42
1040
20.0
1070
    43
1040
200.0
1070
    44
1040
20.0
1070
    73
1070
     0
1070
    74
1070
     0
1070
    77
1070
     1
1070
    78
1070
     8
1070
   140
1040
64.0
1070
   147
1040
50.0
1070
   172
1070
     1
1070
   174
1070
     1
1070
   275
1070
     0
1070
   284
1070
     0
1070
   285
1070
     0
1070
   286
1070
     0
1070
   341
1005
0
1070
   342
1005
0
1002
}
  0
INSERT
  5
29CE
330
2D11
100
AcDbEntity
  8
0
100
AcDbBlockReference
  2
*U67
 10
0.0
 20
0.0
 30
0.0
  0
LINE
  5
29CF
330
2D11
100
AcDbEntity
  8
NOTE
100
AcDbLine
 39
50.0
 10
-412.4999999999998
 20
0.0
 30
0.0
 11
-387.4999999999998
 21
0.0
 31
0.0
  0
LINE
  5
29D0
330
2D11
100
AcDbEntity
  8
NOTE
100
AcDbLine
 39
50.0
 10
387.4999999999982
 20
0.0
 30
0.0
 11
412.4999999999982
 21
0.0
 31
0.0
  0
LINE
  5
29D1
330
2D11
100
AcDbEntity
  8
OUTLINE
100
AcDbLine
 10
-386.9999999999998
 20
-702.0
 30
0.0
 11
-386.9999999999998
 21
-3.0
 31
0.0
  0
LINE
  5
29D2
330
2D11
100
AcDbEntity
  8
OUTLINE
100
AcDbLine
 10
387.0
 20
-702.0
 30
0.0
 11
387.0
 21
-3.0
 31
0.0
  0
LINE
  5
29D3
330
2D11
100
AcDbEntity
  8
OUTLINE
100
AcDbLine
 10
-386.9999999999998
 20
-40.0
 30
0.0
 11
387.0
 21
-40.0
 31
0.0
  0
LINE
  5
29D4
330
2D11
100
AcDbEntity
  8
OUTLINE
100
AcDbLine
 10
-424.9999999999998
 20
-3.0
 30
0.0
 11
425.0
 21
-3.0
 31
0.0
  0
LINE
  5
29D5
330
2D11
100
AcDbEntity
  8
OUTLINE
100
AcDbLine
 10
-386.9999999999998
 20
-702.0
 30
0.0
 11
387.0
 21
-702.0
 31
0.0
  0
LINE
  5
29D6
330
2D11
100
AcDbEntity
  8
OUTLINE
100
AcDbLine
 10
-386.9999999999998
 20
-60.0
 30
0.0
 11
387.0
 21
-60.0
 31
0.0
  0
TEXT
  5
29D7
330
2D11
100
AcDbEntity
  8
ETC
100
AcDbText
 10
533.8896096987972
 20
466.7597012417774
 30
0.0
 40
64.0
  1
W-70TDACM-A
 41
0.9
100
AcDbText
  0
LINE
  5
29D8
330
2D11
100
AcDbEntity
  8
OUTLINE
100
AcDbLine
 39
50.0
 10
-424.9999999999998
 20
-3.0
 30
0.0
 11
-424.9999999999998
 21
0.0
 31
0.0
  0
LINE
  5
29D9
330
2D11
100
AcDbEntity
  8
OUTLINE
100
AcDbLine
 39
50.0
 10
-424.9999999999998
 20
0.0
 30
0.0
 11
425.0
 21
0.0
 31
0.0
  0
LINE
  5
29DA
330
2D11
100
AcDbEntity
  8
OUTLINE
100
AcDbLine
 39
50.0
 10
425.0
 20
0.0
 30
0.0
 11
425.0
 21
-3.0
 31
0.0
  0
INSERT
  5
29DB
330
2D11
100
AcDbEntity
  8
DETAIL
100
AcDbBlockReference
  2
*X68
 10
0.0
 20
0.0
 30
0.0
1001
ACADANNOTATIVE
1000
AnnotativeData
1002
{
1070
     1
1070
     0
1002
}
1001
ACAD
1000
HATCH
1002
{
1070
    19
1000
LINE
1040
19.969
1040
0.5880014249968896
1000
R14_HATCH_DATA
1000
8A52
1011
1.0
1021
0.0
1031
0.0
1011
0.0
1021
1.0
1031
0.0
1011
0.0
1021
0.0
1031
1.0
1040
0.0
1010
0.0
1020
0.0
1030
1.0
1000
LINE
1070
     0
1070
     0
1071
        2
1071
        7
1070
     0
1070
     1
1071
        6
1040
145.6999999999989
1040
-81.0
1040
-361.5
1040
-81.0
1040
-361.5
1040
-681.0
1040
361.5
1040
-681.0000000000008
1040
361.4999999999982
1040
-274.7999999999994
1040
145.6999999999989
1040
-274.7999999999994
1071
        0
1071
       23
1070
     0
1070
     1
1071
        4
1040
361.4999999999982
1040
-81.00000000000093
1040
145.6999999999989
1040
-81.0
1040
145.7000000000007
1040
-274.7999999999984
1040
361.5
1040
-274.7999999999984
1071
        0
1070
     0
1070
     1
1040
0.5880014249968896
1040
19.969
1070
     0
1070
     1
1040
0.5880014249968896
1040
14750.75365893262
1040
5571.591534480916
1040
-1.384598579568018
1040
2.076903172775084
1070
     0
1040
3.819947294084323
1071
        2
1040
-66.42540703497434
1040
-271.4034472430312
1040
0.0
1040
292.0833088850486
1040
-199.7214214842224
1040
0.0
1002
}
  0
INSERT
  5
29DC
330
2D11
100
AcDbEntity
  8
DETAIL
100
AcDbBlockReference
  2
*X69
 10
0.0
 20
0.0
 30
0.0
1001
ACADANNOTATIVE
1000
AnnotativeData
1002
{
1070
     1
1070
     0
1002
}
1001
ACAD
1000
HATCH
1002
{
1070
    19
1000
LINE
1040
19.969
1040
5.695183882182695
1000
R14_HATCH_DATA
1000
8A58
1011
1.0
1021
0.0
1031
0.0
1011
0.0
1021
1.0
1031
0.0
1011
0.0
1021
0.0
1031
1.0
1040
0.0
1010
0.0
1020
0.0
1030
1.0
1000
LINE
1070
     0
1070
     0
1071
        2
1071
        7
1070
     0
1070
     1
1071
        6
1040
145.7000000000007
1040
-81.0
1040
-361.5
1040
-80.99999999999909
1040
-361.5
1040
-681.0000000000008
1040
361.4999999999982
1040
-680.9999999999988
1040
361.4999999999982
1040
-274.7999999999994
1040
145.6999999999989
1040
-274.7999999999994
1071
        0
1071
        7
1070
     0
1070
     1
1071
        4
1040
145.7000000000007
1040
-81.0
1040
145.7000000000007
1040
-274.7999999999984
1040
361.5
1040
-274.7999999999984
1040
361.5
1040
-81.0
1071
        0
1070
     0
1070
     1
1040
5.695183882182695
1040
19.969
1070
     0
1070
     1
1040
5.695183882182695
1040
14750.75365893262
1040
5571.591534480916
1040
1.384598579568018
1040
2.076903172775084
1070
     0
1040
1.079308446112194
1071
        2
1040
50.49646123051569
1040
-246.2952481626771
1040
0.0
1040
257.0780182326853
1040
-126.3693230282424
1040
0.0
1002
}
  0
LINE
  5
29DD
330
2D11
100
AcDbEntity
  8
DETAIL
100
AcDbLine
 10
361.5
 20
-681.0
 30
0.0
 11
361.5
 21
-81.0
 31
0.0
  0
LINE
  5
29DE
330
2D11
100
AcDbEntity
  8
DETAIL
100
AcDbLine
 10
-361.4999999999998
 20
-681.0
 30
0.0
 11
-361.4999999999998
 21
-81.0
 31
0.0
  0
LINE
  5
29DF
330
2D11
100
AcDbEntity
  8
DETAIL
100
AcDbLine
 10
-361.4999999999998
 20
-81.0
 30
0.0
 11
361.5
 21
-81.0
 31
0.0
  0
LINE
  5
29E0
330
2D11
100
AcDbEntity
  8
DETAIL
100
AcDbLine
 10
-361.4999999999998
 20
-681.0
 30
0.0
 11
361.5
 21
-681.0
 31
0.0
  0
LINE
  5
29E1
330
2D11
100
AcDbEntity
  8
DETAIL
100
AcDbLine
 10
361.5
 20
-681.0
 30
0.0
 11
361.5
 21
-81.0
 31
0.0
  0
LINE
  5
29E2
330
2D11
100
AcDbEntity
  8
DETAIL
100
AcDbLine
 10
-361.4999999999998
 20
-681.0
 30
0.0
 11
-361.4999999999998
 21
-81.0
 31
0.0
  0
LINE
  5
29E3
330
2D11
100
AcDbEntity
  8
DETAIL
100
AcDbLine
 10
-361.4999999999998
 20
-81.0
 30
0.0
 11
361.5
 21
-81.0
 31
0.0
  0
LINE
  5
29E4
330
2D11
100
AcDbEntity
  8
DETAIL
100
AcDbLine
 10
-361.4999999999998
 20
-681.0
 30
0.0
 11
361.5
 21
-681.0
 31
0.0
  0
LINE
  5
29E5
330
2D11
100
AcDbEntity
  8
SIZE
100
AcDbLine
 10
425.0
 20
20.0
 30
0.0
 11
425.0
 21
298.8865929365164
 31
0.0
  0
LINE
  5
29E6
330
2D11
100
AcDbEntity
  8
SIZE
100
AcDbLine
 10
-424.9999999999998
 20
20.0
 30
0.0
 11
-424.9999999999998
 21
298.8865929365164
 31
0.0
  0
LINE
  5
29E7
330
2D11
100
AcDbEntity
  8
SIZE
100
AcDbLine
 10
413.0
 20
278.8865929365164
 30
0.0
 11
-412.9999999999998
 21
278.8865929365164
 31
0.0
  0
INSERT
  5
29E8
330
2D11
100
AcDbEntity
  8
SIZE
100
AcDbBlockReference
  2
_DOTBLANK
 10
425.0
 20
278.8865929365164
 30
0.0
 41
12.0
 42
12.0
 43
12.0
  0
INSERT
  5
29E9
330
2D11
100
AcDbEntity
  8
SIZE
100
AcDbBlockReference
  2
_DOTBLANK
 10
-424.9999999999998
 20
278.8865929365164
 30
0.0
 41
12.0
 42
12.0
 43
12.0
 50
180.0
  0
LINE
  5
29EA
330
2D11
100
AcDbEntity
  8
SIZE
100
AcDbLine
 10
399.9999999999982
 20
32.5
 30
0.0
 11
399.9999999999982
 21
180.3320910096169
 31
0.0
  0
LINE
  5
29EB
330
2D11
100
AcDbEntity
  8
SIZE
100
AcDbLine
 10
-399.9999999999998
 20
32.5
 30
0.0
 11
-399.9999999999998
 21
180.3320910096169
 31
0.0
  0
LINE
  5
29EC
330
2D11
100
AcDbEntity
  8
SIZE
100
AcDbLine
 10
387.9999999999982
 20
160.3320910096171
 30
0.0
 11
-387.9999999999998
 21
160.3320910096171
 31
0.0
  0
INSERT
  5
29ED
330
2D11
100
AcDbEntity
  8
SIZE
100
AcDbBlockReference
  2
_DOTBLANK
 10
399.9999999999982
 20
160.3320910096171
 30
0.0
 41
12.0
 42
12.0
 43
12.0
  0
INSERT
  5
29EE
330
2D11
100
AcDbEntity
  8
SIZE
100
AcDbBlockReference
  2
_DOTBLANK
 10
-399.9999999999998
 20
160.3320910096171
 30
0.0
 41
12.0
 42
12.0
 43
12.0
 50
180.0
  0
LINE
  5
29EF
330
2D11
100
AcDbEntity
  8
SIZE
100
AcDbLine
 10
-406.9999999999997
 20
-702.0
 30
0.0
 11
-750.4063174686047
 21
-702.0
 31
0.0
  0
LINE
  5
29F0
330
2D11
100
AcDbEntity
  8
SIZE
100
AcDbLine
 10
-444.9999999999997
 20
0.0
 30
0.0
 11
-750.4063174686047
 21
0.0000000000001137
 31
0.0
  0
LINE
  5
29F1
330
2D11
100
AcDbEntity
  8
SIZE
100
AcDbLine
 10
-730.4063174686051
 20
-690.0
 30
0.0
 11
-730.4063174686047
 21
-11.99999999999988
 31
0.0
  0
INSERT
  5
29F2
330
2D11
100
AcDbEntity
  8
SIZE
100
AcDbBlockReference
  2
_DOTBLANK
 10
-730.4063174686051
 20
-702.0
 30
0.0
 41
12.0
 42
12.0
 43
12.0
 50
270.0
  0
INSERT
  5
29F3
330
2D11
100
AcDbEntity
  8
SIZE
100
AcDbBlockReference
  2
_DOTBLANK
 10
-730.4063174686047
 20
0.0000000000001137
 30
0.0
 41
12.0
 42
12.0
 43
12.0
 50
90.0
  0
LINE
  5
29F4
330
2D11
100
AcDbEntity
  8
SIZE
100
AcDbLine
 10
387.0
 20
-722.0
 30
0.0
 11
387.0
 21
-951.1579934542924
 31
0.0
  0
LINE
  5
29F5
330
2D11
100
AcDbEntity
  8
SIZE
100
AcDbLine
 10
-386.9999999999998
 20
-722.0
 30
0.0
 11
-386.9999999999998
 21
-951.1579934542924
 31
0.0
  0
LINE
  5
29F6
330
2D11
100
AcDbEntity
  8
SIZE
100
AcDbLine
 10
375.0
 20
-931.1579934542924
 30
0.0
 11
-374.9999999999998
 21
-931.1579934542924
 31
0.0
  0
INSERT
  5
29F7
330
2D11
100
AcDbEntity
  8
SIZE
100
AcDbBlockReference
  2
_DOTBLANK
 10
387.0
 20
-931.1579934542924
 30
0.0
 41
12.0
 42
12.0
 43
12.0
  0
INSERT
  5
29F8
330
2D11
100
AcDbEntity
  8
SIZE
100
AcDbBlockReference
  2
_DOTBLANK
 10
-386.9999999999998
 20
-931.1579934542924
 30
0.0
 41
12.0
 42
12.0
 43
12.0
 50
180.0
  0
TEXT
  5
29F9
330
2D11
100
AcDbEntity
  8
SIZE
100
AcDbText
 10
-77.16558687727456
 20
-921.1579934542923
 30
0.0
 40
64.0
  1
774
 41
0.9
100
AcDbText
  0
TEXT
  5
29FA
330
2D11
100
AcDbEntity
  8
SIZE
100
AcDbText
 10
-740.4063174686045
 20
-426.0571428571425
 30
0.0
 40
64.0
  1
702
 50
90.0
 41
0.9
100
AcDbText
  0
TEXT
  5
29FB
330
2D11
100
AcDbEntity
  8
SIZE
100
AcDbText
 10
-74.61302049113737
 20
170.3320910096171
 30
0.0
 40
64.0
  1
800
 41
0.9
100
AcDbText
  0
TEXT
  5
29FC
330
2D11
100
AcDbEntity
  8
SIZE
100
AcDbText
 10
-74.05714285714248
 20
288.8865929365167
 30
0.0
 40
64.0
  1
850
 41
0.9
100
AcDbText
  0
ENDSEC
  0
SECTION
  2
OBJECTS
  0
DICTIONARY
  5
2CA9
330
0
100
AcDbDictionary
281
     1
  3
ACAD_2007HEADERVARS_RT
350
2EF2
  3
ACAD_COLOR
350
2D07
  3
ACAD_GROUP
350
2CAA
  3
ACAD_LAYOUT
350
2D06
  3
ACAD_MATERIAL
350
2CAD
  3
ACAD_MLEADERSTYLE
350
2D0A
  3
ACAD_MLINESTYLE
350
2D03
  3
ACAD_PLOTSETTINGS
350
2D05
  3
ACAD_PLOTSTYLENAME
350
2CAB
  3
ACAD_SCALELIST
350
2CD7
  3
ACAD_TABLESTYLE
350
2D08
  3
ACAD_VISUALSTYLE
350
2CC6
  3
ACDB_RECOMPOSE_DATA
350
2EF0
  3
AcDbVariableDictionary
350
2EE7
  3
AcmDictionary
350
2E9A
  3
AMG
350
2DE7
  3
DWGPROPS
350
2EF1
  3
MAPISURF_MODULE
350
2E67
  0
DICTIONARY
  5
2EC2
330
2CF9
100
AcDbDictionary
280
     1
281
     1
  3
ADSK_XREC_LAYER_RECONCILED
360
2EC3
  0
DICTIONARY
  5
2EC4
330
2D28
100
AcDbDictionary
280
     1
281
     1
  3
ADSK_XREC_LAYER_RECONCILED
360
2EC5
  0
DICTIONARY
  5
2EC6
330
2D29
100
AcDbDictionary
280
     1
281
     1
  3
ADSK_XREC_LAYER_RECONCILED
360
2EC7
  0
DICTIONARY
  5
2EC8
330
2D2A
100
AcDbDictionary
280
     1
281
     1
  3
ADSK_XREC_LAYER_RECONCILED
360
2EC9
  0
DICTIONARY
  5
2ECA
330
2D2B
100
AcDbDictionary
280
     1
281
     1
  3
ADSK_XREC_LAYER_RECONCILED
360
2ECB
  0
DICTIONARY
  5
2ECC
330
2D2C
100
AcDbDictionary
280
     1
281
     1
  3
ADSK_XREC_LAYER_RECONCILED
360
2ECD
  0
DICTIONARY
  5
2ECE
330
2D2E
100
AcDbDictionary
280
     1
281
     1
  3
ADSK_XREC_LAYER_RECONCILED
360
2ECF
  0
DICTIONARY
  5
2ED0
330
2D2F
100
AcDbDictionary
280
     1
281
     1
  3
ADSK_XREC_LAYER_RECONCILED
360
2ED1
  0
DICTIONARY
  5
2ED2
330
2D30
100
AcDbDictionary
280
     1
281
     1
  3
ADSK_XREC_LAYER_RECONCILED
360
2ED3
  0
DICTIONARY
  5
2ED4
330
2D31
100
AcDbDictionary
280
     1
281
     1
  3
ADSK_XREC_LAYER_RECONCILED
360
2ED5
  0
DICTIONARY
  5
2ED6
330
2D32
100
AcDbDictionary
280
     1
281
     1
  3
ADSK_XREC_LAYER_RECONCILED
360
2ED7
  0
DICTIONARY
  5
2ED8
330
2D11
100
AcDbDictionary
280
     1
281
     1
  3
ACAD_INDEX
360
2ED9
  0
DICTIONARY
  5
2EF2
102
{ACAD_REACTORS
330
2CA9
102
}
330
2CA9
100
AcDbDictionary
281
     1
  3
DIMARCSYM
350
2EF3
  3
DIMLTEX1
350
2EF5
  3
DIMLTEX2
350
2EF6
  3
DIMLTYPE
350
2EF4
  0
DICTIONARY
  5
2D07
102
{ACAD_REACTORS
330
2CA9
102
}
330
2CA9
100
AcDbDictionary
281
     1
  0
DICTIONARY
  5
2CAA
102
{ACAD_REACTORS
330
2CA9
102
}
330
2CA9
100
AcDbDictionary
281
     1
  0
DICTIONARY
  5
2D06
102
{ACAD_REACTORS
330
2CA9
102
}
330
2CA9
100
AcDbDictionary
281
     1
  3
Model
350
2D14
  3
レイアウト1
350
2D10
  0
DICTIONARY
  5
2CAD
102
{ACAD_REACTORS
330
2CA9
102
}
330
2CA9
100
AcDbDictionary
281
     1
  3
ByBlock
350
2CB6
  3
ByLayer
350
2CAE
  3
Global
350
2CBE
  0
DICTIONARY
  5
2D0A
102
{ACAD_REACTORS
330
2CA9
102
}
330
2CA9
100
AcDbDictionary
281
     1
  3
Standard
350
2D0B
  0
DICTIONARY
  5
2D03
102
{ACAD_REACTORS
330
2CA9
102
}
330
2CA9
100
AcDbDictionary
281
     1
  3
Standard
350
2D04
  0
DICTIONARY
  5
2D05
102
{ACAD_REACTORS
330
2CA9
102
}
330
2CA9
100
AcDbDictionary
281
     1
  0
ACDBDICTIONARYWDFLT
  5
2CAB
102
{ACAD_REACTORS
330
2CA9
102
}
330
2CA9
100
AcDbDictionary
281
     1
  3
Normal
350
2CAC
100
AcDbDictionaryWithDefault
340
2CAC
  0
DICTIONARY
  5
2CD7
102
{ACAD_REACTORS
330
2CA9
102
}
330
2CA9
100
AcDbDictionary
281
     1
  3
A0
350
2CD8
  3
A1
350
2CD9
  3
A2
350
2CDA
  3
A3
350
2CDB
  3
A4
350
2CDC
  3
A5
350
2CDD
  3
A6
350
2CDE
  3
A7
350
2CDF
  3
A8
350
2CE0
  3
A9
350
2CE1
  3
B0
350
2CE2
  3
B1
350
2CE3
  3
B2
350
2CE4
  3
B3
350
2CE5
  3
B4
350
2CE6
  3
B5
350
2CE7
  3
B6
350
2CE8
  3
B7
350
2CE9
  3
B8
350
2CEA
  3
B9
350
2CEB
  3
C0
350
2CEC
  3
C1
350
2CED
  3
C2
350
2CEE
  3
C3
350
2CEF
  3
C4
350
2CF0
  3
C5
350
2CF1
  3
C6
350
2CF2
  3
C7
350
2CF3
  3
C8
350
2CF4
  3
C9
350
2CF5
  3
D0
350
2CF6
  3
D1
350
2CF7
  3
D2
350
2CF8
  0
DICTIONARY
  5
2D08
102
{ACAD_REACTORS
330
2CA9
102
}
330
2CA9
100
AcDbDictionary
281
     1
  3
Standard
350
2D09
  0
DICTIONARY
  5
2CC6
102
{ACAD_REACTORS
330
2CA9
102
}
330
2CA9
100
AcDbDictionary
281
     1
  3
2dWireframe
350
2CCC
  3
3D Hidden
350
2CCE
  3
3dWireframe
350
2CCD
  3
Basic
350
2CCB
  3
Brighten
350
2CD2
  3
ColorChange
350
2CD6
  3
Conceptual
350
2CCF
  3
Dim
350
2CD1
  3
Facepattern
350
2CD5
  3
Flat
350
2CC7
  3
FlatWithEdges
350
2CC8
  3
Gouraud
350
2CC9
  3
GouraudWithEdges
350
2CCA
  3
Linepattern
350
2CD4
  3
Realistic
350
2CD0
  3
Thicken
350
2CD3
  0
XRECORD
  5
2EF0
102
{ACAD_REACTORS
330
2CA9
102
}
330
2CA9
100
AcDbXrecord
280
     1
 90
        1
330
2D09
  0
DICTIONARY
  5
2EE7
102
{ACAD_REACTORS
330
2CA9
102
}
330
2CA9
100
AcDbDictionary
281
     1
  3
CANNOSCALE
350
2EEA
  3
CMLEADERSTYLE
350
2EE9
  3
CTABLESTYLE
350
2EE8
  3
DIMASSOC
350
2EED
  3
INDEXCTL
350
2EEC
  3
SORTENTS
350
2EEB
  0
DICTIONARY
  5
2E9A
102
{ACAD_REACTORS
330
2CA9
102
}
330
2CA9
100
AcDbDictionary
281
     1
  3
AcmStdDictionary
350
2EA8
  0
DICTIONARY
  5
2DE7
102
{ACAD_REACTORS
330
2CA9
102
}
330
2CA9
100
AcDbDictionary
281
     1
  3
AcMgSettings
350
2DE8
  0
XRECORD
  5
2EF1
102
{ACAD_REACTORS
330
2CA9
102
}
330
2CA9
100
AcDbXrecord
280
     1
  1
DWGPROPS COOKIE
  2

  3

  4

  6

  7

  8
A090053
  9

300
AmdtFileType=84
301
=
302
=
303
=
304
=
305
=
306
=
307
=
308
=
309
=
 40
1.041053981481481
 41
2452321.396199653
 42
2456211.481757835
  1

 90
        1
  0
XRECORD
  5
2EC3
102
{ACAD_REACTORS
330
2EC2
102
}
330
2EC2
100
AcDbXrecord
280
     1
290
     1
  0
XRECORD
  5
2EC5
102
{ACAD_REACTORS
330
2EC4
102
}
330
2EC4
100
AcDbXrecord
280
     1
290
     1
  0
XRECORD
  5
2EC7
102
{ACAD_REACTORS
330
2EC6
102
}
330
2EC6
100
AcDbXrecord
280
     1
290
     1
  0
XRECORD
  5
2EC9
102
{ACAD_REACTORS
330
2EC8
102
}
330
2EC8
100
AcDbXrecord
280
     1
290
     1
  0
XRECORD
  5
2ECB
102
{ACAD_REACTORS
330
2ECA
102
}
330
2ECA
100
AcDbXrecord
280
     1
290
     1
  0
XRECORD
  5
2ECD
102
{ACAD_REACTORS
330
2ECC
102
}
330
2ECC
100
AcDbXrecord
280
     1
290
     1
  0
XRECORD
  5
2ECF
102
{ACAD_REACTORS
330
2ECE
102
}
330
2ECE
100
AcDbXrecord
280
     1
290
     1
  0
XRECORD
  5
2ED1
102
{ACAD_REACTORS
330
2ED0
102
}
330
2ED0
100
AcDbXrecord
280
     1
290
     1
  0
XRECORD
  5
2ED3
102
{ACAD_REACTORS
330
2ED2
102
}
330
2ED2
100
AcDbXrecord
280
     1
290
     1
  0
XRECORD
  5
2ED5
102
{ACAD_REACTORS
330
2ED4
102
}
330
2ED4
100
AcDbXrecord
280
     1
290
     1
  0
XRECORD
  5
2ED7
102
{ACAD_REACTORS
330
2ED6
102
}
330
2ED6
100
AcDbXrecord
280
     1
290
     1
  0
DICTIONARY
  5
2ED9
102
{ACAD_REACTORS
330
2ED8
102
}
330
2ED8
100
AcDbDictionary
281
     1
  3
*A1
350
2EDA
  0
XRECORD
  5
2EF3
102
{ACAD_REACTORS
330
2EF2
102
}
330
2EF2
100
AcDbXrecord
280
     1
 70
     1
  0
XRECORD
  5
2EF5
102
{ACAD_REACTORS
330
2EF2
102
}
330
2EF2
100
AcDbXrecord
280
     1
340
2CFF
  0
XRECORD
  5
2EF6
102
{ACAD_REACTORS
330
2EF2
102
}
330
2EF2
100
AcDbXrecord
280
     1
340
2CFF
  0
XRECORD
  5
2EF4
102
{ACAD_REACTORS
330
2EF2
102
}
330
2EF2
100
AcDbXrecord
280
     1
340
2CFF
  0
LAYOUT
  5
2D14
102
{ACAD_XDICTIONARY
360
2EFD
102
}
102
{ACAD_REACTORS
330
2D06
102
}
330
2D06
100
AcDbPlotSettings
  1

  2
自動 EPSON LP-9600S (W2450527 上)
  4

  6

 40
0.0
 41
0.0
 42
0.0
 43
0.0
 44
0.0
 45
0.0
 46
0.0
 47
0.0
 48
0.0
 49
0.0
140
0.0
141
0.0
142
1.0
143
1.0
 70
  1712
 72
     0
 73
     0
 74
     0
  7

 75
     0
147
1.0
148
0.0
149
0.0
100
AcDbLayout
  1
Model
 70
     1
 71
     0
 10
0.0
 20
0.0
 11
12.0
 21
9.0
 12
0.0
 22
0.0
 32
0.0
 14
0.0
 24
0.0
 34
0.0
 15
0.0
 25
0.0
 35
0.0
146
0.0
 13
0.0
 23
0.0
 33
0.0
 16
1.0
 26
0.0
 36
0.0
 17
0.0
 27
1.0
 37
0.0
 76
     0
330
2D11
331
2D15
  0
LAYOUT
  5
2D10
102
{ACAD_XDICTIONARY
360
2EFB
102
}
102
{ACAD_REACTORS
330
2D06
102
}
330
2D06
100
AcDbPlotSettings
  1

  2
自動 EPSON LP-9600S (W2450527 上)
  4

  6

 40
0.0
 41
0.0
 42
0.0
 43
0.0
 44
0.0
 45
0.0
 46
0.0
 47
0.0
 48
0.0
 49
0.0
140
0.0
141
0.0
142
1.0
143
1.0
 70
   688
 72
     0
 73
     0
 74
     5
  7

 75
    16
147
1.0
148
0.0
149
0.0
100
AcDbLayout
  1
レイアウト1
 70
     1
 71
     1
 10
0.0
 20
0.0
 11
12.0
 21
9.0
 12
0.0
 22
0.0
 32
0.0
 14
1.000000000000000E+20
 24
1.000000000000000E+20
 34
1.000000000000000E+20
 15
-1.000000000000000E+20
 25
-1.000000000000000E+20
 35
-1.000000000000000E+20
146
0.0
 13
0.0
 23
0.0
 33
0.0
 16
1.0
 26
0.0
 36
0.0
 17
0.0
 27
1.0
 37
0.0
 76
     0
330
2D0D
  0
MATERIAL
  5
2CB6
102
{ACAD_XDICTIONARY
360
2CB7
102
}
102
{ACAD_REACTORS
330
2CAD
102
}
330
2CAD
100
AcDbMaterial
  1
ByBlock
 72
     0
 43
0.0208333333333333
 43
0.0
 43
0.0
 43
0.0
 43
0.0
 43
0.0208333333333333
 43
0.0
 43
0.0
 43
0.0
 43
0.0
 43
1.0
 43
0.0
 43
0.0
 43
0.0
 43
0.0
 43
1.0
 77
     0
 47
0.0208333333333333
 47
0.0
 47
0.0
 47
0.0
 47
0.0
 47
0.0208333333333333
 47
0.0
 47
0.0
 47
0.0
 47
0.0
 47
1.0
 47
0.0
 47
0.0
 47
0.0
 47
0.0
 47
1.0
171
     0
 49
0.0208333333333333
 49
0.0
 49
0.0
 49
0.0
 49
0.0
 49
0.0208333333333333
 49
0.0
 49
0.0
 49
0.0
 49
0.0
 49
1.0
 49
0.0
 49
0.0
 49
0.0
 49
0.0
 49
1.0
175
     0
142
0.0208333333333333
142
0.0
142
0.0
142
0.0
142
0.0
142
0.0208333333333333
142
0.0
142
0.0
142
0.0
142
0.0
142
1.0
142
0.0
142
0.0
142
0.0
142
0.0
142
1.0
179
     0
144
0.0208333333333333
144
0.0
144
0.0
144
0.0
144
0.0
144
0.0208333333333333
144
0.0
144
0.0
144
0.0
144
0.0
144
1.0
144
0.0
144
0.0
144
0.0
144
0.0
144
1.0
147
0.0208333333333333
147
0.0
147
0.0
147
0.0
147
0.0
147
0.0208333333333333
147
0.0
147
0.0
147
0.0
147
0.0
147
1.0
147
0.0
147
0.0
147
0.0
147
0.0
147
1.0
  0
MATERIAL
  5
2CAE
102
{ACAD_XDICTIONARY
360
2CAF
102
}
102
{ACAD_REACTORS
330
2CAD
102
}
330
2CAD
100
AcDbMaterial
  1
ByLayer
 72
     0
 43
0.0208333333333333
 43
0.0
 43
0.0
 43
0.0
 43
0.0
 43
0.0208333333333333
 43
0.0
 43
0.0
 43
0.0
 43
0.0
 43
1.0
 43
0.0
 43
0.0
 43
0.0
 43
0.0
 43
1.0
 77
     0
 47
0.0208333333333333
 47
0.0
 47
0.0
 47
0.0
 47
0.0
 47
0.0208333333333333
 47
0.0
 47
0.0
 47
0.0
 47
0.0
 47
1.0
 47
0.0
 47
0.0
 47
0.0
 47
0.0
 47
1.0
171
     0
 49
0.0208333333333333
 49
0.0
 49
0.0
 49
0.0
 49
0.0
 49
0.0208333333333333
 49
0.0
 49
0.0
 49
0.0
 49
0.0
 49
1.0
 49
0.0
 49
0.0
 49
0.0
 49
0.0
 49
1.0
175
     0
142
0.0208333333333333
142
0.0
142
0.0
142
0.0
142
0.0
142
0.0208333333333333
142
0.0
142
0.0
142
0.0
142
0.0
142
1.0
142
0.0
142
0.0
142
0.0
142
0.0
142
1.0
179
     0
144
0.0208333333333333
144
0.0
144
0.0
144
0.0
144
0.0
144
0.0208333333333333
144
0.0
144
0.0
144
0.0
144
0.0
144
1.0
144
0.0
144
0.0
144
0.0
144
0.0
144
1.0
147
0.0208333333333333
147
0.0
147
0.0
147
0.0
147
0.0
147
0.0208333333333333
147
0.0
147
0.0
147
0.0
147
0.0
147
1.0
147
0.0
147
0.0
147
0.0
147
0.0
147
1.0
  0
MATERIAL
  5
2CBE
102
{ACAD_XDICTIONARY
360
2CBF
102
}
102
{ACAD_REACTORS
330
2CAD
102
}
330
2CAD
100
AcDbMaterial
  1
Global
 72
     0
 43
0.0208333333333333
 43
0.0
 43
0.0
 43
0.0
 43
0.0
 43
0.0208333333333333
 43
0.0
 43
0.0
 43
0.0
 43
0.0
 43
1.0
 43
0.0
 43
0.0
 43
0.0
 43
0.0
 43
1.0
 77
     0
 47
0.0208333333333333
 47
0.0
 47
0.0
 47
0.0
 47
0.0
 47
0.0208333333333333
 47
0.0
 47
0.0
 47
0.0
 47
0.0
 47
1.0
 47
0.0
 47
0.0
 47
0.0
 47
0.0
 47
1.0
171
     0
 49
0.0208333333333333
 49
0.0
 49
0.0
 49
0.0
 49
0.0
 49
0.0208333333333333
 49
0.0
 49
0.0
 49
0.0
 49
0.0
 49
1.0
 49
0.0
 49
0.0
 49
0.0
 49
0.0
 49
1.0
175
     0
142
0.0208333333333333
142
0.0
142
0.0
142
0.0
142
0.0
142
0.0208333333333333
142
0.0
142
0.0
142
0.0
142
0.0
142
1.0
142
0.0
142
0.0
142
0.0
142
0.0
142
1.0
179
     0
144
0.0208333333333333
144
0.0
144
0.0
144
0.0
144
0.0
144
0.0208333333333333
144
0.0
144
0.0
144
0.0
144
0.0
144
1.0
144
0.0
144
0.0
144
0.0
144
0.0
144
1.0
147
0.0208333333333333
147
0.0
147
0.0
147
0.0
147
0.0
147
0.0208333333333333
147
0.0
147
0.0
147
0.0
147
0.0
147
1.0
147
0.0
147
0.0
147
0.0
147
0.0
147
1.0
  0
MLEADERSTYLE
  5
2D0B
102
{ACAD_REACTORS
330
2D0A
102
}
330
2D0A
100
AcDbMLeaderStyle
170
     2
171
     1
172
     0
 90
        2
 40
0.0
 41
0.0
173
     1
 91
-1056964608
340
2CFF
 92
       -2
290
     1
 42
0.09
291
     1
 43
0.36
  3
Standard
 44
0.18
300

342
2CFA
174
     1
178
     6
175
     1
176
     0
 93
-1056964608
 45
0.18
292
     0
297
     0
 46
0.18
 94
-1056964608
 47
1.0
 49
1.0
140
1.0
293
     1
141
0.0
294
     1
177
     0
142
1.0
295
     0
296
     0
143
0.125
1001
ACAD_MLEADERVER
1070
     2
  0
MLINESTYLE
  5
2D04
102
{ACAD_REACTORS
330
2D03
102
}
330
2D03
100
AcDbMlineStyle
  2
STANDARD
 70
     0
  3

 62
   256
 51
90.0
 52
90.0
 71
     2
 49
0.5
 62
   256
  6
BYLAYER
 49
-0.5
 62
   256
  6
BYLAYER
  0
ACDBPLACEHOLDER
  5
2CAC
102
{ACAD_REACTORS
330
2CAB
102
}
330
2CAB
  0
SCALE
  5
2CD8
102
{ACAD_REACTORS
330
2CD7
102
}
330
2CD7
100
AcDbScale
 70
     0
300
1:1
140
1.0
141
1.0
290
     1
  0
SCALE
  5
2CD9
102
{ACAD_REACTORS
330
2CD7
102
}
330
2CD7
100
AcDbScale
 70
     0
300
1:2
140
1.0
141
2.0
290
     0
  0
SCALE
  5
2CDA
102
{ACAD_REACTORS
330
2CD7
102
}
330
2CD7
100
AcDbScale
 70
     0
300
1:4
140
1.0
141
4.0
290
     0
  0
SCALE
  5
2CDB
102
{ACAD_REACTORS
330
2CD7
102
}
330
2CD7
100
AcDbScale
 70
     0
300
1:5
140
1.0
141
5.0
290
     0
  0
SCALE
  5
2CDC
102
{ACAD_REACTORS
330
2CD7
102
}
330
2CD7
100
AcDbScale
 70
     0
300
1:8
140
1.0
141
8.0
290
     0
  0
SCALE
  5
2CDD
102
{ACAD_REACTORS
330
2CD7
102
}
330
2CD7
100
AcDbScale
 70
     0
300
1:10
140
1.0
141
10.0
290
     0
  0
SCALE
  5
2CDE
102
{ACAD_REACTORS
330
2CD7
102
}
330
2CD7
100
AcDbScale
 70
     0
300
1:16
140
1.0
141
16.0
290
     0
  0
SCALE
  5
2CDF
102
{ACAD_REACTORS
330
2CD7
102
}
330
2CD7
100
AcDbScale
 70
     0
300
1:20
140
1.0
141
20.0
290
     0
  0
SCALE
  5
2CE0
102
{ACAD_REACTORS
330
2CD7
102
}
330
2CD7
100
AcDbScale
 70
     0
300
1:30
140
1.0
141
30.0
290
     0
  0
SCALE
  5
2CE1
102
{ACAD_REACTORS
330
2CD7
102
}
330
2CD7
100
AcDbScale
 70
     0
300
1:40
140
1.0
141
40.0
290
     0
  0
SCALE
  5
2CE2
102
{ACAD_REACTORS
330
2CD7
102
}
330
2CD7
100
AcDbScale
 70
     0
300
1:50
140
1.0
141
50.0
290
     0
  0
SCALE
  5
2CE3
102
{ACAD_REACTORS
330
2CD7
102
}
330
2CD7
100
AcDbScale
 70
     0
300
1:100
140
1.0
141
100.0
290
     0
  0
SCALE
  5
2CE4
102
{ACAD_REACTORS
330
2CD7
102
}
330
2CD7
100
AcDbScale
 70
     0
300
2:1
140
2.0
141
1.0
290
     0
  0
SCALE
  5
2CE5
102
{ACAD_REACTORS
330
2CD7
102
}
330
2CD7
100
AcDbScale
 70
     0
300
4:1
140
4.0
141
1.0
290
     0
  0
SCALE
  5
2CE6
102
{ACAD_REACTORS
330
2CD7
102
}
330
2CD7
100
AcDbScale
 70
     0
300
8:1
140
8.0
141
1.0
290
     0
  0
SCALE
  5
2CE7
102
{ACAD_REACTORS
330
2CD7
102
}
330
2CD7
100
AcDbScale
 70
     0
300
10:1
140
10.0
141
1.0
290
     0
  0
SCALE
  5
2CE8
102
{ACAD_REACTORS
330
2CD7
102
}
330
2CD7
100
AcDbScale
 70
     0
300
100:1
140
100.0
141
1.0
290
     0
  0
SCALE
  5
2CE9
102
{ACAD_REACTORS
330
2CD7
102
}
330
2CD7
100
AcDbScale
 70
     0
300
1/128" = 1'-0"
140
0.0078125
141
12.0
290
     0
  0
SCALE
  5
2CEA
102
{ACAD_REACTORS
330
2CD7
102
}
330
2CD7
100
AcDbScale
 70
     0
300
1/64" = 1'-0"
140
0.015625
141
12.0
290
     0
  0
SCALE
  5
2CEB
102
{ACAD_REACTORS
330
2CD7
102
}
330
2CD7
100
AcDbScale
 70
     0
300
1/32" = 1'-0"
140
0.03125
141
12.0
290
     0
  0
SCALE
  5
2CEC
102
{ACAD_REACTORS
330
2CD7
102
}
330
2CD7
100
AcDbScale
 70
     0
300
1/16" = 1'-0"
140
0.0625
141
12.0
290
     0
  0
SCALE
  5
2CED
102
{ACAD_REACTORS
330
2CD7
102
}
330
2CD7
100
AcDbScale
 70
     0
300
3/32" = 1'-0"
140
0.09375
141
12.0
290
     0
  0
SCALE
  5
2CEE
102
{ACAD_REACTORS
330
2CD7
102
}
330
2CD7
100
AcDbScale
 70
     0
300
1/8" = 1'-0"
140
0.125
141
12.0
290
     0
  0
SCALE
  5
2CEF
102
{ACAD_REACTORS
330
2CD7
102
}
330
2CD7
100
AcDbScale
 70
     0
300
3/16" = 1'-0"
140
0.1875
141
12.0
290
     0
  0
SCALE
  5
2CF0
102
{ACAD_REACTORS
330
2CD7
102
}
330
2CD7
100
AcDbScale
 70
     0
300
1/4" = 1'-0"
140
0.25
141
12.0
290
     0
  0
SCALE
  5
2CF1
102
{ACAD_REACTORS
330
2CD7
102
}
330
2CD7
100
AcDbScale
 70
     0
300
3/8" = 1'-0"
140
0.375
141
12.0
290
     0
  0
SCALE
  5
2CF2
102
{ACAD_REACTORS
330
2CD7
102
}
330
2CD7
100
AcDbScale
 70
     0
300
1/2" = 1'-0"
140
0.5
141
12.0
290
     0
  0
SCALE
  5
2CF3
102
{ACAD_REACTORS
330
2CD7
102
}
330
2CD7
100
AcDbScale
 70
     0
300
3/4" = 1'-0"
140
0.75
141
12.0
290
     0
  0
SCALE
  5
2CF4
102
{ACAD_REACTORS
330
2CD7
102
}
330
2CD7
100
AcDbScale
 70
     0
300
1" = 1'-0"
140
1.0
141
12.0
290
     0
  0
SCALE
  5
2CF5
102
{ACAD_REACTORS
330
2CD7
102
}
330
2CD7
100
AcDbScale
 70
     0
300
1-1/2" = 1'-0"
140
1.5
141
12.0
290
     0
  0
SCALE
  5
2CF6
102
{ACAD_REACTORS
330
2CD7
102
}
330
2CD7
100
AcDbScale
 70
     0
300
3" = 1'-0"
140
3.0
141
12.0
290
     0
  0
SCALE
  5
2CF7
102
{ACAD_REACTORS
330
2CD7
102
}
330
2CD7
100
AcDbScale
 70
     0
300
6" = 1'-0"
140
6.0
141
12.0
290
     0
  0
SCALE
  5
2CF8
102
{ACAD_REACTORS
330
2CD7
102
}
330
2CD7
100
AcDbScale
 70
     0
300
1'-0" = 1'-0"
140
12.0
141
12.0
290
     0
  0
TABLESTYLE
  5
2D09
102
{ACAD_XDICTIONARY
360
2EEE
102
}
102
{ACAD_REACTORS
330
2D08
102
}
330
2D08
100
AcDbTableStyle
  3
Standard
 70
     0
 71
     0
 40
0.06
 41
0.06
280
     0
281
     0
  7
STANDARD
140
0.18
170
     2
 62
     0
 63
     7
283
     0
274
    -2
284
     1
 64
     0
275
    -2
285
     1
 65
     0
276
    -2
286
     1
 66
     0
277
    -2
287
     1
 67
     0
278
    -2
288
     1
 68
     0
279
    -2
289
     1
 69
     0
  7
STANDARD
140
0.25
170
     5
 62
     0
 63
     7
283
     0
274
    -2
284
     1
 64
     0
275
    -2
285
     1
 65
     0
276
    -2
286
     1
 66
     0
277
    -2
287
     1
 67
     0
278
    -2
288
     1
 68
     0
279
    -2
289
     1
 69
     0
  7
STANDARD
140
0.18
170
     5
 62
     0
 63
     7
283
     0
274
    -2
284
     1
 64
     0
275
    -2
285
     1
 65
     0
276
    -2
286
     1
 66
     0
277
    -2
287
     1
 67
     0
278
    -2
288
     1
 68
     0
279
    -2
289
     1
 69
     0
  0
VISUALSTYLE
  5
2CCC
102
{ACAD_REACTORS
330
2CC6
102
}
330
2CC6
100
AcDbVisualStyle
  2
2dWireframe
 70
     4
 71
     0
 72
     2
 73
     0
 90
        0
 40
-0.6
 41
-30.0
 62
     5
 63
     7
 74
     1
 91
        4
 64
     7
 65
   257
 75
     1
175
     1
 42
1.0
 92
        0
 66
   257
 43
1.0
 76
     1
 77
     6
 78
     2
 67
     7
 79
     5
170
     0
171
     0
290
     0
174
     0
 93
        1
 44
0.0
173
     0
291
     0
 45
0.0
1001
ACAD
1000
AcDbSavedByObjectVersion
1070
     0
  0
VISUALSTYLE
  5
2CCE
102
{ACAD_REACTORS
330
2CC6
102
}
330
2CC6
100
AcDbVisualStyle
  2
3D Hidden
 70
     6
 71
     1
 72
     2
 73
     2
 90
        0
 40
-0.6
 41
-30.0
 62
     5
 63
     7
 74
     2
 91
        2
 64
     7
 65
   257
 75
     2
175
     1
 42
40.0
 92
        0
 66
   257
 43
1.0
 76
     1
 77
     6
 78
     2
 67
     7
 79
     3
170
     0
171
     0
290
     0
174
     0
 93
        1
 44
0.0
173
     0
291
     0
 45
0.0
1001
ACAD
1000
AcDbSavedByObjectVersion
1070
     0
  0
VISUALSTYLE
  5
2CCD
102
{ACAD_REACTORS
330
2CC6
102
}
330
2CC6
100
AcDbVisualStyle
  2
3dWireframe
 70
     5
 71
     0
 72
     2
 73
     0
 90
        0
 40
-0.6
 41
-30.0
 62
     5
 63
     7
 74
     1
 91
        4
 64
     7
 65
   257
 75
     1
175
     1
 42
1.0
 92
        0
 66
   257
 43
1.0
 76
     1
 77
     6
 78
     2
 67
     7
 79
     5
170
     0
171
     0
290
     0
174
     0
 93
        1
 44
0.0
173
     0
291
     0
 45
0.0
1001
ACAD
1000
AcDbSavedByObjectVersion
1070
     0
  0
VISUALSTYLE
  5
2CCB
102
{ACAD_REACTORS
330
2CC6
102
}
330
2CC6
100
AcDbVisualStyle
  2
Basic
 70
     7
 71
     1
 72
     0
 73
     1
 90
        0
 40
-0.6
 41
-30.0
 62
     5
 63
     7
 74
     0
 91
        4
 64
     7
 65
   257
 75
     1
175
     1
 42
1.0
 92
        8
 66
     7
 43
1.0
 76
     1
 77
     6
 78
     2
 67
     7
 79
     5
170
     0
171
     0
290
     0
174
     0
 93
        1
 44
0.0
173
     0
291
     1
 45
0.0
1001
ACAD
1000
AcDbSavedByObjectVersion
1070
     0
  0
VISUALSTYLE
  5
2CD2
102
{ACAD_REACTORS
330
2CC6
102
}
330
2CC6
100
AcDbVisualStyle
  2
Brighten
 70
    12
 71
     2
 72
     2
 73
     0
 90
        0
 40
-0.6
 41
-30.0
 62
     5
 63
     7
 74
     1
 91
        4
 64
     7
 65
   257
 75
     1
175
     1
 42
1.0
 92
        8
 66
     7
 43
1.0
 76
     1
 77
     6
 78
     2
 67
     7
 79
     5
170
     0
171
     0
290
     0
174
     0
 93
        1
 44
50.0
173
     0
291
     1
 45
0.0
1001
ACAD
1000
AcDbSavedByObjectVersion
1070
     0
  0
VISUALSTYLE
  5
2CD6
102
{ACAD_REACTORS
330
2CC6
102
}
330
2CC6
100
AcDbVisualStyle
  2
ColorChange
 70
    16
 71
     2
 72
     2
 73
     3
 90
        0
 40
-0.6
 41
-30.0
 62
     5
 63
     8
 74
     1
 91
        4
 64
     7
 65
   257
 75
     1
175
     1
 42
1.0
 92
        8
 66
     8
 43
1.0
 76
     1
 77
     6
 78
     2
 67
     7
 79
     5
170
     0
171
     0
290
     0
174
     0
 93
        1
 44
0.0
173
     0
291
     1
 45
0.0
1001
ACAD
1000
AcDbSavedByObjectVersion
1070
     0
  0
VISUALSTYLE
  5
2CCF
102
{ACAD_REACTORS
330
2CC6
102
}
330
2CC6
100
AcDbVisualStyle
  2
Conceptual
 70
     9
 71
     3
 72
     2
 73
     0
 90
        0
 40
-0.6
 41
-30.0
 62
     5
 63
     7
 74
     2
 91
        2
 64
     7
 65
   257
 75
     1
175
     1
 42
40.0
 92
        8
 66
     7
 43
1.0
 76
     1
 77
     6
 78
     2
 67
     7
 79
     3
170
     0
171
     0
290
     0
174
     0
 93
        1
 44
0.0
173
     0
291
     0
 45
0.0
1001
ACAD
1000
AcDbSavedByObjectVersion
1070
     0
  0
VISUALSTYLE
  5
2CD1
102
{ACAD_REACTORS
330
2CC6
102
}
330
2CC6
100
AcDbVisualStyle
  2
Dim
 70
    11
 71
     2
 72
     2
 73
     0
 90
        0
 40
-0.6
 41
-30.0
 62
     5
 63
     7
 74
     1
 91
        4
 64
     7
 65
   257
 75
     1
175
     1
 42
1.0
 92
        8
 66
     7
 43
1.0
 76
     1
 77
     6
 78
     2
 67
     7
 79
     5
170
     0
171
     0
290
     0
174
     0
 93
        1
 44
-50.0
173
     0
291
     1
 45
0.0
1001
ACAD
1000
AcDbSavedByObjectVersion
1070
     0
  0
VISUALSTYLE
  5
2CD5
102
{ACAD_REACTORS
330
2CC6
102
}
330
2CC6
100
AcDbVisualStyle
  2
Facepattern
 70
    15
 71
     2
 72
     2
 73
     0
 90
        0
 40
-0.6
 41
-30.0
 62
     5
 63
     7
 74
     1
 91
        4
 64
     7
 65
   257
 75
     1
175
     1
 42
1.0
 92
        8
 66
     7
 43
1.0
 76
     1
 77
     6
 78
     2
 67
     7
 79
     5
170
     0
171
     0
290
     0
174
     0
 93
        1
 44
0.0
173
     0
291
     1
 45
0.0
1001
ACAD
1000
AcDbSavedByObjectVersion
1070
     0
  0
VISUALSTYLE
  5
2CC7
102
{ACAD_REACTORS
330
2CC6
102
}
330
2CC6
100
AcDbVisualStyle
  2
Flat
 70
     0
 71
     2
 72
     1
 73
     1
 90
        2
 40
-0.6
 41
30.0
 62
     5
 63
     7
 74
     0
 91
        4
 64
     7
 65
   257
 75
     1
175
     1
 42
1.0
 92
        8
 66
     7
 43
1.0
 76
     1
 77
     6
 78
     2
 67
     7
 79
     5
170
     0
171
     0
290
     0
174
     0
 93
       13
 44
0.0
173
     0
291
     1
 45
0.0
1001
ACAD
1000
AcDbSavedByObjectVersion
1070
     0
  0
VISUALSTYLE
  5
2CC8
102
{ACAD_REACTORS
330
2CC6
102
}
330
2CC6
100
AcDbVisualStyle
  2
FlatWithEdges
 70
     1
 71
     2
 72
     1
 73
     1
 90
        2
 40
-0.6
 41
30.0
 62
     5
 63
     7
 74
     1
 91
        4
 64
     7
 65
   257
 75
     1
175
     1
 42
1.0
 92
        0
 66
   257
 43
1.0
 76
     1
 77
     6
 78
     2
 67
     7
 79
     5
170
     0
171
     0
290
     0
174
     0
 93
       13
 44
0.0
173
     0
291
     1
 45
0.0
1001
ACAD
1000
AcDbSavedByObjectVersion
1070
     0
  0
VISUALSTYLE
  5
2CC9
102
{ACAD_REACTORS
330
2CC6
102
}
330
2CC6
100
AcDbVisualStyle
  2
Gouraud
 70
     2
 71
     2
 72
     2
 73
     1
 90
        2
 40
-0.6
 41
30.0
 62
     5
 63
     7
 74
     0
 91
        4
 64
     7
 65
   257
 75
     1
175
     1
 42
1.0
 92
        0
 66
     7
 43
1.0
 76
     1
 77
     6
 78
     2
 67
     7
 79
     5
170
     0
171
     0
290
     0
174
     0
 93
       13
 44
0.0
173
     0
291
     1
 45
0.0
1001
ACAD
1000
AcDbSavedByObjectVersion
1070
     0
  0
VISUALSTYLE
  5
2CCA
102
{ACAD_REACTORS
330
2CC6
102
}
330
2CC6
100
AcDbVisualStyle
  2
GouraudWithEdges
 70
     3
 71
     2
 72
     2
 73
     1
 90
        2
 40
-0.6
 41
30.0
 62
     5
 63
     7
 74
     1
 91
        4
 64
     7
 65
   257
 75
     1
175
     1
 42
1.0
 92
        0
 66
   257
 43
1.0
 76
     1
 77
     6
 78
     2
 67
     7
 79
     5
170
     0
171
     0
290
     0
174
     0
 93
       13
 44
0.0
173
     0
291
     1
 45
0.0
1001
ACAD
1000
AcDbSavedByObjectVersion
1070
     0
  0
VISUALSTYLE
  5
2CD4
102
{ACAD_REACTORS
330
2CC6
102
}
330
2CC6
100
AcDbVisualStyle
  2
Linepattern
 70
    14
 71
     2
 72
     2
 73
     0
 90
        0
 40
-0.6
 41
-30.0
 62
     5
 63
     7
 74
     1
 91
        4
 64
     7
 65
   257
 75
     7
175
     7
 42
1.0
 92
        8
 66
     7
 43
1.0
 76
     1
 77
     6
 78
     2
 67
     7
 79
     5
170
     0
171
     0
290
     0
174
     0
 93
        1
 44
0.0
173
     0
291
     1
 45
0.0
1001
ACAD
1000
AcDbSavedByObjectVersion
1070
     0
  0
VISUALSTYLE
  5
2CD0
102
{ACAD_REACTORS
330
2CC6
102
}
330
2CC6
100
AcDbVisualStyle
  2
Realistic
 70
     8
 71
     2
 72
     2
 73
     0
 90
        0
 40
-0.6
 41
-30.0
 62
     5
 63
     7
 74
     1
 91
        0
 64
     7
 65
   257
 75
     1
175
     1
 42
1.0
 92
        8
 66
     8
 43
1.0
 76
     1
 77
     6
 78
     2
 67
     7
 79
     5
170
     0
171
     0
290
     0
174
     0
 93
       13
 44
0.0
173
     0
291
     0
 45
0.0
1001
ACAD
1000
AcDbSavedByObjectVersion
1070
     0
  0
VISUALSTYLE
  5
2CD3
102
{ACAD_REACTORS
330
2CC6
102
}
330
2CC6
100
AcDbVisualStyle
  2
Thicken
 70
    13
 71
     2
 72
     2
 73
     0
 90
        0
 40
-0.6
 41
-30.0
 62
     5
 63
     7
 74
     1
 91
        4
 64
     7
 65
   257
 75
     1
175
     1
 42
1.0
 92
       12
 66
     7
 43
1.0
 76
     1
 77
     6
 78
     2
 67
     7
 79
     5
170
     0
171
     0
290
     0
174
     0
 93
        1
 44
0.0
173
     0
291
     1
 45
0.0
1001
ACAD
1000
AcDbSavedByObjectVersion
1070
     0
  0
DICTIONARYVAR
  5
2EEA
102
{ACAD_REACTORS
330
2EE7
102
}
330
2EE7
100
DictionaryVariables
280
     0
  1
1:1
  0
DICTIONARYVAR
  5
2EE9
102
{ACAD_REACTORS
330
2EE7
102
}
330
2EE7
100
DictionaryVariables
280
     0
  1
STANDARD
  0
DICTIONARYVAR
  5
2EE8
102
{ACAD_REACTORS
330
2EE7
102
}
330
2EE7
100
DictionaryVariables
280
     0
  1
STANDARD
  0
DICTIONARYVAR
  5
2EED
102
{ACAD_REACTORS
330
2EE7
102
}
330
2EE7
100
DictionaryVariables
280
     0
  1
1
  0
DICTIONARYVAR
  5
2EEC
102
{ACAD_REACTORS
330
2EE7
102
}
330
2EE7
100
DictionaryVariables
280
     0
  1
1
  0
DICTIONARYVAR
  5
2EEB
102
{ACAD_REACTORS
330
2EE7
102
}
330
2EE7
100
DictionaryVariables
280
     0
  1
127
  0
DICTIONARY
  5
2EA8
102
{ACAD_REACTORS
330
2E9A
102
}
330
2E9A
100
AcDbDictionary
281
     1
  0
DICTIONARY
  5
2DE8
102
{ACAD_REACTORS
330
2DE7
102
}
330
2DE7
100
AcDbDictionary
281
     1
  3
DWGSETTINGS
350
2DE9
  3
TRANSSETTINGS
350
2DEA
  0
LAYER_INDEX
  5
2EDA
102
{ACAD_REACTORS
330
2ED9
102
}
330
2ED9
100
AcDbIndex
 40
2456211.481757835
100
AcDbLayerIndex
  8
0
360
2EDB
 90
        2
  8
OUTLINE
360
2EDC
 90
       17
  8
SIZE
360
2EDD
 90
       24
  8
BASIS
360
2EDE
 90
        1
  8
DETAIL
360
2EDF
 90
       23
  8
ARRANGE
360
2EE0
 90
        2
  8
DEFPOINTS
360
2EE1
 90
        0
  8
ETC
360
2EE2
 90
        3
  8
FIX
360
2EE3
 90
        0
  8
NOTE
360
2EE4
 90
        4
  8
SERVICESPACE
360
2EE5
 90
        0
  8
SYMBOLLINE
360
2EE6
 90
        0
  0
DICTIONARY
  5
2EFD
330
2D14
100
AcDbDictionary
280
     1
281
     1
  3
ACAD_XREC_ROUNDTRIP
360
2EFE
  0
DICTIONARY
  5
2EFB
330
2D10
100
AcDbDictionary
280
     1
281
     1
  3
ACAD_XREC_ROUNDTRIP
360
2EFC
  0
DICTIONARY
  5
2CB7
330
2CB6
100
AcDbDictionary
280
     1
281
     1
  3
ACAD_XREC_ROUNDTRIP
360
2EF8
  3
BUMPTILE
360
2CB9
  3
DIFFUSETILE
360
2CB8
  3
OPACITYTILE
360
2CBC
  3
REFLECTIONTILE
360
2CBB
  3
REFRACTIONTILE
360
2CBD
  3
SPECULARTILE
360
2CBA
  0
DICTIONARY
  5
2CAF
330
2CAE
100
AcDbDictionary
280
     1
281
     1
  3
ACAD_XREC_ROUNDTRIP
360
2EF7
  3
BUMPTILE
360
2CB1
  3
DIFFUSETILE
360
2CB0
  3
OPACITYTILE
360
2CB4
  3
REFLECTIONTILE
360
2CB3
  3
REFRACTIONTILE
360
2CB5
  3
SPECULARTILE
360
2CB2
  0
DICTIONARY
  5
2CBF
330
2CBE
100
AcDbDictionary
280
     1
281
     1
  3
ACAD_XREC_ROUNDTRIP
360
2EF9
  3
BUMPTILE
360
2CC1
  3
DIFFUSETILE
360
2CC0
  3
OPACITYTILE
360
2CC4
  3
REFLECTIONTILE
360
2CC3
  3
REFRACTIONTILE
360
2CC5
  3
SPECULARTILE
360
2CC2
  0
DICTIONARY
  5
2EEE
330
2D09
100
AcDbDictionary
280
     1
281
     1
  3
ACAD_ROUNDTRIP_2008_TABLESTYLE_CELLSTYLEMAP
360
2EEF
  3
ACAD_XREC_ROUNDTRIP
360
2EFA
  0
IDBUFFER
  5
2EDB
330
0
100
AcDbIdBuffer
330
29CD
330
29CE
  0
IDBUFFER
  5
2EDC
330
0
100
AcDbIdBuffer
330
29DA
330
953
330
954
330
955
330
956
330
957
330
958
330
29C9
330
29CC
330
29D1
330
29D2
330
29D3
330
29D4
330
29D5
330
29D6
330
29D8
330
29D9
  0
IDBUFFER
  5
2EDD
330
0
100
AcDbIdBuffer
330
29F5
330
29F6
330
29F7
330
29F8
330
29F9
330
29FA
330
29FB
330
29FC
330
29E5
330
29E6
330
29E7
330
29E8
330
29E9
330
29EA
330
29EB
330
29EC
330
29ED
330
29EE
330
29EF
330
29F0
330
29F1
330
29F2
330
29F3
330
29F4
  0
IDBUFFER
  5
2EDE
330
0
100
AcDbIdBuffer
330
29BA
  0
IDBUFFER
  5
2EDF
330
0
100
AcDbIdBuffer
330
29DE
330
29DF
330
29E0
330
29E1
330
29E2
330
29E3
330
29E4
330
29BB
330
29BC
330
29BD
330
29BE
330
29BF
330
29C0
330
29C1
330
29C2
330
29C4
330
29C6
330
29C7
330
29C8
330
29CB
330
29DB
330
29DC
330
29DD
  0
IDBUFFER
  5
2EE0
330
0
100
AcDbIdBuffer
330
29B9
330
29CA
  0
IDBUFFER
  5
2EE1
330
0
100
AcDbIdBuffer
  0
IDBUFFER
  5
2EE2
330
0
100
AcDbIdBuffer
330
29B7
330
29B8
330
29D7
  0
IDBUFFER
  5
2EE3
330
0
100
AcDbIdBuffer
  0
IDBUFFER
  5
2EE4
330
0
100
AcDbIdBuffer
330
29C3
330
29C5
330
29CF
330
29D0
  0
IDBUFFER
  5
2EE5
330
0
100
AcDbIdBuffer
  0
IDBUFFER
  5
2EE6
330
0
100
AcDbIdBuffer
  0
XRECORD
  5
2EFE
102
{ACAD_REACTORS
330
2EFD
102
}
330
2EFD
100
AcDbXrecord
280
     1
102
SHADEPLOT
 70
     0
102
SHADEPLOTRESLEVEL
 70
     2
102
SHADEPLOTCUSTOMDPI
 70
   300
  0
XRECORD
  5
2EFC
102
{ACAD_REACTORS
330
2EFB
102
}
330
2EFB
100
AcDbXrecord
280
     1
102
SHADEPLOT
 70
     0
102
SHADEPLOTRESLEVEL
 70
     2
102
SHADEPLOTCUSTOMDPI
 70
   300
  0
XRECORD
  5
2EF8
102
{ACAD_REACTORS
330
2CB7
102
}
330
2CB7
100
AcDbXrecord
280
     1
102
MATERIAL
148
0.0
149
0.0
149
0.0
 93
        0
 94
      127
282
     0
 72
     0
 77
     0
171
     0
175
     0
179
     0
273
     0
  0
XRECORD
  5
2CB9
102
{ACAD_REACTORS
330
2CB7
102
}
330
2CB7
100
AcDbXrecord
280
     1
270
     1
271
     1
  0
XRECORD
  5
2CB8
102
{ACAD_REACTORS
330
2CB7
102
}
330
2CB7
100
AcDbXrecord
280
     1
270
     1
271
     1
  0
XRECORD
  5
2CBC
102
{ACAD_REACTORS
330
2CB7
102
}
330
2CB7
100
AcDbXrecord
280
     1
270
     1
271
     1
  0
XRECORD
  5
2CBB
102
{ACAD_REACTORS
330
2CB7
102
}
330
2CB7
100
AcDbXrecord
280
     1
270
     1
271
     1
  0
XRECORD
  5
2CBD
102
{ACAD_REACTORS
330
2CB7
102
}
330
2CB7
100
AcDbXrecord
280
     1
270
     1
271
     1
  0
XRECORD
  5
2CBA
102
{ACAD_REACTORS
330
2CB7
102
}
330
2CB7
100
AcDbXrecord
280
     1
270
     1
271
     1
  0
XRECORD
  5
2EF7
102
{ACAD_REACTORS
330
2CAF
102
}
330
2CAF
100
AcDbXrecord
280
     1
102
MATERIAL
148
0.0
149
0.0
149
0.0
 93
        0
 94
      127
282
     0
 72
     0
 77
     0
171
     0
175
     0
179
     0
273
     0
  0
XRECORD
  5
2CB1
102
{ACAD_REACTORS
330
2CAF
102
}
330
2CAF
100
AcDbXrecord
280
     1
270
     1
271
     1
  0
XRECORD
  5
2CB0
102
{ACAD_REACTORS
330
2CAF
102
}
330
2CAF
100
AcDbXrecord
280
     1
270
     1
271
     1
  0
XRECORD
  5
2CB4
102
{ACAD_REACTORS
330
2CAF
102
}
330
2CAF
100
AcDbXrecord
280
     1
270
     1
271
     1
  0
XRECORD
  5
2CB3
102
{ACAD_REACTORS
330
2CAF
102
}
330
2CAF
100
AcDbXrecord
280
     1
270
     1
271
     1
  0
XRECORD
  5
2CB5
102
{ACAD_REACTORS
330
2CAF
102
}
330
2CAF
100
AcDbXrecord
280
     1
270
     1
271
     1
  0
XRECORD
  5
2CB2
102
{ACAD_REACTORS
330
2CAF
102
}
330
2CAF
100
AcDbXrecord
280
     1
270
     1
271
     1
  0
XRECORD
  5
2EF9
102
{ACAD_REACTORS
330
2CBF
102
}
330
2CBF
100
AcDbXrecord
280
     1
102
MATERIAL
148
0.0
149
0.0
149
0.0
 93
        0
 94
      127
282
     0
 72
     0
 77
     0
171
     0
175
     0
179
     0
273
     0
  0
XRECORD
  5
2CC1
102
{ACAD_REACTORS
330
2CBF
102
}
330
2CBF
100
AcDbXrecord
280
     1
270
     1
271
     1
  0
XRECORD
  5
2CC0
102
{ACAD_REACTORS
330
2CBF
102
}
330
2CBF
100
AcDbXrecord
280
     1
270
     1
271
     1
  0
XRECORD
  5
2CC4
102
{ACAD_REACTORS
330
2CBF
102
}
330
2CBF
100
AcDbXrecord
280
     1
270
     1
271
     1
  0
XRECORD
  5
2CC3
102
{ACAD_REACTORS
330
2CBF
102
}
330
2CBF
100
AcDbXrecord
280
     1
270
     1
271
     1
  0
XRECORD
  5
2CC5
102
{ACAD_REACTORS
330
2CBF
102
}
330
2CBF
100
AcDbXrecord
280
     1
270
     1
271
     1
  0
XRECORD
  5
2CC2
102
{ACAD_REACTORS
330
2CBF
102
}
330
2CBF
100
AcDbXrecord
280
     1
270
     1
271
     1
  0
CELLSTYLEMAP
  5
2EEF
102
{ACAD_REACTORS
330
2EEE
102
}
330
2EEE
100
AcDbCellStyleMap
 90
        3
300
CELLSTYLE
  1
TABLEFORMAT_BEGIN
 90
        5
170
     1
 91
        0
 92
    32768
 62
   257
 93
        1
300
CONTENTFORMAT
  1
CONTENTFORMAT_BEGIN
 90
        0
 91
        0
 92
      512
 93
        0
300

 40
0.0
140
1.0
 94
        5
 62
     0
340
2CFA
144
0.25
309
CONTENTFORMAT_END
171
     0
 94
        0
309
TABLEFORMAT_END
  1
CELLSTYLE_BEGIN
 90
        1
 91
        1
300
_TITLE
309
CELLSTYLE_END
300
CELLSTYLE
  1
TABLEFORMAT_BEGIN
 90
        5
170
     1
 91
        0
 92
        0
 62
   257
 93
        1
300
CONTENTFORMAT
  1
CONTENTFORMAT_BEGIN
 90
        0
 91
        0
 92
      512
 93
        0
300

 40
0.0
140
1.0
 94
        5
 62
     0
340
2CFA
144
0.18
309
CONTENTFORMAT_END
171
     0
 94
        0
309
TABLEFORMAT_END
  1
CELLSTYLE_BEGIN
 90
        2
 91
        1
300
_HEADER
309
CELLSTYLE_END
300
CELLSTYLE
  1
TABLEFORMAT_BEGIN
 90
        5
170
     1
 91
        0
 92
        0
 62
   257
 93
        1
300
CONTENTFORMAT
  1
CONTENTFORMAT_BEGIN
 90
        0
 91
        0
 92
      512
 93
        0
300

 40
0.0
140
1.0
 94
        2
 62
     0
340
2CFA
144
0.18
309
CONTENTFORMAT_END
171
     0
 94
        0
309
TABLEFORMAT_END
  1
CELLSTYLE_BEGIN
 90
        3
 91
        2
300
_DATA
309
CELLSTYLE_END
  0
XRECORD
  5
2EFA
102
{ACAD_REACTORS
330
2EEE
102
}
330
2EEE
100
AcDbXrecord
280
     1
102
ACAD_ROUNDTRIP_PRE2007_TABLESTYLE
 90
      512
 91
        0
  1

 92
      512
 93
        0
  2

 94
      512
 95
        0
  3

  0
ENDSEC
  0
EOF
