  0
SECTION
  2
HEADER
  9
$ACADVER
  1
AC1021
  9
$ACADMAINTVER
 70
    50
  9
$DWGCODEPAGE
  3
ANSI_932
  9
$LASTSAVEDBY
  1
A140052
  9
$CUSTOMPROPERTYTAG
  1
AmdtFileType
  9
$CUSTOMPROPERTY
  1
84
  9
$INSBASE
 10
0.0
 20
0.0
 30
0.0
  9
$EXTMIN
 10
-1732.330223867742
 20
176.662588557659
 30
0.0
  9
$EXTMAX
 10
114.2054335875887
 20
1571.879397675856
 30
50.0
  9
$LIMMIN
 10
-2970.0
 20
-2100.0
  9
$LIMMAX
 10
2970.0
 20
2100.0
  9
$ORTHOMODE
 70
     1
  9
$REGENMODE
 70
     0
  9
$FILLMODE
 70
     1
  9
$QTEXTMODE
 70
     0
  9
$MIRRTEXT
 70
     0
  9
$LTSCALE
 40
20.0
  9
$ATTMODE
 70
     1
  9
$TEXTSIZE
 40
64.0
  9
$TRACEWID
 40
0.05
  9
$TEXTSTYLE
  7
STANDARD
  9
$CLAYER
  8
0
  9
$CELTYPE
  6
ByLayer
  9
$CECOLOR
 62
   256
  9
$CELTSCALE
 40
1.0
  9
$DISPSILH
 70
     0
  9
$DIMSCALE
 40
1.0
  9
$DIMASZ
 40
0.12
  9
$DIMEXO
 40
0.05
  9
$DIMDLI
 40
0.5
  9
$DIMRND
 40
0.0
  9
$DIMDLE
 40
0.0
  9
$DIMEXE
 40
0.1
  9
$DIMTP
 40
0.1
  9
$DIMTM
 40
0.1
  9
$DIMTXT
 40
0.12
  9
$DIMCEN
 40
0.0
  9
$DIMTSZ
 40
0.0
  9
$DIMTOL
 70
     0
  9
$DIMLIM
 70
     0
  9
$DIMTIH
 70
     1
  9
$DIMTOH
 70
     1
  9
$DIMSE1
 70
     0
  9
$DIMSE2
 70
     0
  9
$DIMTAD
 70
     0
  9
$DIMZIN
 70
     7
  9
$DIMBLK
  1

  9
$DIMASO
 70
     1
  9
$DIMSHO
 70
     0
  9
$DIMPOST
  1

  9
$DIMAPOST
  1
mm
  9
$DIMALT
 70
     0
  9
$DIMALTD
 70
     2
  9
$DIMALTF
 40
25.4
  9
$DIMLFAC
 40
1.0
  9
$DIMTOFL
 70
     0
  9
$DIMTVP
 40
0.0
  9
$DIMTIX
 70
     0
  9
$DIMSOXD
 70
     0
  9
$DIMSAH
 70
     0
  9
$DIMBLK1
  1

  9
$DIMBLK2
  1

  9
$DIMSTYLE
  2
AM_ANSI
  9
$DIMCLRD
 70
   256
  9
$DIMCLRE
 70
   256
  9
$DIMCLRT
 70
     2
  9
$DIMTFAC
 40
0.71
  9
$DIMGAP
 40
0.06
  9
$DIMJUST
 70
     0
  9
$DIMSD1
 70
     0
  9
$DIMSD2
 70
     0
  9
$DIMTOLJ
 70
     1
  9
$DIMTZIN
 70
     7
  9
$DIMALTZ
 70
     0
  9
$DIMALTTZ
 70
     0
  9
$DIMUPT
 70
     0
  9
$DIMDEC
 70
     4
  9
$DIMTDEC
 70
     4
  9
$DIMALTU
 70
     2
  9
$DIMALTTD
 70
     4
  9
$DIMTXSTY
  7
STANDARD
  9
$DIMAUNIT
 70
     0
  9
$DIMADEC
 70
     0
  9
$DIMALTRND
 40
0.0
  9
$DIMAZIN
 70
     2
  9
$DIMDSEP
 70
    46
  9
$DIMATFIT
 70
     3
  9
$DIMFRAC
 70
     0
  9
$DIMLDRBLK
  1

  9
$DIMLUNIT
 70
     2
  9
$DIMLWD
 70
    -1
  9
$DIMLWE
 70
    -1
  9
$DIMTMOVE
 70
     0
  9
$DIMFXL
 40
1.0
  9
$DIMFXLON
 70
     0
  9
$DIMJOGANG
 40
0.7853981633974483
  9
$DIMTFILL
 70
     0
  9
$DIMTFILLCLR
 70
     0
  9
$DIMARCSYM
 70
     1
  9
$DIMLTYPE
  6
ByBlock
  9
$DIMLTEX1
  6
ByBlock
  9
$DIMLTEX2
  6
ByBlock
  9
$LUNITS
 70
     2
  9
$LUPREC
 70
     4
  9
$SKETCHINC
 40
0.1
  9
$FILLETRAD
 40
4.0
  9
$AUNITS
 70
     1
  9
$AUPREC
 70
     3
  9
$MENU
  1
ACAD
  9
$ELEVATION
 40
0.0
  9
$PELEVATION
 40
0.0
  9
$THICKNESS
 40
50.0
  9
$LIMCHECK
 70
     0
  9
$CHAMFERA
 40
0.0
  9
$CHAMFERB
 40
0.0
  9
$CHAMFERC
 40
0.0
  9
$CHAMFERD
 40
0.0
  9
$SKPOLY
 70
     0
  9
$TDCREATE
 40
2452321.396199653
  9
$TDUCREATE
 40
2452321.021199653
  9
$TDUPDATE
 40
2457472.823578496
  9
$TDUUPDATE
 40
2457472.448578496
  9
$TDINDWG
 40
1.0420616435
  9
$TDUSRTIMER
 40
1.0420557060
  9
$USRTIMER
 70
     1
  9
$ANGBASE
 50
0.0
  9
$ANGDIR
 70
     0
  9
$PDMODE
 70
     3
  9
$PDSIZE
 40
-2.0
  9
$PLINEWID
 40
0.0
  9
$SPLFRAME
 70
     0
  9
$SPLINETYPE
 70
     6
  9
$SPLINESEGS
 70
     8
  9
$HANDSEED
  5
331D
  9
$SURFTAB1
 70
     6
  9
$SURFTAB2
 70
     6
  9
$SURFTYPE
 70
     6
  9
$SURFU
 70
     6
  9
$SURFV
 70
     6
  9
$UCSBASE
  2

  9
$UCSNAME
  2

  9
$UCSORG
 10
0.0
 20
0.0
 30
0.0
  9
$UCSXDIR
 10
1.0
 20
0.0
 30
0.0
  9
$UCSYDIR
 10
0.0
 20
1.0
 30
0.0
  9
$UCSORTHOREF
  2

  9
$UCSORTHOVIEW
 70
     0
  9
$UCSORGTOP
 10
0.0
 20
0.0
 30
0.0
  9
$UCSORGBOTTOM
 10
0.0
 20
0.0
 30
0.0
  9
$UCSORGLEFT
 10
0.0
 20
0.0
 30
0.0
  9
$UCSORGRIGHT
 10
0.0
 20
0.0
 30
0.0
  9
$UCSORGFRONT
 10
0.0
 20
0.0
 30
0.0
  9
$UCSORGBACK
 10
0.0
 20
0.0
 30
0.0
  9
$PUCSBASE
  2

  9
$PUCSNAME
  2

  9
$PUCSORG
 10
0.0
 20
0.0
 30
0.0
  9
$PUCSXDIR
 10
1.0
 20
0.0
 30
0.0
  9
$PUCSYDIR
 10
0.0
 20
1.0
 30
0.0
  9
$PUCSORTHOREF
  2

  9
$PUCSORTHOVIEW
 70
     0
  9
$PUCSORGTOP
 10
0.0
 20
0.0
 30
0.0
  9
$PUCSORGBOTTOM
 10
0.0
 20
0.0
 30
0.0
  9
$PUCSORGLEFT
 10
0.0
 20
0.0
 30
0.0
  9
$PUCSORGRIGHT
 10
0.0
 20
0.0
 30
0.0
  9
$PUCSORGFRONT
 10
0.0
 20
0.0
 30
0.0
  9
$PUCSORGBACK
 10
0.0
 20
0.0
 30
0.0
  9
$USERI1
 70
     0
  9
$USERI2
 70
     0
  9
$USERI3
 70
     0
  9
$USERI4
 70
     0
  9
$USERI5
 70
     0
  9
$USERR1
 40
20.0
  9
$USERR2
 40
0.0
  9
$USERR3
 40
0.0
  9
$USERR4
 40
0.0
  9
$USERR5
 40
0.0
  9
$WORLDVIEW
 70
     1
  9
$SHADEDGE
 70
     3
  9
$SHADEDIF
 70
    70
  9
$TILEMODE
 70
     1
  9
$MAXACTVP
 70
    64
  9
$PINSBASE
 10
0.0
 20
0.0
 30
0.0
  9
$PLIMCHECK
 70
     0
  9
$PEXTMIN
 10
1.000000000000000E+20
 20
1.000000000000000E+20
 30
1.000000000000000E+20
  9
$PEXTMAX
 10
-1.000000000000000E+20
 20
-1.000000000000000E+20
 30
-1.000000000000000E+20
  9
$PLIMMIN
 10
0.0
 20
0.0
  9
$PLIMMAX
 10
12.0
 20
9.0
  9
$UNITMODE
 70
     0
  9
$VISRETAIN
 70
     1
  9
$PLINEGEN
 70
     0
  9
$PSLTSCALE
 70
     1
  9
$TREEDEPTH
 70
  3020
  9
$CMLSTYLE
  2
Standard
  9
$CMLJUST
 70
     0
  9
$CMLSCALE
 40
1.0
  9
$PROXYGRAPHICS
 70
     1
  9
$MEASUREMENT
 70
     0
  9
$CELWEIGHT
370
    -1
  9
$ENDCAPS
280
     0
  9
$JOINSTYLE
280
     0
  9
$LWDISPLAY
290
     0
  9
$INSUNITS
 70
     0
  9
$HYPERLINKBASE
  1

  9
$STYLESHEET
  1

  9
$XEDIT
290
     1
  9
$CEPSNTYPE
380
     0
  9
$PSTYLEMODE
290
     1
  9
$FINGERPRINTGUID
  2
{98E52E37-CA4A-4A58-8983-DDA035CE3FBC}
  9
$VERSIONGUID
  2
{5D7A5E3F-AB73-444F-BECA-1AC72A5542A7}
  9
$EXTNAMES
290
     1
  9
$PSVPSCALE
 40
0.0
  9
$OLESTARTUP
290
     0
  9
$SORTENTS
280
   127
  9
$INDEXCTL
280
     1
  9
$HIDETEXT
280
     0
  9
$XCLIPFRAME
290
     0
  9
$HALOGAP
280
     0
  9
$OBSCOLOR
 70
   257
  9
$OBSLTYPE
280
     0
  9
$INTERSECTIONDISPLAY
280
     0
  9
$INTERSECTIONCOLOR
 70
   257
  9
$DIMASSOC
280
     1
  9
$PROJECTNAME
  1

  9
$CAMERADISPLAY
290
     0
  9
$LENSLENGTH
 40
50.0
  9
$CAMERAHEIGHT
 40
0.0
  9
$STEPSPERSEC
 40
2.0
  9
$STEPSIZE
 40
6.0
  9
$3DDWFPREC
 40
2.0
  9
$PSOLWIDTH
 40
0.25
  9
$PSOLHEIGHT
 40
4.0
  9
$LOFTANG1
 40
1.570796326794896
  9
$LOFTANG2
 40
1.570796326794896
  9
$LOFTMAG1
 40
0.0
  9
$LOFTMAG2
 40
0.0
  9
$LOFTPARAM
 70
     7
  9
$LOFTNORMALS
280
     1
  9
$LATITUDE
 40
37.795
  9
$LONGITUDE
 40
-122.394
  9
$NORTHDIRECTION
 40
0.0
  9
$TIMEZONE
 70
 -8000
  9
$LIGHTGLYPHDISPLAY
280
     1
  9
$TILEMODELIGHTSYNCH
280
     1
  9
$CMATERIAL
347
2D98
  9
$SOLIDHIST
280
     1
  9
$SHOWHIST
280
     1
  9
$DWFFRAME
280
     2
  9
$DGNFRAME
280
     0
  9
$REALWORLDSCALE
290
     1
  9
$INTERFERECOLOR
 62
     1
  9
$INTERFEREOBJVS
345
2DBA
  9
$INTERFEREVPVS
346
2DB7
  9
$CSHADOW
280
     0
  9
$SHADOWPLANELOCATION
 40
0.0
  0
ENDSEC
  0
SECTION
  2
CLASSES
  0
CLASS
  1
ACDBDICTIONARYWDFLT
  2
AcDbDictionaryWithDefault
  3
ObjectDBX Classes
 90
        0
 91
        1
280
     0
281
     0
  0
CLASS
  1
MATERIAL
  2
AcDbMaterial
  3
ObjectDBX Classes
 90
     1153
 91
        3
280
     0
281
     0
  0
CLASS
  1
VISUALSTYLE
  2
AcDbVisualStyle
  3
ObjectDBX Classes
 90
     4095
 91
       16
280
     0
281
     0
  0
CLASS
  1
SCALE
  2
AcDbScale
  3
ObjectDBX Classes
 90
     1153
 91
       33
280
     0
281
     0
  0
CLASS
  1
TABLESTYLE
  2
AcDbTableStyle
  3
ObjectDBX Classes
 90
     4095
 91
        1
280
     0
281
     0
  0
CLASS
  1
MLEADERSTYLE
  2
AcDbMLeaderStyle
  3
ACDB_MLEADERSTYLE_CLASS
 90
     4095
 91
        1
280
     0
281
     0
  0
CLASS
  1
AMGSETTINGSOBJ
  2
AmgSettingsObj
  3
"AcadM|Product Description: AutoCAD Mechanical|Company: Autodesk, Inc."
 90
     1024
 91
        2
280
     0
281
     0
  0
CLASS
  1
ACME_DOCUMENT
  2
AcMeDbDoc
  3
AcMeServices
 90
     1024
 91
        1
280
     0
281
     0
  0
CLASS
  1
ACMESCOPE
  2
AcMeScope
  3
AcMeServices
 90
     1024
 91
        1
280
     0
281
     0
  0
CLASS
  1
ACMECOMMANDHISTORY
  2
AcMeCommandHistory
  3
AcMeServices
 90
     1024
 91
        1
280
     0
281
     0
  0
CLASS
  1
ACIMSYSVARMAN
  2
AcImSysVarManager
  3
AcMeServices
 90
     1024
 91
        6
280
     0
281
     0
  0
CLASS
  1
ACIMREALSYSVAR
  2
AcImRealSysVar
  3
AcMeServices
 90
     1024
 91
       16
280
     0
281
     0
  0
CLASS
  1
ACIMINTSYSVAR
  2
AcImIntSysVar
  3
AcMeServices
 90
     1024
 91
       45
280
     0
281
     0
  0
CLASS
  1
ACMEDRAWINGMAN
  2
AcMeDrawingMan
  3
AcMeServices
 90
     1024
 91
        1
280
     0
281
     0
  0
CLASS
  1
ACMEVIEW
  2
AcMeView
  3
AcMeServices
 90
     1024
 91
        1
280
     0
281
     0
  0
CLASS
  1
ACDBENTITYCACHE
  2
AcMeEntityCache
  3
AcMeServices
 90
     1024
 91
        1
280
     0
281
     0
  0
CLASS
  1
GSMANAGER
  2
AcMeGSManager
  3
AcMeServices
 90
     1024
 91
        1
280
     0
281
     0
  0
CLASS
  1
AMDTINTERNALREACTOR
  2
AmdtInternalReactor
  3
AcMeServices
 90
     1024
 91
        2
280
     0
281
     0
  0
CLASS
  1
ACMESTATEMGR
  2
AcMeStateMgr
  3
AcMeServices
 90
     1024
 91
        1
280
     0
281
     0
  0
CLASS
  1
ACGREFMASTER
  2
AcGrefMaster
  3
AcAttribServices
 90
     1024
 91
        1
280
     0
281
     0
  0
CLASS
  1
AM_DRAWING_MGR
  2
AcDmDwgMgr
  3
AcMechDwgViewMgmt
 90
     1024
 91
        1
280
     0
281
     0
  0
CLASS
  1
AM_DWG_DOCUMENT
  2
AcDmDwgDocument
  3
AcMechDwgViewMgmt
 90
     1024
 91
        1
280
     0
281
     0
  0
CLASS
  1
AM_DWG_SHEET
  2
AcDmSheet
  3
AcMechDwgViewMgmt
 90
     1024
 91
        1
280
     0
281
     0
  0
CLASS
  1
AM_VIEWDIMPARMAP
  2
AcDmViewDimParMap
  3
AcMechDwgViewMgmt
 90
     1024
 91
        1
280
     0
281
     0
  0
CLASS
  1
AM_DWGMGR_NAME
  2
AcDmDwgMgrName
  3
AcMechDwgViewMgmt
 90
     1024
 91
        1
280
     0
281
     0
  0
CLASS
  1
ACME_DATABASE
  2
AcMeDbDatabase
  3
AcMeServices
 90
     1024
 91
        1
280
     0
281
     0
  0
CLASS
  1
ACRFINSADJUSTERMGR
  2
AcRfInsAdjusterMgr
  3
AcMeServices
 90
     1024
 91
        1
280
     0
281
     0
  0
CLASS
  1
ACGREFACADMASTER
  2
AcGrefacadMaster
  3
AcGrefServices
 90
     1024
 91
        1
280
     0
281
     0
  0
CLASS
  1
AMDTMENUSTATEMGR
  2
AmdtMenuStateMgr
  3
McadcomServices
 90
     1024
 91
        1
280
     0
281
     0
  0
CLASS
  1
AMDTMCOMMENUSTATE
  2
AmdtMcomMenuState
  3
McadcomServices
 90
     1024
 91
        1
280
     0
281
     0
  0
CLASS
  1
AMIMASTER
  2
AmiMaster
  3
AmiServices
 90
     1024
 91
        1
280
     0
281
     0
  0
CLASS
  1
ASAPP
  2
AcAsAppObject
  3
AutoSurfServices
 90
     1024
 91
        1
280
     0
281
     0
  0
CLASS
  1
IM_STATIC_MAN
  2
AcImStaticVarManager
  3
AcMeServices
 90
     1024
 91
        1
280
     0
281
     0
  0
CLASS
  1
ACIMSTRSYSVAR
  2
AcImStrSysVar
  3
AcMeServices
 90
     1024
 91
       11
280
     0
281
     0
  0
CLASS
  1
ACIMDBLSTATICVAR
  2
AcImDblStaticVar
  3
AcMeServices
 90
     1024
 91
       20
280
     0
281
     0
  0
CLASS
  1
ACIMSTRSTATICVAR
  2
AcImStrStaticVar
  3
AcMeServices
 90
     1024
 91
       12
280
     0
281
     0
  0
CLASS
  1
ACIMINTSTATICVAR
  2
AcImIntStaticVar
  3
AcMeServices
 90
     1024
 91
       17
280
     0
281
     0
  0
CLASS
  1
ACASGREFMASTER
  2
AcAsGrefMaster
  3
AutoSurfResolverServices
 90
     1024
 91
        1
280
     0
281
     0
  0
CLASS
  1
ACADGREFMODULE
  2
AcAdGrefModule
  3
AdGrefServices
 90
     1024
 91
        1
280
     0
281
     0
  0
CLASS
  1
AMDTMAPISURFMOUDULE
  2
AmdtMApiSurfModule
  3
MApiSurfServices
 90
     1024
 91
        0
280
     0
281
     0
  0
CLASS
  1
MAPIAMMOUDLE
  2
MApiAmModule
  3
MApiAmServices
 90
     1024
 91
        1
280
     0
281
     0
  0
CLASS
  1
AMDTADMENUSTATE
  2
AmdtAdMenuState
  3
DesignerServices
 90
     1024
 91
        1
280
     0
281
     0
  0
CLASS
  1
ADAPPL
  2
AcAdAppl
  3
DesignerServices
 90
     1024
 91
        1
280
     0
281
     0
  0
CLASS
  1
DEPMGR
  2
AcAdDepMgr
  3
DesignerServices
 90
     1024
 91
        1
280
     0
281
     0
  0
CLASS
  1
PARAMMGR
  2
AcAdParamMgr
  3
DesignerServices
 90
     1024
 91
        1
280
     0
281
     0
  0
CLASS
  1
PARAMSCOPE
  2
AcAdParamScope
  3
DesignerServices
 90
     1024
 91
        1
280
     0
281
     0
  0
CLASS
  1
NAMEDAPPL
  2
AcAdNamedAppl
  3
DesignerServices
 90
     1024
 91
        1
280
     0
281
     0
  0
CLASS
  1
AMDTDMMENUSTATE
  2
AmdtDmMenuState
  3
AcMechDwgViewMgmt
 90
     1024
 91
        1
280
     0
281
     0
  0
CLASS
  1
MAPIADMODULE
  2
MApiAdModule
  3
MApiAdServices
 90
     1024
 91
        1
280
     0
281
     0
  0
CLASS
  1
AMDTAMMENUSTATE
  2
AmdtAmMenuState
  3
DesignerAssemblies
 90
     1024
 91
        1
280
     0
281
     0
  0
CLASS
  1
ACAMPROJECT
  2
AcAmProject
  3
DesignerAssemblies
 90
     1024
 91
        1
280
     0
281
     0
  0
CLASS
  1
ACAMGRCOMPDEF
  2
AcAmGrCompDef
  3
DesignerAssemblies
 90
     1024
 91
        1
280
     0
281
     0
  0
CLASS
  1
ACCMCONTEXT
  2
AcCmContext
  3
DesignerAssemblies
 90
     1024
 91
        1
280
     0
281
     0
  0
CLASS
  1
ACAMCOMPDEF
  2
AcAmCompDef
  3
DesignerAssemblies
 90
     1024
 91
        1
280
     0
281
     0
  0
CLASS
  1
ACAMCOMPDEFMGR
  2
AcAmCompDefMgr
  3
DesignerAssemblies
 90
     1024
 91
        1
280
     0
281
     0
  0
CLASS
  1
AMCONTEXTMGR
  2
AcAmContextMgr
  3
DesignerAssemblies
 90
     1024
 91
        1
280
     0
281
     0
  0
CLASS
  1
ACAMCONTEXTMODELER
  2
AcAmContextModeler
  3
DesignerAssemblies
 90
     1024
 91
        1
280
     0
281
     0
  0
CLASS
  1
ACMDATADICTIONARY
  2
AcmDataDictionary
  3
"AcmSymBB|Product Description: AutoCAD Mechanical|Company: Autodesk, Inc."
 90
     1024
 91
        1
280
     0
281
     0
  0
CLASS
  1
ACMDATAENTRYBLOCK
  2
AcmDataEntryBlock
  3
AcmSymBB|Product Description: AutoCAD Mechanical|Company: Autodesk, Inc.
 90
     1024
 91
        1
280
     0
281
     0
  0
CLASS
  1
ACRFATTGENMGR
  2
AcRfAttGeneralMgr
  3
AcAttribServices
 90
     1024
 91
        1
280
     0
281
     0
  0
CLASS
  1
ACRFOBJATTMGR
  2
AcRfObjAttGroupMgr
  3
AcAttribServices
 90
     1024
 91
        1
280
     0
281
     0
  0
CLASS
  1
ACRFMCADAPIATTHOLDER
  2
AcRfMCADAPIAttHolder
  3
AcAttribServices
 90
     1024
 91
        1
280
     0
281
     0
  0
CLASS
  1
AMDTSYSATTR
  2
AmdtSystemAttribute
  3
AcAttribServices
 90
     1024
 91
        1
280
     0
281
     0
  0
CLASS
  1
CATALOGSTATE
  2
AcAmCatalogState
  3
DesignerAssemblies
 90
     1024
 91
        1
280
     0
281
     0
  0
CLASS
  1
ACAMGRCOMPDEFSET
  2
AcAmGrCompDefSet
  3
DesignerAssemblies
 90
     1024
 91
        1
280
     0
281
     0
  0
CLASS
  1
AMDTBROWSERDBTAB
  2
AmdtBrowserDbTab
  3
McadcomServices
 90
     1024
 91
        1
280
     0
281
     0
  0
CLASS
  1
CBROWSERAPPOBJECT
  2
CBrowserAppObject
  3
McadcomServices
 90
     1024
 91
        3
280
     0
281
     0
  0
CLASS
  1
DM_PLACEHOLDER
  2
AcDmSelsetPlaceholder
  3
AcMechDwgViewMgmt
 90
     1024
 91
        1
280
     0
281
     0
  0
CLASS
  1
ACMSTANDARDANSI
  2
AcmStandardANSI
  3
"Amdt_StdImp|Product Description: AutoCAD Mechanical|Company: Autodesk, Inc."
 90
     1024
 91
        1
280
     0
281
     0
  0
CLASS
  1
ACMSURFSTANDARDANSI
  2
AcmSurfTextStdANSI
  3
"Amdt_StdImp|Product Description: AutoCAD Mechanical|Company: Autodesk, Inc."
 90
     1024
 91
        1
280
     0
281
     0
  0
CLASS
  1
ACMFCFSTANDARDANSI
  2
AcmFCFStdANSI
  3
"Amdt_StdImp|Product Description: AutoCAD Mechanical|Company: Autodesk, Inc."
 90
     1024
 91
        1
280
     0
281
     0
  0
CLASS
  1
ACMWELDSTANDARDANSI
  2
AcmWeldingStdANSI
  3
"Amdt_StdImp|Product Description: AutoCAD Mechanical|Company: Autodesk, Inc."
 90
     1024
 91
        1
280
     0
281
     0
  0
CLASS
  1
ACMIDSTANDARDANSI
  2
AcmIdStdANSI
  3
"Amdt_StdImp|Product Description: AutoCAD Mechanical|Company: Autodesk, Inc."
 90
     1024
 91
        1
280
     0
281
     0
  0
CLASS
  1
ACMDATUMSTANDARDANSI
  2
AcmDatumStdANSI
  3
"Amdt_StdImp|Product Description: AutoCAD Mechanical|Company: Autodesk, Inc."
 90
     1024
 91
        1
280
     0
281
     0
  0
CLASS
  1
ACMBOMSTANDARDANSI
  2
AcmBOMStdANSI
  3
"Amdt_StdImp|Product Description: AutoCAD Mechanical|Company: Autodesk, Inc."
 90
     1024
 91
        1
280
     0
281
     0
  0
CLASS
  1
ACMDETAILSTANDARDANSI
  2
AmdtDetailSymStdANSI
  3
"Amdt_StdImp|Product Description: AutoCAD Mechanical|Company: Autodesk, Inc."
 90
     1024
 91
        1
280
     0
281
     0
  0
CLASS
  1
ACMSECTIONSTANDARDANSI
  2
AmdtSectionSymStdANSI
  3
"Amdt_StdImp|Product Description: AutoCAD Mechanical|Company: Autodesk, Inc."
 90
     1024
 91
        1
280
     0
281
     0
  0
CLASS
  1
ACMCENTERLINESTANDARDANSI
  2
AmdtCenterLineStdANSI
  3
"Amdt_StdImp|Product Description: AutoCAD Mechanical|Company: Autodesk, Inc."
 90
     1024
 91
        1
280
     0
281
     0
  0
CLASS
  1
ACMTHREADLINESTANDARDANSI
  2
AmdtThreadLineStdANSI
  3
"Amdt_StdImp|Product Description: AutoCAD Mechanical|Company: Autodesk, Inc."
 90
     1024
 91
        1
280
     0
281
     0
  0
CLASS
  1
ACMNOTESTANDARDANSI
  2
AmdtNoteStdANSI
  3
"Amdt_StdImp|Product Description: AutoCAD Mechanical|Company: Autodesk, Inc."
 90
     1024
 91
        1
280
     0
281
     0
  0
CLASS
  1
ACMTAPERSTANDARDANSI
  2
AcmTaperStdANSI
  3
"Amdt_StdImp|Product Description: AutoCAD Mechanical|Company: Autodesk, Inc."
 90
     1024
 91
        1
280
     0
281
     0
  0
CLASS
  1
ACMANOOTATIONVIEWSTANDARDANSI
  2
AmdtAnViewStdANSI
  3
"Amdt_StdImp|Product Description: AutoCAD Mechanical|Company: Autodesk, Inc."
 90
     1024
 91
        1
280
     0
281
     0
  0
CLASS
  1
ACAMGLAYSTD
  2
AcAmgLayStd
  3
"AmgLay|Product Description: AutoCAD Mechanical|Company: Autodesk, Inc."
 90
     1024
 91
        1
280
     0
281
     0
  0
CLASS
  1
ACAMGDIMSTD
  2
AcAmgDimStd
  3
"AmgDim|Product Description: AutoCAD Mechanical|Company: Autodesk, Inc."
 90
     1024
 91
        1
280
     0
281
     0
  0
CLASS
  1
ACAMGHOLECHARTSTDANSI
  2
AcAmgHoleChartStdANSI
  3
AmgDim|Product Description: AutoCAD Mechanical|Company: Autodesk, Inc.
 90
     1024
 91
        1
280
     0
281
     0
  0
CLASS
  1
AMGOBJPROPCFG
  2
AmgObjPropCfg
  3
"AmgLay|Product Description: AutoCAD Mechanical|Company: Autodesk, Inc."
 90
     1025
 91
        1
280
     0
281
     0
  0
CLASS
  1
ACAMGTITLESTD
  2
AcAmgTitleStd
  3
"AmgTitle|Product Description: AutoCAD Mechanical|Company: Autodesk, Inc."
 90
     4095
 91
        1
280
     0
281
     0
  0
CLASS
  1
AMDTNOTETEMPLATEDB
  2
AmdtNoteTemplateDB
  3
AcmSymBB|Product Description: AutoCAD Mechanical|Company: Autodesk, Inc.
 90
     1024
 91
        6
280
     0
281
     0
  0
CLASS
  1
ACAMGFILTERDAT
  2
AcAmgFilterDat
  3
"AcadM|Product Description: AutoCAD Mechanical|Company: Autodesk, Inc."
 90
     1024
 91
        6
280
     0
281
     0
  0
CLASS
  1
LAYER_INDEX
  2
AcDbLayerIndex
  3
ObjectDBX Classes
 90
        0
 91
        1
280
     0
281
     0
  0
CLASS
  1
IDBUFFER
  2
AcDbIdBuffer
  3
ObjectDBX Classes
 90
        0
 91
       12
280
     0
281
     0
  0
CLASS
  1
DICTIONARYVAR
  2
AcDbDictionaryVar
  3
ObjectDBX Classes
 90
        0
 91
       10
280
     0
281
     0
  0
CLASS
  1
CELLSTYLEMAP
  2
AcDbCellStyleMap
  3
ObjectDBX Classes
 90
     1152
 91
        2
280
     0
281
     0
  0
CLASS
  1
SORTENTSTABLE
  2
AcDbSortentsTable
  3
ObjectDBX Classes
 90
        0
 91
        0
280
     0
281
     0
  0
ENDSEC
  0
SECTION
  2
TABLES
  0
TABLE
  2
VPORT
  5
2D8F
330
0
100
AcDbSymbolTable
 70
     1
  0
VPORT
  5
2DFF
330
2D8F
100
AcDbSymbolTableRecord
100
AcDbViewportTableRecord
  2
*ACTIVE
 70
     0
 10
0.0
 20
0.0
 11
1.0
 21
1.0
 12
0.0
 22
0.0
 13
0.0
 23
0.0
 14
1.0
 24
1.0
 15
0.0
 25
0.0
 16
0.0
 26
0.0
 36
1.0
 17
-101.3728851405349
 27
1202.036968632249
 37
0.0
 40
1041.057088343906
 41
0.6135802469135803
 42
50.0
 43
0.0
 44
0.0
 50
0.0
 51
0.0
 71
     0
 72
   100
 73
     1
 74
     0
 75
     0
 76
     0
 77
     0
 78
     0
281
     0
 65
     0
110
0.0
120
0.0
130
0.0
111
1.0
121
0.0
131
0.0
112
0.0
122
1.0
132
0.0
 79
     0
146
0.0
348
2DB6
 60
     3
 61
     5
292
     1
282
     1
141
0.0
142
0.0
 63
   250
421
  3355443
  0
ENDTAB
  0
TABLE
  2
LTYPE
  5
2D8C
330
0
100
AcDbSymbolTable
 70
    20
  0
LTYPE
  5
2DE9
330
2D8C
100
AcDbSymbolTableRecord
100
AcDbLinetypeTableRecord
  2
ByBlock
 70
     0
  3

 72
    65
 73
     0
 40
0.0
  0
LTYPE
  5
2DEA
330
2D8C
100
AcDbSymbolTableRecord
100
AcDbLinetypeTableRecord
  2
ByLayer
 70
     0
  3

 72
    65
 73
     0
 40
0.0
  0
LTYPE
  5
2DEB
330
2D8C
100
AcDbSymbolTableRecord
100
AcDbLinetypeTableRecord
  2
CONTINUOUS
 70
     0
  3
実線
 72
    65
 73
     0
 40
0.0
  0
LTYPE
  5
2E00
330
2D8C
100
AcDbSymbolTableRecord
100
AcDbLinetypeTableRecord
  2
DASHDOT
 70
     0
  3
____ _ ____ _ ____ _ ____ _ ____ _ ____ _ ____
 72
    65
 73
     4
 40
5.5
 49
4.0
 74
     0
 49
-0.6
 74
     0
 49
0.3
 74
     0
 49
-0.6
 74
     0
  0
LTYPE
  5
2E01
330
2D8C
100
AcDbSymbolTableRecord
100
AcDbLinetypeTableRecord
  2
HIDDEN
 70
     0
  3
Hidden __ __ __ __ __ __ __ __ __ __ __ __ __ _
 72
    65
 73
     2
 40
0.375
 49
0.25
 74
     0
 49
-0.125
 74
     0
  0
LTYPE
  5
2E02
330
2D8C
100
AcDbSymbolTableRecord
100
AcDbLinetypeTableRecord
  2
PHANTOM2
 70
     0
  3
Phantom (.5x) ___ _ _ ___ _ _ ___ _ _ ___ _ _
 72
    65
 73
     6
 40
1.25
 49
0.625
 74
     0
 49
-0.125
 74
     0
 49
0.125
 74
     0
 49
-0.125
 74
     0
 49
0.125
 74
     0
 49
-0.125
 74
     0
  0
LTYPE
  5
2E03
330
2D8C
100
AcDbSymbolTableRecord
100
AcDbLinetypeTableRecord
  2
CENTER
 70
     0
  3
Center ____ _ ____ _ ____ _ ____ _ ____ _ ____
 72
    65
 73
     4
 40
2.0
 49
1.25
 74
     0
 49
-0.25
 74
     0
 49
0.25
 74
     0
 49
-0.25
 74
     0
  0
LTYPE
  5
2E04
330
2D8C
100
AcDbSymbolTableRecord
100
AcDbLinetypeTableRecord
  2
ASULTYPE
 70
     0
  3
実線
 72
    65
 73
     2
 40
3.0
 49
2.5
 74
     0
 49
0.5
 74
     0
  0
LTYPE
  5
2E05
330
2D8C
100
AcDbSymbolTableRecord
100
AcDbLinetypeTableRecord
  2
ASVLTYPE
 70
     0
  3
__ __ __ __ __ __ __ __ __ __ __ __ __ __ __ __ __ __ __ __ __
 72
    65
 73
     2
 40
0.75
 49
0.5
 74
     0
 49
-0.25
 74
     0
  0
LTYPE
  5
2E06
330
2D8C
100
AcDbSymbolTableRecord
100
AcDbLinetypeTableRecord
  2
AM_ISO02W050
 70
     0
  3
__ __ __ __ __ __ __ __ __ __ __ __ __ __ __
 72
    65
 73
     2
 40
7.5
 49
6.0
 74
     0
 49
-1.5
 74
     0
  0
LTYPE
  5
2E07
330
2D8C
100
AcDbSymbolTableRecord
100
AcDbLinetypeTableRecord
  2
AM_ISO08W050
 70
     0
  3
____ . ____ . ____ . ____ . ____ . ____ . ____
 72
    65
 73
     4
 40
18.0
 49
12.0
 74
     0
 49
-1.5
 74
     0
 49
3.0
 74
     0
 49
-1.5
 74
     0
  0
LTYPE
  5
2E08
330
2D8C
100
AcDbSymbolTableRecord
100
AcDbLinetypeTableRecord
  2
AM_ISO09W050
 70
     0
  3
_____ . . _____ . . _____ . . ____ .. ____
 72
    65
 73
     6
 40
22.5
 49
12.0
 74
     0
 49
-1.5
 74
     0
 49
3.0
 74
     0
 49
-1.5
 74
     0
 49
3.0
 74
     0
 49
-1.5
 74
     0
  0
LTYPE
  5
2E09
330
2D8C
100
AcDbSymbolTableRecord
100
AcDbLinetypeTableRecord
  2
AMCONSTR
 70
     0
  3
_______________________
 72
    65
 73
     2
 40
9999.0
 49
9999.0
 74
     0
 49
0.0
 74
     0
  0
LTYPE
  5
2E0A
330
2D8C
100
AcDbSymbolTableRecord
100
AcDbLinetypeTableRecord
  2
AM_ISO08W050X2
 70
     0
  3
__ . __ . __ . __ . __ . __
 72
    65
 73
     4
 40
9.0
 49
6.0
 74
     0
 49
-0.75
 74
     0
 49
1.5
 74
     0
 49
-0.75
 74
     0
  0
LTYPE
  5
2E0B
330
2D8C
100
AcDbSymbolTableRecord
100
AcDbLinetypeTableRecord
  2
AM_ISO02W050X2
 70
     0
  3
 _ _ _ _ _ _ _ _ _ _ _ _
 72
    65
 73
     2
 40
3.75
 49
3.0
 74
     0
 49
-0.75
 74
     0
  0
LTYPE
  5
2E0C
330
2D8C
100
AcDbSymbolTableRecord
100
AcDbLinetypeTableRecord
  2
AMZIGZAG
 70
     0
  3
/\/-/\/-/\/-/\/-/\/-/\/
 72
    65
 73
     2
 40
11.0001
 49
0.0001
 74
     0
 49
-11.0
 74
     0
  0
LTYPE
  5
2E0D
330
2D8C
100
AcDbSymbolTableRecord
100
AcDbLinetypeTableRecord
  2
CENTER2
 70
     0
  3
Center (.5x) ___ _ ___ _ ___ _ ___ _ ___ _ ___
 72
    65
 73
     4
 40
1.125
 49
0.75
 74
     0
 49
-0.125
 74
     0
 49
0.125
 74
     0
 49
-0.125
 74
     0
  0
LTYPE
  5
2E0E
330
2D8C
100
AcDbSymbolTableRecord
100
AcDbLinetypeTableRecord
  2
HIDDEN2
 70
     0
  3
Hidden (.5x) _ _ _ _ _ _ _ _ _ _ _ _ _ _ _ _ _
 72
    65
 73
     2
 40
0.1875
 49
0.125
 74
     0
 49
-0.0625
 74
     0
  0
LTYPE
  5
2E0F
330
2D8C
100
AcDbSymbolTableRecord
100
AcDbLinetypeTableRecord
  2
AMZIGZAG2
 70
     0
  3
/\/-/\/-/\/-/\/-/\/-/\/
 72
    65
 73
     2
 40
0.4401
 49
0.0001
 74
     0
 49
-0.4400000000000003
 74
     0
  0
LTYPE
  5
2E10
330
2D8C
100
AcDbSymbolTableRecord
100
AcDbLinetypeTableRecord
  2
ACANSTGB
 70
     0
  3
__ . . __ . .
 72
    65
 73
     6
 40
0.35433070866
 49
0.15748031496
 74
     0
 49
-0.03937007874
 74
     0
 49
0.03937007874
 74
     0
 49
-0.03937007874
 74
     0
 49
0.03937007874
 74
     0
 49
-0.03937007874
 74
     0
  0
LTYPE
  5
2E11
330
2D8C
100
AcDbSymbolTableRecord
100
AcDbLinetypeTableRecord
  2
ACANSTGL
 70
     0
  3
_ _ _ _ _
 72
    65
 73
     2
 40
0.11811023622
 49
0.07874015748
 74
     0
 49
-0.03937007874
 74
     0
  0
ENDTAB
  0
TABLE
  2
LAYER
  5
2D89
102
{ACAD_XDICTIONARY
360
30D2
102
}
330
0
100
AcDbSymbolTable
 70
    12
  0
LAYER
  5
2DE3
102
{ACAD_XDICTIONARY
360
2FB1
102
}
330
2D89
100
AcDbSymbolTableRecord
100
AcDbLayerTableRecord
  2
0
 70
     0
 62
     7
  6
CONTINUOUS
370
    -3
390
2D96
347
2DA8
  0
LAYER
  5
2E12
102
{ACAD_XDICTIONARY
360
2FB3
102
}
330
2D89
100
AcDbSymbolTableRecord
100
AcDbLayerTableRecord
  2
OUTLINE
 70
     0
 62
     3
  6
CONTINUOUS
370
    -3
390
2D96
347
2DA8
  0
LAYER
  5
2E13
102
{ACAD_XDICTIONARY
360
2FB5
102
}
330
2D89
100
AcDbSymbolTableRecord
100
AcDbLayerTableRecord
  2
SIZE
 70
     0
 62
    30
  6
CONTINUOUS
370
    -3
390
2D96
347
2DA8
  0
LAYER
  5
2E14
102
{ACAD_XDICTIONARY
360
2FB7
102
}
330
2D89
100
AcDbSymbolTableRecord
100
AcDbLayerTableRecord
  2
BASIS
 70
     0
 62
     6
  6
DASHDOT
370
    -3
390
2D96
347
2DA8
  0
LAYER
  5
2E15
102
{ACAD_XDICTIONARY
360
2FB9
102
}
330
2D89
100
AcDbSymbolTableRecord
100
AcDbLayerTableRecord
  2
DETAIL
 70
     0
 62
     5
  6
CONTINUOUS
370
    -3
390
2D96
347
2DA8
  0
LAYER
  5
2E16
102
{ACAD_XDICTIONARY
360
2FBB
102
}
330
2D89
100
AcDbSymbolTableRecord
100
AcDbLayerTableRecord
  2
ARRANGE
 70
     0
 62
     1
  6
CONTINUOUS
370
    -3
390
2D96
347
2DA8
  0
LAYER
  5
2E17
330
2D89
100
AcDbSymbolTableRecord
100
AcDbLayerTableRecord
  2
DEFPOINTS
 70
     0
 62
     7
  6
CONTINUOUS
290
     0
370
    -3
390
2D96
347
2DA8
  0
LAYER
  5
2E18
102
{ACAD_XDICTIONARY
360
2FBD
102
}
330
2D89
100
AcDbSymbolTableRecord
100
AcDbLayerTableRecord
  2
ETC
 70
     0
 62
    61
  6
CONTINUOUS
370
    -3
390
2D96
347
2DA8
  0
LAYER
  5
2E19
102
{ACAD_XDICTIONARY
360
2FBF
102
}
330
2D89
100
AcDbSymbolTableRecord
100
AcDbLayerTableRecord
  2
FIX
 70
     0
 62
    11
  6
CONTINUOUS
370
    -3
390
2D96
347
2DA8
  0
LAYER
  5
2E1A
102
{ACAD_XDICTIONARY
360
2FC1
102
}
330
2D89
100
AcDbSymbolTableRecord
100
AcDbLayerTableRecord
  2
NOTE
 70
     0
 62
     4
  6
CONTINUOUS
370
    -3
390
2D96
347
2DA8
  0
LAYER
  5
2E1B
102
{ACAD_XDICTIONARY
360
2FC3
102
}
330
2D89
100
AcDbSymbolTableRecord
100
AcDbLayerTableRecord
  2
SERVICESPACE
 70
     0
 62
     2
  6
DASHDOT
370
    -3
390
2D96
347
2DA8
  0
LAYER
  5
2E1C
102
{ACAD_XDICTIONARY
360
2FC5
102
}
330
2D89
100
AcDbSymbolTableRecord
100
AcDbLayerTableRecord
  2
SYMBOLLINE
 70
     0
 62
    15
  6
CONTINUOUS
370
    -3
390
2D96
347
2DA8
  0
ENDTAB
  0
TABLE
  2
STYLE
  5
2D8A
330
0
100
AcDbSymbolTable
 70
     5
  0
STYLE
  5
2DE4
330
2D8A
100
AcDbSymbolTableRecord
100
AcDbTextStyleTableRecord
  2
STANDARD
 70
     0
 40
64.0
 41
0.9
 50
0.0
 71
     0
 42
64.0
  3
SIMPLEX.shx
  4
BIGFONT.shx
  0
STYLE
  5
2DE8
330
2D8A
100
AcDbSymbolTableRecord
100
AcDbTextStyleTableRecord
  2
ANNOTATIVE
 70
     0
 40
0.0
 41
1.0
 50
0.0
 71
     0
 42
0.2
  3
txt
  4

1001
ACADANNOTATIVE
1000
AnnotativeData
1002
{
1070
     1
1070
     1
1002
}
  0
STYLE
  5
2E1D
330
2D8A
100
AcDbSymbolTableRecord
100
AcDbTextStyleTableRecord
  2

 70
     1
 40
0.0
 41
1.0
 50
0.0
 71
     0
 42
64.0
  3
genltshp.shx
  4

  0
STYLE
  5
2E1E
330
2D8A
100
AcDbSymbolTableRecord
100
AcDbTextStyleTableRecord
  2
ACANSTS
 70
     0
 40
1.0
 41
1.0
 50
0.0
 71
     0
 42
64.0
  3
romans.shx
  4
extfont.shx
  0
STYLE
  5
2E1F
330
2D8A
100
AcDbSymbolTableRecord
100
AcDbTextStyleTableRecord
  2
ACANSGDT
 70
     0
 40
0.0
 41
1.0
 50
0.0
 71
     0
 42
64.0
  3
amgdt.shx
  4

  0
ENDTAB
  0
TABLE
  2
VIEW
  5
2D8D
330
0
100
AcDbSymbolTable
 70
     1
  0
VIEW
  5
2E20
330
2D8D
100
AcDbSymbolTableRecord
100
AcDbViewTableRecord
  2
ALL
 70
     0
 40
4282.619807999997
 10
0.0
 20
41.30990399999999
 41
5940.0
 11
0.0
 21
0.0
 31
1.0
 12
0.0
 22
0.0
 32
0.0
 42
50.0
 43
0.0
 44
0.0
 50
0.0
 71
     0
281
     0
 72
     1
110
0.0
120
0.0
130
0.0
111
1.0
121
0.0
131
0.0
112
0.0
122
1.0
132
0.0
 79
     0
146
0.0
 73
     0
348
2DB6
  0
ENDTAB
  0
TABLE
  2
UCS
  5
2D8E
330
0
100
AcDbSymbolTable
 70
     0
  0
ENDTAB
  0
TABLE
  2
APPID
  5
2D90
330
0
100
AcDbSymbolTable
 70
    32
  0
APPID
  5
2DE5
330
2D90
100
AcDbSymbolTableRecord
100
AcDbRegAppTableRecord
  2
ACAD
 70
     0
  0
APPID
  5
2DEC
330
2D90
100
AcDbSymbolTableRecord
100
AcDbRegAppTableRecord
  2
ACADANNOTATIVE
 70
     0
  0
APPID
  5
2DF6
330
2D90
100
AcDbSymbolTableRecord
100
AcDbRegAppTableRecord
  2
ACAD_MLEADERVER
 70
     0
  0
APPID
  5
2E21
330
2D90
100
AcDbSymbolTableRecord
100
AcDbRegAppTableRecord
  2
GENIUS_GENDIM_13
 70
     0
  0
APPID
  5
2E22
330
2D90
100
AcDbSymbolTableRecord
100
AcDbRegAppTableRecord
  2
GENIUS_GENDTOL_13
 70
     0
  0
APPID
  5
2E23
330
2D90
100
AcDbSymbolTableRecord
100
AcDbRegAppTableRecord
  2
GENIUS_GE3DTOL_13
 70
     0
  0
APPID
  5
2E24
330
2D90
100
AcDbSymbolTableRecord
100
AcDbRegAppTableRecord
  2
MCAD_NO_VIS
 70
     0
  0
APPID
  5
2E25
330
2D90
100
AcDbSymbolTableRecord
100
AcDbRegAppTableRecord
  2
ACAD_TEMP_GRAPHIC
 70
     0
  0
APPID
  5
2E26
330
2D90
100
AcDbSymbolTableRecord
100
AcDbRegAppTableRecord
  2
AD_DRAW
 70
     0
  0
APPID
  5
2E27
330
2D90
100
AcDbSymbolTableRecord
100
AcDbRegAppTableRecord
  2
ACATTRIBSERVICES
 70
     0
  0
APPID
  5
2E28
330
2D90
100
AcDbSymbolTableRecord
100
AcDbRegAppTableRecord
  2
ASURF_PCURVE_APPNAME
 70
     0
  0
APPID
  5
2E29
330
2D90
100
AcDbSymbolTableRecord
100
AcDbRegAppTableRecord
  2
AMG_3D2D_5_0
 70
     0
  0
APPID
  5
2E2A
330
2D90
100
AcDbSymbolTableRecord
100
AcDbRegAppTableRecord
  2
DESIGNERASSEMBLIES
 70
     0
  0
APPID
  5
2E2B
330
2D90
100
AcDbSymbolTableRecord
100
AcDbRegAppTableRecord
  2
ACADM_DIM_EDIT
 70
     0
  0
APPID
  5
2E2C
330
2D90
100
AcDbSymbolTableRecord
100
AcDbRegAppTableRecord
  2
AMDT_DM_ADJ
 70
     0
  0
APPID
  5
2E2D
330
2D90
100
AcDbSymbolTableRecord
100
AcDbRegAppTableRecord
  2
ACAD_DSTYLE_DIMARC_LENGTH_
 70
     0
  0
APPID
  5
2E2E
330
2D90
100
AcDbSymbolTableRecord
100
AcDbRegAppTableRecord
  2
ACAD_DSTYLE_DIMJOGGED_JOGA
 70
     0
  0
APPID
  5
2E2F
330
2D90
100
AcDbSymbolTableRecord
100
AcDbRegAppTableRecord
  2
ACAD_PSEXT
 70
     0
  0
APPID
  5
2E30
330
2D90
100
AcDbSymbolTableRecord
100
AcDbRegAppTableRecord
  2
ACAD_EXEMPT_FROM_CAD_STANDARDS
 70
     0
  0
APPID
  5
2E31
330
2D90
100
AcDbSymbolTableRecord
100
AcDbRegAppTableRecord
  2
ACAD_DSTYLE_DIMJAG
 70
     0
  0
APPID
  5
2E32
330
2D90
100
AcDbSymbolTableRecord
100
AcDbRegAppTableRecord
  2
ACAD_DSTYLE_DIMTALN
 70
     0
  0
APPID
  5
2E33
330
2D90
100
AcDbSymbolTableRecord
100
AcDbRegAppTableRecord
  2
AMG_3D2D_5_00
 70
     0
  0
APPID
  5
2E34
330
2D90
100
AcDbSymbolTableRecord
100
AcDbRegAppTableRecord
  2
AMG_3D2D_5_01
 70
     0
  0
APPID
  5
2E35
330
2D90
100
AcDbSymbolTableRecord
100
AcDbRegAppTableRecord
  2
AMG_3D2D_5_02
 70
     0
  0
APPID
  5
2E36
330
2D90
100
AcDbSymbolTableRecord
100
AcDbRegAppTableRecord
  2
AMG_3D2D_5_03
 70
     0
  0
APPID
  5
2E37
330
2D90
100
AcDbSymbolTableRecord
100
AcDbRegAppTableRecord
  2
AMG_3D2D_5_04
 70
     0
  0
APPID
  5
2F51
330
2D90
100
AcDbSymbolTableRecord
100
AcDbRegAppTableRecord
  2
AMG_3D2D_5.0
 70
     0
  0
APPID
  5
2FEE
330
2D90
100
AcDbSymbolTableRecord
100
AcDbRegAppTableRecord
  2
ACAD_DSTYLE_DIMARC_LENGTH_SYMBOL
 70
     0
  0
APPID
  5
2FEF
330
2D90
100
AcDbSymbolTableRecord
100
AcDbRegAppTableRecord
  2
ACAD_DSTYLE_DIM_LINETYPE
 70
     0
  0
APPID
  5
2FF0
330
2D90
100
AcDbSymbolTableRecord
100
AcDbRegAppTableRecord
  2
ACAD_DSTYLE_DIM_EXT1_LINETYPE
 70
     0
  0
APPID
  5
2FF1
330
2D90
100
AcDbSymbolTableRecord
100
AcDbRegAppTableRecord
  2
ACAD_DSTYLE_DIM_EXT2_LINETYPE
 70
     0
  0
APPID
  5
30D1
330
2D90
100
AcDbSymbolTableRecord
100
AcDbRegAppTableRecord
  2
ACAD_DSTYLE_DIMJOGGED_JOGANGLE_SYMBOL
 70
     0
  0
ENDTAB
  0
TABLE
  2
DIMSTYLE
  5
2D91
330
0
100
AcDbSymbolTable
 70
    10
100
AcDbDimStyleTable
 71
     1
340
2E38
  0
DIMSTYLE
105
2DE6
330
2D91
100
AcDbSymbolTableRecord
100
AcDbDimStyleTableRecord
  2
STANDARD
 70
     0
 41
12.0
 42
20.0
 44
20.0
 77
     1
 78
     8
140
64.0
141
0.0
147
10.0
275
     1
279
     2
284
     7
285
     7
286
     7
340
2DE4
  0
DIMSTYLE
105
2DE7
330
2D91
100
AcDbSymbolTableRecord
100
AcDbDimStyleTableRecord
  2
ANNOTATIVE
 70
     0
275
     1
279
     2
284
     7
285
     7
286
     7
340
2DE4
1001
ACADANNOTATIVE
1000
AnnotativeData
1002
{
1070
     1
1070
     1
1002
}
  0
DIMSTYLE
105
2E38
330
2D91
100
AcDbSymbolTableRecord
100
AcDbDimStyleTableRecord
  2
AM_ANSI
 70
     0
  4
mm
 41
0.12
 42
0.05
 43
0.5
 44
0.1
 47
0.1
 48
0.1
 78
     7
 79
     2
 90
     1
140
0.12
141
0.0
146
0.71
147
0.06
176
   256
177
   256
178
     2
274
     4
284
     7
340
2DE4
345
2DE9
346
2DE9
347
2DE9
371
    -1
372
    -1
  0
DIMSTYLE
105
2E39
330
2D91
100
AcDbSymbolTableRecord
100
AcDbDimStyleTableRecord
  2
AM_ANSI$3
 70
     0
  4
mm
 41
0.12
 42
0.05
 43
0.5
 44
0.1
 47
0.1
 48
0.1
 78
     7
 79
     2
 90
     1
140
0.12
141
0.0
146
0.71
147
0.06
176
   256
177
   256
178
     2
274
     4
284
     7
288
     1
289
     0
340
2DE4
345
2DE9
346
2DE9
347
2DE9
371
    -1
372
    -1
  0
DIMSTYLE
105
2E3A
330
2D91
100
AcDbSymbolTableRecord
100
AcDbDimStyleTableRecord
  2
AM_ANSI$4
 70
     0
  4
mm
 41
0.12
 42
0.05
 43
0.5
 44
0.1
 47
0.1
 48
0.1
 78
     7
 79
     2
 90
     1
140
0.12
141
0.0
146
0.71
147
0.06
176
   256
177
   256
178
     2
274
     4
284
     7
340
2DE4
345
2DE9
346
2DE9
347
2DE9
371
    -1
372
    -1
  0
DIMSTYLE
105
2E3B
330
2D91
100
AcDbSymbolTableRecord
100
AcDbDimStyleTableRecord
  2
AM_ANSI$7
 70
     0
  4
mm
 41
0.12
 42
0.05
 43
0.5
 44
0.1
 47
0.1
 48
0.1
 78
     7
 79
     2
 90
     1
140
0.12
141
0.0
146
0.71
147
0.06
176
   256
177
   256
178
     2
274
     4
284
     7
340
2DE4
345
2DE9
346
2DE9
347
2DE9
371
    -1
372
    -1
  0
DIMSTYLE
105
2E3C
330
2D91
100
AcDbSymbolTableRecord
100
AcDbDimStyleTableRecord
  2
AM_ANSI$SF
 70
     0
  4
mm
 41
0.12
 42
0.05
 43
0.5
 44
0.1
 47
0.1
 48
0.1
 75
     1
 76
     1
 78
     7
 79
     2
 90
     1
140
0.12
141
0.0
146
0.71
147
0.06
176
   256
177
   256
178
     2
274
     4
284
     7
340
2DE4
345
2DE9
346
2DE9
347
2DE9
371
    -1
372
    -1
  0
DIMSTYLE
105
2E3D
330
2D91
100
AcDbSymbolTableRecord
100
AcDbDimStyleTableRecord
  2
AM_ANSI$SH
 70
     0
  4
mm
 41
0.12
 42
0.05
 43
0.5
 44
0.1
 47
0.1
 48
0.1
 75
     1
 76
     1
 78
     7
 79
     2
 90
     1
140
0.12
141
0.0
146
0.71
147
0.06
173
     1
176
   256
177
   256
178
     2
274
     4
284
     7
340
2DE4
343
2E5D
345
2DE9
346
2DE9
347
2DE9
371
    -1
372
    -1
  0
DIMSTYLE
105
2E3E
330
2D91
100
AcDbSymbolTableRecord
100
AcDbDimStyleTableRecord
  2
STANDARD1
 70
     0
 40
6.0
 41
2.5
 42
0.625
 43
6.0
 44
1.25
 47
1.0
 48
0.5
 77
     1
 78
     8
140
2.5
141
0.0
146
0.6
147
1.0
173
     1
275
     1
279
     2
284
     7
285
     7
286
     7
340
2DE4
  0
DIMSTYLE
105
2E3F
330
2D91
100
AcDbSymbolTableRecord
100
AcDbDimStyleTableRecord
  2
STANDARD$0
 70
     0
 41
12.0
 42
20.0
 44
20.0
 73
     0
 74
     0
 77
     1
 78
     8
140
64.0
141
0.0
147
10.0
275
     1
279
     2
284
     7
285
     7
286
     7
340
2DE4
  0
ENDTAB
  0
TABLE
  2
BLOCK_RECORD
  5
2D88
330
0
100
AcDbSymbolTable
 70
    71
  0
BLOCK_RECORD
  5
2DFB
102
{ACAD_XDICTIONARY
360
2FC7
102
}
330
2D88
100
AcDbSymbolTableRecord
100
AcDbBlockTableRecord
  2
*Model_Space
340
2DFE
 70
     0
280
     1
281
     0
  0
BLOCK_RECORD
  5
2DF7
330
2D88
100
AcDbSymbolTableRecord
100
AcDbBlockTableRecord
  2
*Paper_Space
340
2DFA
 70
     0
280
     1
281
     0
  0
BLOCK_RECORD
  5
2E47
330
2D88
100
AcDbSymbolTableRecord
100
AcDbBlockTableRecord
  2
$MODEL_SPACE
340
0
 70
     0
280
     1
281
     0
  0
BLOCK_RECORD
  5
2E49
330
2D88
100
AcDbSymbolTableRecord
100
AcDbBlockTableRecord
  2
$PAPER_SPACE
340
0
 70
     0
280
     1
281
     0
  0
BLOCK_RECORD
  5
2E4B
330
2D88
100
AcDbSymbolTableRecord
100
AcDbBlockTableRecord
  2
_ORIGIN
340
0
 70
     0
280
     1
281
     0
  0
BLOCK_RECORD
  5
2E4D
330
2D88
100
AcDbSymbolTableRecord
100
AcDbBlockTableRecord
  2
_DOTBLANK
340
0
102
{BLKREFS
331
1299
331
129A
331
11AA
331
11AB
331
E80
331
E81
331
1123
331
1124
331
11C2
331
11C3
331
11EC
331
11ED
331
11F9
331
11FA
331
1287
331
1288
331
1417
331
1418
331
1423
331
1424
331
142F
331
1430
331
143B
331
143C
331
166E
331
166F
331
1677
331
1678
331
1680
331
1681
331
1689
331
168A
331
1696
331
1697
331
16A3
331
16A4
331
16AF
331
16B0
331
16BB
331
16BC
331
16C7
331
16C8
331
16D3
331
16D4
331
1D86
331
1D87
331
1D8F
331
1D90
331
1D98
331
1D99
331
1DA1
331
1DA2
331
1DAB
331
1DAC
331
1DB5
331
1DB6
331
3120
331
3121
331
3126
331
3127
331
312C
331
312D
331
3132
331
3133
331
3154
331
3155
102
}
 70
     0
280
     1
281
     0
  0
BLOCK_RECORD
  5
2E4F
330
2D88
100
AcDbSymbolTableRecord
100
AcDbBlockTableRecord
  2
_OPEN30
340
0
102
{BLKREFS
331
2088
331
25A0
331
3142
102
}
 70
     0
280
     1
281
     0
  0
BLOCK_RECORD
  5
2E51
330
2D88
100
AcDbSymbolTableRecord
100
AcDbBlockTableRecord
  2
*D5
340
0
 70
     0
280
     1
281
     0
  0
BLOCK_RECORD
  5
2E53
330
2D88
100
AcDbSymbolTableRecord
100
AcDbBlockTableRecord
  2
*U6
340
0
102
{BLKREFS
331
129B
102
}
 70
     0
280
     1
281
     0
  0
BLOCK_RECORD
  5
2E55
330
2D88
100
AcDbSymbolTableRecord
100
AcDbBlockTableRecord
  2
*D7
340
0
 70
     0
280
     1
281
     0
  0
BLOCK_RECORD
  5
2E57
330
2D88
100
AcDbSymbolTableRecord
100
AcDbBlockTableRecord
  2
*U8
340
0
102
{BLKREFS
331
11AC
102
}
 70
     0
280
     1
281
     0
  0
BLOCK_RECORD
  5
2E59
330
2D88
100
AcDbSymbolTableRecord
100
AcDbBlockTableRecord
  2
*D9
340
0
 70
     0
280
     1
281
     0
  0
BLOCK_RECORD
  5
2E5B
330
2D88
100
AcDbSymbolTableRecord
100
AcDbBlockTableRecord
  2
*U10
340
0
102
{BLKREFS
331
E82
102
}
 70
     0
280
     1
281
     0
  0
BLOCK_RECORD
  5
2E5D
330
2D88
100
AcDbSymbolTableRecord
100
AcDbBlockTableRecord
  2
GENAXEH
340
0
 70
     0
280
     1
281
     0
  0
BLOCK_RECORD
  5
2E5F
330
2D88
100
AcDbSymbolTableRecord
100
AcDbBlockTableRecord
  2
*D12
340
0
 70
     0
280
     1
281
     0
  0
BLOCK_RECORD
  5
2E61
330
2D88
100
AcDbSymbolTableRecord
100
AcDbBlockTableRecord
  2
*U13
340
0
102
{BLKREFS
331
1125
102
}
 70
     0
280
     1
281
     0
  0
BLOCK_RECORD
  5
2E63
330
2D88
100
AcDbSymbolTableRecord
100
AcDbBlockTableRecord
  2
*D14
340
0
 70
     0
280
     1
281
     0
  0
BLOCK_RECORD
  5
2E65
330
2D88
100
AcDbSymbolTableRecord
100
AcDbBlockTableRecord
  2
*U15
340
0
102
{BLKREFS
331
11C4
102
}
 70
     0
280
     1
281
     0
  0
BLOCK_RECORD
  5
2E67
330
2D88
100
AcDbSymbolTableRecord
100
AcDbBlockTableRecord
  2
*D16
340
0
 70
     0
280
     1
281
     0
  0
BLOCK_RECORD
  5
2E69
330
2D88
100
AcDbSymbolTableRecord
100
AcDbBlockTableRecord
  2
*U17
340
0
102
{BLKREFS
331
11EE
102
}
 70
     0
280
     1
281
     0
  0
BLOCK_RECORD
  5
2E6B
330
2D88
100
AcDbSymbolTableRecord
100
AcDbBlockTableRecord
  2
*D18
340
0
 70
     0
280
     1
281
     0
  0
BLOCK_RECORD
  5
2E6D
330
2D88
100
AcDbSymbolTableRecord
100
AcDbBlockTableRecord
  2
*U19
340
0
102
{BLKREFS
331
11FB
102
}
 70
     0
280
     1
281
     0
  0
BLOCK_RECORD
  5
2E6F
330
2D88
100
AcDbSymbolTableRecord
100
AcDbBlockTableRecord
  2
*D20
340
0
 70
     0
280
     1
281
     0
  0
BLOCK_RECORD
  5
2E71
330
2D88
100
AcDbSymbolTableRecord
100
AcDbBlockTableRecord
  2
*U21
340
0
102
{BLKREFS
331
1289
102
}
 70
     0
280
     1
281
     0
  0
BLOCK_RECORD
  5
2E73
330
2D88
100
AcDbSymbolTableRecord
100
AcDbBlockTableRecord
  2
*D22
340
0
 70
     0
280
     1
281
     0
  0
BLOCK_RECORD
  5
2E75
330
2D88
100
AcDbSymbolTableRecord
100
AcDbBlockTableRecord
  2
*U23
340
0
102
{BLKREFS
331
1419
102
}
 70
     0
280
     1
281
     0
  0
BLOCK_RECORD
  5
2E77
330
2D88
100
AcDbSymbolTableRecord
100
AcDbBlockTableRecord
  2
*D24
340
0
 70
     0
280
     1
281
     0
  0
BLOCK_RECORD
  5
2E79
330
2D88
100
AcDbSymbolTableRecord
100
AcDbBlockTableRecord
  2
*U25
340
0
102
{BLKREFS
331
1425
102
}
 70
     0
280
     1
281
     0
  0
BLOCK_RECORD
  5
2E7B
330
2D88
100
AcDbSymbolTableRecord
100
AcDbBlockTableRecord
  2
*D26
340
0
 70
     0
280
     1
281
     0
  0
BLOCK_RECORD
  5
2E7D
330
2D88
100
AcDbSymbolTableRecord
100
AcDbBlockTableRecord
  2
*U27
340
0
102
{BLKREFS
331
1431
102
}
 70
     0
280
     1
281
     0
  0
BLOCK_RECORD
  5
2E7F
330
2D88
100
AcDbSymbolTableRecord
100
AcDbBlockTableRecord
  2
*D28
340
0
 70
     0
280
     1
281
     0
  0
BLOCK_RECORD
  5
2E81
330
2D88
100
AcDbSymbolTableRecord
100
AcDbBlockTableRecord
  2
*U29
340
0
102
{BLKREFS
331
143D
102
}
 70
     0
280
     1
281
     0
  0
BLOCK_RECORD
  5
2E83
330
2D88
100
AcDbSymbolTableRecord
100
AcDbBlockTableRecord
  2
*D30
340
0
 70
     0
280
     1
281
     0
  0
BLOCK_RECORD
  5
2E85
330
2D88
100
AcDbSymbolTableRecord
100
AcDbBlockTableRecord
  2
*U31
340
0
102
{BLKREFS
331
1670
102
}
 70
     0
280
     1
281
     0
  0
BLOCK_RECORD
  5
2E87
330
2D88
100
AcDbSymbolTableRecord
100
AcDbBlockTableRecord
  2
*D32
340
0
 70
     0
280
     1
281
     0
  0
BLOCK_RECORD
  5
2E89
330
2D88
100
AcDbSymbolTableRecord
100
AcDbBlockTableRecord
  2
*U33
340
0
102
{BLKREFS
331
1679
102
}
 70
     0
280
     1
281
     0
  0
BLOCK_RECORD
  5
2E8B
330
2D88
100
AcDbSymbolTableRecord
100
AcDbBlockTableRecord
  2
*D34
340
0
 70
     0
280
     1
281
     0
  0
BLOCK_RECORD
  5
2E8D
330
2D88
100
AcDbSymbolTableRecord
100
AcDbBlockTableRecord
  2
*U35
340
0
102
{BLKREFS
331
1682
102
}
 70
     0
280
     1
281
     0
  0
BLOCK_RECORD
  5
2E8F
330
2D88
100
AcDbSymbolTableRecord
100
AcDbBlockTableRecord
  2
*D36
340
0
 70
     0
280
     1
281
     0
  0
BLOCK_RECORD
  5
2E91
330
2D88
100
AcDbSymbolTableRecord
100
AcDbBlockTableRecord
  2
*U37
340
0
102
{BLKREFS
331
168B
102
}
 70
     0
280
     1
281
     0
  0
BLOCK_RECORD
  5
2E93
330
2D88
100
AcDbSymbolTableRecord
100
AcDbBlockTableRecord
  2
*U38
340
0
 70
     0
280
     1
281
     0
  0
BLOCK_RECORD
  5
2E95
330
2D88
100
AcDbSymbolTableRecord
100
AcDbBlockTableRecord
  2
*D39
340
0
 70
     0
280
     1
281
     0
  0
BLOCK_RECORD
  5
2E97
330
2D88
100
AcDbSymbolTableRecord
100
AcDbBlockTableRecord
  2
*U40
340
0
102
{BLKREFS
331
1698
102
}
 70
     0
280
     1
281
     0
  0
BLOCK_RECORD
  5
2E99
330
2D88
100
AcDbSymbolTableRecord
100
AcDbBlockTableRecord
  2
*D41
340
0
 70
     0
280
     1
281
     0
  0
BLOCK_RECORD
  5
2E9B
330
2D88
100
AcDbSymbolTableRecord
100
AcDbBlockTableRecord
  2
*U42
340
0
102
{BLKREFS
331
16A5
102
}
 70
     0
280
     1
281
     0
  0
BLOCK_RECORD
  5
2E9D
330
2D88
100
AcDbSymbolTableRecord
100
AcDbBlockTableRecord
  2
*D43
340
0
 70
     0
280
     1
281
     0
  0
BLOCK_RECORD
  5
2E9F
330
2D88
100
AcDbSymbolTableRecord
100
AcDbBlockTableRecord
  2
*U44
340
0
102
{BLKREFS
331
16B1
102
}
 70
     0
280
     1
281
     0
  0
BLOCK_RECORD
  5
2EA1
330
2D88
100
AcDbSymbolTableRecord
100
AcDbBlockTableRecord
  2
*D45
340
0
 70
     0
280
     1
281
     0
  0
BLOCK_RECORD
  5
2EA3
330
2D88
100
AcDbSymbolTableRecord
100
AcDbBlockTableRecord
  2
*U46
340
0
102
{BLKREFS
331
16BD
102
}
 70
     0
280
     1
281
     0
  0
BLOCK_RECORD
  5
2EA5
330
2D88
100
AcDbSymbolTableRecord
100
AcDbBlockTableRecord
  2
*D47
340
0
 70
     0
280
     1
281
     0
  0
BLOCK_RECORD
  5
2EA7
330
2D88
100
AcDbSymbolTableRecord
100
AcDbBlockTableRecord
  2
*U48
340
0
102
{BLKREFS
331
16C9
102
}
 70
     0
280
     1
281
     0
  0
BLOCK_RECORD
  5
2EA9
330
2D88
100
AcDbSymbolTableRecord
100
AcDbBlockTableRecord
  2
*D49
340
0
 70
     0
280
     1
281
     0
  0
BLOCK_RECORD
  5
2EAB
330
2D88
100
AcDbSymbolTableRecord
100
AcDbBlockTableRecord
  2
*U50
340
0
102
{BLKREFS
331
16D5
102
}
 70
     0
280
     1
281
     0
  0
BLOCK_RECORD
  5
2EAD
330
2D88
100
AcDbSymbolTableRecord
100
AcDbBlockTableRecord
  2
*D51
340
0
 70
     0
280
     1
281
     0
  0
BLOCK_RECORD
  5
2EAF
330
2D88
100
AcDbSymbolTableRecord
100
AcDbBlockTableRecord
  2
*U52
340
0
102
{BLKREFS
331
1D88
102
}
 70
     0
280
     1
281
     0
  0
BLOCK_RECORD
  5
2EB1
330
2D88
100
AcDbSymbolTableRecord
100
AcDbBlockTableRecord
  2
*D53
340
0
 70
     0
280
     1
281
     0
  0
BLOCK_RECORD
  5
2EB3
330
2D88
100
AcDbSymbolTableRecord
100
AcDbBlockTableRecord
  2
*U54
340
0
102
{BLKREFS
331
1D91
102
}
 70
     0
280
     1
281
     0
  0
BLOCK_RECORD
  5
2EB5
330
2D88
100
AcDbSymbolTableRecord
100
AcDbBlockTableRecord
  2
*D55
340
0
 70
     0
280
     1
281
     0
  0
BLOCK_RECORD
  5
2EB7
330
2D88
100
AcDbSymbolTableRecord
100
AcDbBlockTableRecord
  2
*U56
340
0
102
{BLKREFS
331
1D9A
102
}
 70
     0
280
     1
281
     0
  0
BLOCK_RECORD
  5
2EB9
330
2D88
100
AcDbSymbolTableRecord
100
AcDbBlockTableRecord
  2
*D57
340
0
 70
     0
280
     1
281
     0
  0
BLOCK_RECORD
  5
2EBB
330
2D88
100
AcDbSymbolTableRecord
100
AcDbBlockTableRecord
  2
*U58
340
0
102
{BLKREFS
331
1DA3
102
}
 70
     0
280
     1
281
     0
  0
BLOCK_RECORD
  5
2EBD
330
2D88
100
AcDbSymbolTableRecord
100
AcDbBlockTableRecord
  2
*D59
340
0
 70
     0
280
     1
281
     0
  0
BLOCK_RECORD
  5
2EBF
330
2D88
100
AcDbSymbolTableRecord
100
AcDbBlockTableRecord
  2
*U60
340
0
102
{BLKREFS
331
1DAD
102
}
 70
     0
280
     1
281
     0
  0
BLOCK_RECORD
  5
2EC1
330
2D88
100
AcDbSymbolTableRecord
100
AcDbBlockTableRecord
  2
*D61
340
0
 70
     0
280
     1
281
     0
  0
BLOCK_RECORD
  5
2EC3
330
2D88
100
AcDbSymbolTableRecord
100
AcDbBlockTableRecord
  2
*U62
340
0
102
{BLKREFS
331
1DB7
102
}
 70
     0
280
     1
281
     0
  0
BLOCK_RECORD
  5
2EC5
330
2D88
100
AcDbSymbolTableRecord
100
AcDbBlockTableRecord
  2
*U63
340
0
 70
     0
280
     1
281
     0
  0
BLOCK_RECORD
  5
2EC7
330
2D88
100
AcDbSymbolTableRecord
100
AcDbBlockTableRecord
  2
*U64
340
0
 70
     0
280
     1
281
     0
  0
BLOCK_RECORD
  5
2EC9
330
2D88
100
AcDbSymbolTableRecord
100
AcDbBlockTableRecord
  2
*U65
340
0
 70
     0
280
     1
281
     0
  0
BLOCK_RECORD
  5
2ECB
330
2D88
100
AcDbSymbolTableRecord
100
AcDbBlockTableRecord
  2
*U66
340
0
 70
     0
280
     1
281
     0
  0
BLOCK_RECORD
  5
2ECD
330
2D88
100
AcDbSymbolTableRecord
100
AcDbBlockTableRecord
  2
*U67
340
0
 70
     0
280
     1
281
     0
  0
BLOCK_RECORD
  5
30A1
330
2D88
100
AcDbSymbolTableRecord
100
AcDbBlockTableRecord
  2
*U68
340
0
 70
     0
280
     1
281
     0
  0
BLOCK_RECORD
  5
320C
330
2D88
100
AcDbSymbolTableRecord
100
AcDbBlockTableRecord
  2
*U69
340
0
 70
     0
280
     1
281
     0
  0
BLOCK_RECORD
  5
32EC
330
2D88
100
AcDbSymbolTableRecord
100
AcDbBlockTableRecord
  2
*U70
340
0
 70
     0
280
     1
281
     0
  0
ENDTAB
  0
ENDSEC
  0
SECTION
  2
BLOCKS
  0
BLOCK
  5
2DFC
330
2DFB
100
AcDbEntity
  8
0
100
AcDbBlockBegin
  2
*Model_Space
 70
     0
 10
0.0
 20
0.0
 30
0.0
  3
*Model_Space
  1

  0
ENDBLK
  5
2DFD
330
2DFB
100
AcDbEntity
  8
0
100
AcDbBlockEnd
  0
BLOCK
  5
2DF8
330
2DF7
100
AcDbEntity
 67
     1
  8
0
100
AcDbBlockBegin
  2
*Paper_Space
 70
     0
 10
0.0
 20
0.0
 30
0.0
  3
*Paper_Space
  1

  0
ENDBLK
  5
2DF9
330
2DF7
100
AcDbEntity
 67
     1
  8
0
100
AcDbBlockEnd
  0
BLOCK
  5
2E48
330
2E47
100
AcDbEntity
  8
0
100
AcDbBlockBegin
  2
$MODEL_SPACE
 70
     0
 10
0.0
 20
0.0
 30
0.0
  3
$MODEL_SPACE
  1

  0
ENDBLK
  5
2B99
330
2E47
100
AcDbEntity
  8
0
100
AcDbBlockEnd
  0
BLOCK
  5
2E4A
330
2E49
100
AcDbEntity
  8
0
100
AcDbBlockBegin
  2
$PAPER_SPACE
 70
     0
 10
0.0
 20
0.0
 30
0.0
  3
$PAPER_SPACE
  1

  0
ENDBLK
  5
2B95
330
2E49
100
AcDbEntity
  8
0
100
AcDbBlockEnd
  0
BLOCK
  5
2E4C
330
2E4B
100
AcDbEntity
  8
0
100
AcDbBlockBegin
  2
_ORIGIN
 70
     0
 10
0.0
 20
0.0
 30
0.0
  3
_ORIGIN
  1

  0
CIRCLE
  5
880
330
2E4B
100
AcDbEntity
  8
0
  6
Continuous
 62
     7
100
AcDbCircle
 10
0.0
 20
0.0
 30
0.0
 40
0.5
  0
LINE
  5
881
330
2E4B
100
AcDbEntity
  8
0
  6
Continuous
 62
     7
100
AcDbLine
 10
0.0
 20
0.0
 30
0.0
 11
-1.0
 21
0.0
 31
0.0
  0
ENDBLK
  5
882
330
2E4B
100
AcDbEntity
  8
0
100
AcDbBlockEnd
  0
BLOCK
  5
2E4E
330
2E4D
100
AcDbEntity
  8
0
 62
     1
100
AcDbBlockBegin
  2
_DOTBLANK
 70
     0
 10
0.0
 20
0.0
 30
0.0
  3
_DOTBLANK
  1

  0
CIRCLE
  5
AB3
330
2E4D
100
AcDbEntity
  8
0
  6
ByBlock
 62
     0
100
AcDbCircle
 10
0.0
 20
0.0
 30
0.0
 40
0.5
  0
LINE
  5
AB4
330
2E4D
100
AcDbEntity
  8
0
  6
ByBlock
 62
     0
100
AcDbLine
 10
-0.5
 20
0.0
 30
0.0
 11
-1.0
 21
0.0
 31
0.0
  0
ENDBLK
  5
AB6
330
2E4D
100
AcDbEntity
  8
0
 62
     1
100
AcDbBlockEnd
  0
BLOCK
  5
2E50
330
2E4F
100
AcDbEntity
  8
0
 62
     1
100
AcDbBlockBegin
  2
_OPEN30
 70
     0
 10
0.0
 20
0.0
 30
0.0
  3
_OPEN30
  1

  0
LINE
  5
AB8
330
2E4F
100
AcDbEntity
  8
0
  6
ByBlock
 62
     0
100
AcDbLine
 10
-1.0
 20
0.26794919
 30
0.0
 11
0.0
 21
0.0
 31
0.0
  0
LINE
  5
AB9
330
2E4F
100
AcDbEntity
  8
0
  6
ByBlock
 62
     0
100
AcDbLine
 10
0.0
 20
0.0
 30
0.0
 11
-1.0
 21
-0.26794919
 31
0.0
  0
LINE
  5
ABA
330
2E4F
100
AcDbEntity
  8
0
  6
ByBlock
 62
     0
100
AcDbLine
 10
0.0
 20
0.0
 30
0.0
 11
-1.0
 21
0.0
 31
0.0
  0
ENDBLK
  5
ABC
330
2E4F
100
AcDbEntity
  8
0
 62
     1
100
AcDbBlockEnd
  0
BLOCK
  5
2E52
330
2E51
100
AcDbEntity
  8
0
100
AcDbBlockBegin
  2
*D5
 70
     1
 10
0.0
 20
0.0
 30
0.0
  3
*D5
  1

  0
LINE
  5
1296
330
2E51
100
AcDbEntity
  8
SIZE
 62
     0
100
AcDbLine
 10
-134.5
 20
-320.0
 30
0.0
 11
-134.5
 21
-468.0173952306001
 31
0.0
  0
LINE
  5
1297
330
2E51
100
AcDbEntity
  8
SIZE
 62
     0
100
AcDbLine
 10
134.5
 20
-320.0
 30
0.0
 11
134.5
 21
-468.0173952306001
 31
0.0
  0
LINE
  5
1298
330
2E51
100
AcDbEntity
  8
SIZE
 62
     0
100
AcDbLine
 10
-122.5
 20
-448.0173952306
 30
0.0
 11
122.5
 21
-448.0173952306
 31
0.0
  0
INSERT
  5
1299
330
2E51
100
AcDbEntity
  8
SIZE
 62
     0
100
AcDbBlockReference
  2
_DOTBLANK
 10
-134.5
 20
-448.0173952306
 30
0.0
 41
12.0
 42
12.0
 43
12.0
 50
180.0
  0
INSERT
  5
129A
330
2E51
100
AcDbEntity
  8
SIZE
 62
     0
100
AcDbBlockReference
  2
_DOTBLANK
 10
134.5
 20
-448.0173952306
 30
0.0
 41
12.0
 42
12.0
 43
12.0
  0
INSERT
  5
129B
330
2E51
100
AcDbEntity
  8
0
100
AcDbBlockReference
  2
*U6
 10
0.0
 20
0.0
 30
0.0
  0
POINT
  5
129C
330
2E51
100
AcDbEntity
  8
DEFPOINTS
 62
     0
100
AcDbPoint
 10
-134.5
 20
-300.0
 30
0.0
  0
POINT
  5
129D
330
2E51
100
AcDbEntity
  8
DEFPOINTS
 62
     0
100
AcDbPoint
 10
134.5
 20
-300.0
 30
0.0
  0
POINT
  5
129E
330
2E51
100
AcDbEntity
  8
DEFPOINTS
 62
     0
100
AcDbPoint
 10
134.5
 20
-448.0173952306
 30
0.0
  0
ENDBLK
  5
D72
330
2E51
100
AcDbEntity
  8
0
100
AcDbBlockEnd
  0
BLOCK
  5
2E54
330
2E53
100
AcDbEntity
  8
0
100
AcDbBlockBegin
  2
*U6
 70
     1
 10
0.0
 20
0.0
 30
0.0
  3
*U6
  1

  0
TEXT
  5
1EF5
330
2E53
100
AcDbEntity
  8
SIZE
 62
     0
100
AcDbText
 10
-72.68571428571426
 20
-438.0173952305999
 30
0.0
 40
64.0
  1
269
 41
0.9
100
AcDbText
  0
ENDBLK
  5
1EF7
330
2E53
100
AcDbEntity
  8
0
100
AcDbBlockEnd
  0
BLOCK
  5
2E56
330
2E55
100
AcDbEntity
  8
0
100
AcDbBlockBegin
  2
*D7
 70
     1
 10
0.0
 20
0.0
 30
0.0
  3
*D7
  1

  0
LINE
  5
11A7
330
2E55
100
AcDbEntity
  8
SIZE
  6
Continuous
 62
     0
100
AcDbLine
 10
143.5
 20
-300.0
 30
0.0
 11
304.6432844803791
 21
-300.0
 31
0.0
  0
LINE
  5
11A8
330
2E55
100
AcDbEntity
  8
SIZE
  6
Continuous
 62
     0
100
AcDbLine
 10
177.5
 20
-0.0000000000000057
 30
0.0
 11
304.6432844803792
 21
-0.0000000000000417
 31
0.0
  0
LINE
  5
11A9
330
2E55
100
AcDbEntity
  8
SIZE
  6
Continuous
 62
     0
100
AcDbLine
 10
284.6432844803791
 20
-288.0000000000001
 30
0.0
 11
284.6432844803792
 21
-12.00000000000003
 31
0.0
  0
INSERT
  5
11AA
330
2E55
100
AcDbEntity
  8
SIZE
  6
Continuous
 62
     0
100
AcDbBlockReference
  2
_DOTBLANK
 10
284.6432844803791
 20
-300.0
 30
0.0
 41
12.0
 42
12.0
 43
12.0
 50
270.0
  0
INSERT
  5
11AB
330
2E55
100
AcDbEntity
  8
SIZE
  6
Continuous
 62
     0
100
AcDbBlockReference
  2
_DOTBLANK
 10
284.6432844803792
 20
-0.000000000000036
 30
0.0
 41
12.0
 42
12.0
 43
12.0
 50
90.0
  0
INSERT
  5
11AC
330
2E55
100
AcDbEntity
  8
0
100
AcDbBlockReference
  2
*U8
 10
0.0
 20
0.0
 30
0.0
  0
POINT
  5
11AD
330
2E55
100
AcDbEntity
  8
DEFPOINTS
  6
Continuous
 62
     0
100
AcDbPoint
 10
123.5
 20
-300.0
 30
0.0
  0
POINT
  5
11AE
330
2E55
100
AcDbEntity
  8
DEFPOINTS
  6
Continuous
 62
     0
100
AcDbPoint
 10
157.5
 20
0.0
 30
0.0
  0
POINT
  5
11AF
330
2E55
100
AcDbEntity
  8
DEFPOINTS
  6
Continuous
 62
     0
100
AcDbPoint
 10
284.6432844803792
 20
-0.000000000000036
 30
0.0
  0
ENDBLK
  5
E11
330
2E55
100
AcDbEntity
  8
0
100
AcDbBlockEnd
  0
BLOCK
  5
2E58
330
2E57
100
AcDbEntity
  8
0
100
AcDbBlockBegin
  2
*U8
 70
     1
 10
0.0
 20
0.0
 30
0.0
  3
*U8
  1

  0
TEXT
  5
1EE1
330
2E57
100
AcDbEntity
  8
SIZE
 62
     0
100
AcDbText
 10
274.6432844803792
 20
-224.0571428571429
 30
0.0
 40
64.0
  1
300
 50
90.0
 41
0.9
100
AcDbText
  0
ENDBLK
  5
1EE3
330
2E57
100
AcDbEntity
  8
0
100
AcDbBlockEnd
  0
BLOCK
  5
2E5A
330
2E59
100
AcDbEntity
  8
0
100
AcDbBlockBegin
  2
*D9
 70
     1
 10
0.0
 20
0.0
 30
0.0
  3
*D9
  1

  0
LINE
  5
E7D
330
2E59
100
AcDbEntity
  8
SIZE
 62
     0
100
AcDbLine
 10
-139.9999999999998
 20
32.46448280219375
 30
0.0
 11
-139.9999999999998
 21
136.4516878685508
 31
0.0
  0
LINE
  5
E7E
330
2E59
100
AcDbEntity
  8
SIZE
 62
     0
100
AcDbLine
 10
140.0
 20
32.46448280219375
 30
0.0
 11
140.0
 21
136.4516878685508
 31
0.0
  0
LINE
  5
E7F
330
2E59
100
AcDbEntity
  8
SIZE
 62
     0
100
AcDbLine
 10
-128.0
 20
116.4516878685508
 30
0.0
 11
128.0
 21
116.4516878685508
 31
0.0
  0
INSERT
  5
E80
330
2E59
100
AcDbEntity
  8
SIZE
 62
     0
100
AcDbBlockReference
  2
_DOTBLANK
 10
-139.9999999999998
 20
116.4516878685508
 30
0.0
 41
12.0
 42
12.0
 43
12.0
 50
180.0
  0
INSERT
  5
E81
330
2E59
100
AcDbEntity
  8
SIZE
 62
     0
100
AcDbBlockReference
  2
_DOTBLANK
 10
140.0
 20
116.4516878685508
 30
0.0
 41
12.0
 42
12.0
 43
12.0
  0
INSERT
  5
E82
330
2E59
100
AcDbEntity
  8
0
100
AcDbBlockReference
  2
*U10
 10
0.0
 20
0.0
 30
0.0
  0
POINT
  5
E83
330
2E59
100
AcDbEntity
  8
DEFPOINTS
 62
     0
100
AcDbPoint
 10
-139.9999999999998
 20
12.46448280219374
 30
0.0
  0
POINT
  5
E84
330
2E59
100
AcDbEntity
  8
DEFPOINTS
 62
     0
100
AcDbPoint
 10
140.0
 20
12.46448280219374
 30
0.0
  0
POINT
  5
E85
330
2E59
100
AcDbEntity
  8
DEFPOINTS
 62
     0
100
AcDbPoint
 10
140.0
 20
116.4516878685508
 30
0.0
  0
ENDBLK
  5
E7C
330
2E59
100
AcDbEntity
  8
0
100
AcDbBlockEnd
  0
BLOCK
  5
2E5C
330
2E5B
100
AcDbEntity
  8
0
100
AcDbBlockBegin
  2
*U10
 70
     1
 10
0.0
 20
0.0
 30
0.0
  3
*U10
  1

  0
TEXT
  5
1ED8
330
2E5B
100
AcDbEntity
  8
SIZE
 62
     0
100
AcDbText
 10
-74.05714285714281
 20
126.4516878685508
 30
0.0
 40
64.0
  1
280
 41
0.9
100
AcDbText
  0
ENDBLK
  5
1EDA
330
2E5B
100
AcDbEntity
  8
0
100
AcDbBlockEnd
  0
BLOCK
  5
2E5E
330
2E5D
100
AcDbEntity
  8
0
100
AcDbBlockBegin
  2
GENAXEH
 70
     0
 10
0.0
 20
0.0
 30
0.0
  3
GENAXEH
  1

  0
LINE
  5
FDB
330
2E5D
100
AcDbEntity
  8
0
100
AcDbLine
 10
-1.0
 20
0.0
 30
0.0
 11
1.0
 21
0.0
 31
0.0
  0
ENDBLK
  5
FDD
330
2E5D
100
AcDbEntity
  8
0
100
AcDbBlockEnd
  0
BLOCK
  5
2E60
330
2E5F
100
AcDbEntity
  8
0
100
AcDbBlockBegin
  2
*D12
 70
     1
 10
0.0
 20
0.0
 30
0.0
  3
*D12
  1

  0
LINE
  5
1120
330
2E5F
100
AcDbEntity
  8
SIZE
 62
     0
100
AcDbLine
 10
-157.5
 20
20.0
 30
0.0
 11
-157.5
 21
245.5794621189598
 31
0.0
  0
LINE
  5
1121
330
2E5F
100
AcDbEntity
  8
SIZE
 62
     0
100
AcDbLine
 10
157.5
 20
20.0
 30
0.0
 11
157.5
 21
245.5794621189598
 31
0.0
  0
LINE
  5
1122
330
2E5F
100
AcDbEntity
  8
SIZE
 62
     0
100
AcDbLine
 10
-145.5
 20
225.5794621189598
 30
0.0
 11
145.5
 21
225.5794621189598
 31
0.0
  0
INSERT
  5
1123
330
2E5F
100
AcDbEntity
  8
SIZE
 62
     0
100
AcDbBlockReference
  2
_DOTBLANK
 10
-157.5
 20
225.5794621189598
 30
0.0
 41
12.0
 42
12.0
 43
12.0
 50
180.0
  0
INSERT
  5
1124
330
2E5F
100
AcDbEntity
  8
SIZE
 62
     0
100
AcDbBlockReference
  2
_DOTBLANK
 10
157.5
 20
225.5794621189598
 30
0.0
 41
12.0
 42
12.0
 43
12.0
  0
INSERT
  5
1125
330
2E5F
100
AcDbEntity
  8
0
100
AcDbBlockReference
  2
*U13
 10
0.0
 20
0.0
 30
0.0
  0
POINT
  5
1126
330
2E5F
100
AcDbEntity
  8
DEFPOINTS
 62
     0
100
AcDbPoint
 10
-157.5
 20
0.0
 30
0.0
  0
POINT
  5
1127
330
2E5F
100
AcDbEntity
  8
DEFPOINTS
 62
     0
100
AcDbPoint
 10
157.5
 20
0.0
 30
0.0
  0
POINT
  5
1128
330
2E5F
100
AcDbEntity
  8
DEFPOINTS
 62
     0
100
AcDbPoint
 10
157.5
 20
225.5794621189598
 30
0.0
  0
ENDBLK
  5
111F
330
2E5F
100
AcDbEntity
  8
0
100
AcDbBlockEnd
  0
BLOCK
  5
2E62
330
2E61
100
AcDbEntity
  8
0
100
AcDbBlockBegin
  2
*U13
 70
     1
 10
0.0
 20
0.0
 30
0.0
  3
*U13
  1

  0
TEXT
  5
1EDD
330
2E61
100
AcDbEntity
  8
SIZE
 62
     0
100
AcDbText
 10
-68.57142857142857
 20
235.5794621189599
 30
0.0
 40
64.0
  1
315
 41
0.9
100
AcDbText
  0
ENDBLK
  5
1EDF
330
2E61
100
AcDbEntity
  8
0
100
AcDbBlockEnd
  0
BLOCK
  5
2E64
330
2E63
100
AcDbEntity
  8
0
100
AcDbBlockBegin
  2
*D14
 70
     1
 10
0.0
 20
0.0
 30
0.0
  3
*D14
  1

  0
LINE
  5
11BD
330
2E63
100
AcDbEntity
  8
NOTE
 62
     0
100
AcDbLine
 10
-123.4999999999999
 20
-320.0
 30
0.0
 11
-123.4999999999999
 21
-354.9529861856111
 31
0.0
  0
LINE
  5
11BE
330
2E63
100
AcDbEntity
  8
NOTE
 62
     0
100
AcDbLine
 10
-133.4999999999998
 20
-331.2126909923287
 30
0.0
 11
-133.4999999999998
 21
-354.9529861856111
 31
0.0
  0
LINE
  5
11BF
330
2E63
100
AcDbEntity
  8
NOTE
 62
     0
100
AcDbLine
 10
-111.4999999999999
 20
-334.9529861856112
 30
0.0
 11
-99.4999999999999
 21
-334.9529861856112
 31
0.0
  0
LINE
  5
11C0
330
2E63
100
AcDbEntity
  8
NOTE
 62
     0
100
AcDbLine
 10
-145.4999999999998
 20
-334.9529861856112
 30
0.0
 11
-157.4999999999998
 21
-334.9529861856112
 31
0.0
  0
LINE
  5
11C1
330
2E63
100
AcDbEntity
  8
NOTE
 62
     0
100
AcDbLine
 10
-123.4999999999999
 20
-334.9529861856112
 30
0.0
 11
-133.4999999999998
 21
-334.9529861856112
 31
0.0
  0
INSERT
  5
11C2
330
2E63
100
AcDbEntity
  8
NOTE
 62
     0
100
AcDbBlockReference
  2
_DOTBLANK
 10
-123.4999999999999
 20
-334.9529861856112
 30
0.0
 41
12.0
 42
12.0
 43
12.0
 50
180.0
  0
INSERT
  5
11C3
330
2E63
100
AcDbEntity
  8
NOTE
 62
     0
100
AcDbBlockReference
  2
_DOTBLANK
 10
-133.4999999999998
 20
-334.9529861856112
 30
0.0
 41
12.0
 42
12.0
 43
12.0
  0
INSERT
  5
11C4
330
2E63
100
AcDbEntity
  8
0
100
AcDbBlockReference
  2
*U15
 10
0.0
 20
0.0
 30
0.0
  0
POINT
  5
11C5
330
2E63
100
AcDbEntity
  8
DEFPOINTS
 62
     0
100
AcDbPoint
 10
-123.4999999999999
 20
-300.0
 30
0.0
  0
POINT
  5
11C6
330
2E63
100
AcDbEntity
  8
DEFPOINTS
 62
     0
100
AcDbPoint
 10
-133.4999999999998
 20
-311.2126909923287
 30
0.0
  0
POINT
  5
11C7
330
2E63
100
AcDbEntity
  8
DEFPOINTS
 62
     0
100
AcDbPoint
 10
-133.4999999999998
 20
-334.9529861856112
 30
0.0
  0
ENDBLK
  5
11BC
330
2E63
100
AcDbEntity
  8
0
100
AcDbBlockEnd
  0
BLOCK
  5
2E66
330
2E65
100
AcDbEntity
  8
0
100
AcDbBlockBegin
  2
*U15
 70
     1
 10
0.0
 20
0.0
 30
0.0
  3
*U15
  1

  0
TEXT
  5
1EE5
330
2E65
100
AcDbEntity
  8
NOTE
 62
     0
100
AcDbText
 10
-169.642857142857
 20
-324.9529861856112
 30
0.0
 40
64.0
  1
10
 41
0.9
100
AcDbText
  0
ENDBLK
  5
1EE7
330
2E65
100
AcDbEntity
  8
0
100
AcDbBlockEnd
  0
BLOCK
  5
2E68
330
2E67
100
AcDbEntity
  8
0
100
AcDbBlockBegin
  2
*D16
 70
     1
 10
0.0
 20
0.0
 30
0.0
  3
*D16
  1

  0
LINE
  5
11E7
330
2E67
100
AcDbEntity
  8
NOTE
 62
     0
100
AcDbLine
 10
-135.5
 20
-333.2126909923287
 30
0.0
 11
-135.5
 21
-386.2569421441843
 31
0.0
  0
LINE
  5
11E8
330
2E67
100
AcDbEntity
  8
NOTE
 62
     0
100
AcDbLine
 10
-123.4999999999999
 20
-320.0
 30
0.0
 11
-123.4999999999999
 21
-386.2569421441843
 31
0.0
  0
LINE
  5
11E9
330
2E67
100
AcDbEntity
  8
NOTE
 62
     0
100
AcDbLine
 10
-147.5
 20
-366.2569421441844
 30
0.0
 11
-159.5
 21
-366.2569421441844
 31
0.0
  0
LINE
  5
11EA
330
2E67
100
AcDbEntity
  8
NOTE
 62
     0
100
AcDbLine
 10
-111.4999999999999
 20
-366.2569421441844
 30
0.0
 11
-99.4999999999999
 21
-366.2569421441844
 31
0.0
  0
LINE
  5
11EB
330
2E67
100
AcDbEntity
  8
NOTE
 62
     0
100
AcDbLine
 10
-135.5
 20
-366.2569421441844
 30
0.0
 11
-123.4999999999999
 21
-366.2569421441844
 31
0.0
  0
INSERT
  5
11EC
330
2E67
100
AcDbEntity
  8
NOTE
 62
     0
100
AcDbBlockReference
  2
_DOTBLANK
 10
-135.5
 20
-366.2569421441844
 30
0.0
 41
12.0
 42
12.0
 43
12.0
  0
INSERT
  5
11ED
330
2E67
100
AcDbEntity
  8
NOTE
 62
     0
100
AcDbBlockReference
  2
_DOTBLANK
 10
-123.4999999999999
 20
-366.2569421441844
 30
0.0
 41
12.0
 42
12.0
 43
12.0
 50
180.0
  0
INSERT
  5
11EE
330
2E67
100
AcDbEntity
  8
0
100
AcDbBlockReference
  2
*U17
 10
0.0
 20
0.0
 30
0.0
  0
POINT
  5
11EF
330
2E67
100
AcDbEntity
  8
DEFPOINTS
 62
     0
100
AcDbPoint
 10
-135.5
 20
-313.2126909923287
 30
0.0
  0
POINT
  5
11F0
330
2E67
100
AcDbEntity
  8
DEFPOINTS
 62
     0
100
AcDbPoint
 10
-123.4999999999999
 20
-300.0
 30
0.0
  0
POINT
  5
11F1
330
2E67
100
AcDbEntity
  8
DEFPOINTS
 62
     0
100
AcDbPoint
 10
-123.4999999999999
 20
-366.2569421441844
 30
0.0
  0
ENDBLK
  5
11E6
330
2E67
100
AcDbEntity
  8
0
100
AcDbBlockEnd
  0
BLOCK
  5
2E6A
330
2E69
100
AcDbEntity
  8
0
100
AcDbBlockBegin
  2
*U17
 70
     1
 10
0.0
 20
0.0
 30
0.0
  3
*U17
  1

  0
TEXT
  5
1EE9
330
2E69
100
AcDbEntity
  8
NOTE
 62
     0
100
AcDbText
 10
-170.642857142857
 20
-356.2569421441843
 30
0.0
 40
64.0
  1
12
 41
0.9
100
AcDbText
  0
ENDBLK
  5
1EEB
330
2E69
100
AcDbEntity
  8
0
100
AcDbBlockEnd
  0
BLOCK
  5
2E6C
330
2E6B
100
AcDbEntity
  8
0
100
AcDbBlockBegin
  2
*D18
 70
     1
 10
0.0
 20
0.0
 30
0.0
  3
*D18
  1

  0
LINE
  5
11F6
330
2E6B
100
AcDbEntity
  8
NOTE
 62
     0
100
AcDbLine
 10
-123.4999999999999
 20
-320.0
 30
0.0
 11
-123.4999999999999
 21
-583.8286022818904
 31
0.0
  0
LINE
  5
11F7
330
2E6B
100
AcDbEntity
  8
NOTE
 62
     0
100
AcDbLine
 10
123.5
 20
-320.0
 30
0.0
 11
123.5
 21
-583.8286022818904
 31
0.0
  0
LINE
  5
11F8
330
2E6B
100
AcDbEntity
  8
NOTE
 62
     0
100
AcDbLine
 10
-111.4999999999999
 20
-563.8286022818904
 30
0.0
 11
111.5
 21
-563.8286022818904
 31
0.0
  0
INSERT
  5
11F9
330
2E6B
100
AcDbEntity
  8
NOTE
 62
     0
100
AcDbBlockReference
  2
_DOTBLANK
 10
-123.4999999999999
 20
-563.8286022818904
 30
0.0
 41
12.0
 42
12.0
 43
12.0
 50
180.0
  0
INSERT
  5
11FA
330
2E6B
100
AcDbEntity
  8
NOTE
 62
     0
100
AcDbBlockReference
  2
_DOTBLANK
 10
123.5
 20
-563.8286022818904
 30
0.0
 41
12.0
 42
12.0
 43
12.0
  0
INSERT
  5
11FB
330
2E6B
100
AcDbEntity
  8
0
100
AcDbBlockReference
  2
*U19
 10
0.0
 20
0.0
 30
0.0
  0
POINT
  5
11FC
330
2E6B
100
AcDbEntity
  8
DEFPOINTS
 62
     0
100
AcDbPoint
 10
-123.4999999999999
 20
-300.0
 30
0.0
  0
POINT
  5
11FD
330
2E6B
100
AcDbEntity
  8
DEFPOINTS
 62
     0
100
AcDbPoint
 10
123.5
 20
-300.0
 30
0.0
  0
POINT
  5
11FE
330
2E6B
100
AcDbEntity
  8
DEFPOINTS
 62
     0
100
AcDbPoint
 10
123.5
 20
-563.8286022818904
 30
0.0
  0
ENDBLK
  5
11F5
330
2E6B
100
AcDbEntity
  8
0
100
AcDbBlockEnd
  0
BLOCK
  5
2E6E
330
2E6D
100
AcDbEntity
  8
0
100
AcDbBlockBegin
  2
*U19
 70
     1
 10
0.0
 20
0.0
 30
0.0
  3
*U19
  1

  0
TEXT
  5
1EED
330
2E6D
100
AcDbEntity
  8
NOTE
 62
     0
100
AcDbText
 10
-74.05714285714281
 20
-553.8286022818904
 30
0.0
 40
64.0
  1
247
 41
0.9
100
AcDbText
  0
ENDBLK
  5
1EEF
330
2E6D
100
AcDbEntity
  8
0
100
AcDbBlockEnd
  0
BLOCK
  5
2E70
330
2E6F
100
AcDbEntity
  8
0
100
AcDbBlockBegin
  2
*D20
 70
     1
 10
0.0
 20
0.0
 30
0.0
  3
*D20
  1

  0
LINE
  5
1284
330
2E6F
100
AcDbEntity
  8
NOTE
 62
     0
100
AcDbLine
 10
-123.5
 20
12.0
 30
0.0
 11
-123.5
 21
71.83630134534229
 31
0.0
  0
LINE
  5
1285
330
2E6F
100
AcDbEntity
  8
NOTE
 62
     0
100
AcDbLine
 10
123.5
 20
12.0
 30
0.0
 11
123.5
 21
71.83630134534229
 31
0.0
  0
LINE
  5
1286
330
2E6F
100
AcDbEntity
  8
NOTE
 62
     0
100
AcDbLine
 10
-111.5
 20
51.83630134534229
 30
0.0
 11
111.5
 21
51.83630134534229
 31
0.0
  0
INSERT
  5
1287
330
2E6F
100
AcDbEntity
  8
NOTE
 62
     0
100
AcDbBlockReference
  2
_DOTBLANK
 10
-123.5
 20
51.83630134534229
 30
0.0
 41
12.0
 42
12.0
 43
12.0
 50
180.0
  0
INSERT
  5
1288
330
2E6F
100
AcDbEntity
  8
NOTE
 62
     0
100
AcDbBlockReference
  2
_DOTBLANK
 10
123.5
 20
51.83630134534229
 30
0.0
 41
12.0
 42
12.0
 43
12.0
  0
INSERT
  5
1289
330
2E6F
100
AcDbEntity
  8
0
100
AcDbBlockReference
  2
*U21
 10
0.0
 20
0.0
 30
0.0
  0
POINT
  5
128A
330
2E6F
100
AcDbEntity
  8
DEFPOINTS
 62
     0
100
AcDbPoint
 10
-123.5
 20
-8.0
 30
0.0
  0
POINT
  5
128B
330
2E6F
100
AcDbEntity
  8
DEFPOINTS
 62
     0
100
AcDbPoint
 10
123.5
 20
-8.0
 30
0.0
  0
POINT
  5
128C
330
2E6F
100
AcDbEntity
  8
DEFPOINTS
 62
     0
100
AcDbPoint
 10
123.5
 20
51.83630134534229
 30
0.0
  0
ENDBLK
  5
1283
330
2E6F
100
AcDbEntity
  8
0
100
AcDbBlockEnd
  0
BLOCK
  5
2E72
330
2E71
100
AcDbEntity
  8
0
100
AcDbBlockBegin
  2
*U21
 70
     1
 10
0.0
 20
0.0
 30
0.0
  3
*U21
  1

  0
TEXT
  5
1EF1
330
2E71
100
AcDbEntity
  8
NOTE
 62
     0
100
AcDbText
 10
-74.05714285714283
 20
61.83630134534229
 30
0.0
 40
64.0
  1
247
 41
0.9
100
AcDbText
  0
ENDBLK
  5
1EF3
330
2E71
100
AcDbEntity
  8
0
100
AcDbBlockEnd
  0
BLOCK
  5
2E74
330
2E73
100
AcDbEntity
  8
0
100
AcDbBlockBegin
  2
*D22
 70
     1
 10
0.0
 20
0.0
 30
0.0
  3
*D22
  1

  0
LINE
  5
1414
330
2E73
100
AcDbEntity
  8
SIZE
 62
     0
100
AcDbLine
 10
-22313.11521613997
 20
7365.702971374808
 30
0.0
 11
-22313.11521613997
 21
7217.685576144207
 31
0.0
  0
LINE
  5
1415
330
2E73
100
AcDbEntity
  8
SIZE
 62
     0
100
AcDbLine
 10
-22044.11521613997
 20
7365.702971374808
 30
0.0
 11
-22044.11521613997
 21
7217.685576144207
 31
0.0
  0
LINE
  5
1416
330
2E73
100
AcDbEntity
  8
SIZE
 62
     0
100
AcDbLine
 10
-22301.11521613997
 20
7237.685576144207
 30
0.0
 11
-22056.11521613997
 21
7237.685576144207
 31
0.0
  0
INSERT
  5
1417
330
2E73
100
AcDbEntity
  8
SIZE
 62
     0
100
AcDbBlockReference
  2
_DOTBLANK
 10
-22313.11521613997
 20
7237.685576144207
 30
0.0
 41
12.0
 42
12.0
 43
12.0
 50
180.0
  0
INSERT
  5
1418
330
2E73
100
AcDbEntity
  8
SIZE
 62
     0
100
AcDbBlockReference
  2
_DOTBLANK
 10
-22044.11521613997
 20
7237.685576144207
 30
0.0
 41
12.0
 42
12.0
 43
12.0
  0
INSERT
  5
1419
330
2E73
100
AcDbEntity
  8
0
100
AcDbBlockReference
  2
*U23
 10
0.0
 20
0.0
 30
0.0
  0
POINT
  5
141A
330
2E73
100
AcDbEntity
  8
DEFPOINTS
 62
     0
100
AcDbPoint
 10
-22313.11521613997
 20
7385.702971374808
 30
0.0
  0
POINT
  5
141B
330
2E73
100
AcDbEntity
  8
DEFPOINTS
 62
     0
100
AcDbPoint
 10
-22044.11521613997
 20
7385.702971374808
 30
0.0
  0
POINT
  5
141C
330
2E73
100
AcDbEntity
  8
DEFPOINTS
 62
     0
100
AcDbPoint
 10
-22044.11521613997
 20
7237.685576144207
 30
0.0
  0
ENDBLK
  5
141D
330
2E73
100
AcDbEntity
  8
0
100
AcDbBlockEnd
  0
BLOCK
  5
2E76
330
2E75
100
AcDbEntity
  8
0
100
AcDbBlockBegin
  2
*U23
 70
     1
 10
0.0
 20
0.0
 30
0.0
  3
*U23
  1

  0
TEXT
  5
1EF9
330
2E75
100
AcDbEntity
  8
SIZE
 62
     0
100
AcDbText
 10
-22251.30093042568
 20
7247.685576144205
 30
0.0
 40
64.0
  1
269
 41
0.9
100
AcDbText
  0
ENDBLK
  5
1EFB
330
2E75
100
AcDbEntity
  8
0
100
AcDbBlockEnd
  0
BLOCK
  5
2E78
330
2E77
100
AcDbEntity
  8
0
100
AcDbBlockBegin
  2
*D24
 70
     1
 10
0.0
 20
0.0
 30
0.0
  3
*D24
  1

  0
LINE
  5
1420
330
2E77
100
AcDbEntity
  8
SIZE
  6
Continuous
 62
     0
100
AcDbLine
 10
-22035.11521613997
 20
7385.702971374808
 30
0.0
 11
-21873.97193165959
 21
7385.702971374808
 31
0.0
  0
LINE
  5
1421
330
2E77
100
AcDbEntity
  8
SIZE
  6
Continuous
 62
     0
100
AcDbLine
 10
-22001.11521613997
 20
7685.702971374808
 30
0.0
 11
-21873.97193165959
 21
7685.702971374808
 31
0.0
  0
LINE
  5
1422
330
2E77
100
AcDbEntity
  8
SIZE
  6
Continuous
 62
     0
100
AcDbLine
 10
-21893.97193165959
 20
7397.702971374808
 30
0.0
 11
-21893.97193165959
 21
7673.702971374808
 31
0.0
  0
INSERT
  5
1423
330
2E77
100
AcDbEntity
  8
SIZE
  6
Continuous
 62
     0
100
AcDbBlockReference
  2
_DOTBLANK
 10
-21893.97193165959
 20
7385.702971374808
 30
0.0
 41
12.0
 42
12.0
 43
12.0
 50
270.0
  0
INSERT
  5
1424
330
2E77
100
AcDbEntity
  8
SIZE
  6
Continuous
 62
     0
100
AcDbBlockReference
  2
_DOTBLANK
 10
-21893.97193165959
 20
7685.702971374808
 30
0.0
 41
12.0
 42
12.0
 43
12.0
 50
90.0
  0
INSERT
  5
1425
330
2E77
100
AcDbEntity
  8
0
100
AcDbBlockReference
  2
*U25
 10
0.0
 20
0.0
 30
0.0
  0
POINT
  5
1426
330
2E77
100
AcDbEntity
  8
DEFPOINTS
  6
Continuous
 62
     0
100
AcDbPoint
 10
-22055.11521613997
 20
7385.702971374808
 30
0.0
  0
POINT
  5
1427
330
2E77
100
AcDbEntity
  8
DEFPOINTS
  6
Continuous
 62
     0
100
AcDbPoint
 10
-22021.11521613997
 20
7685.702971374808
 30
0.0
  0
POINT
  5
1428
330
2E77
100
AcDbEntity
  8
DEFPOINTS
  6
Continuous
 62
     0
100
AcDbPoint
 10
-21893.97193165959
 20
7685.702971374808
 30
0.0
  0
ENDBLK
  5
1429
330
2E77
100
AcDbEntity
  8
0
100
AcDbBlockEnd
  0
BLOCK
  5
2E7A
330
2E79
100
AcDbEntity
  8
0
100
AcDbBlockBegin
  2
*U25
 70
     1
 10
0.0
 20
0.0
 30
0.0
  3
*U25
  1

  0
TEXT
  5
1EFD
330
2E79
100
AcDbEntity
  8
SIZE
 62
     0
100
AcDbText
 10
-21903.97193165959
 20
7461.645828517662
 30
0.0
 40
64.0
  1
300
 50
90.0
 41
0.9
100
AcDbText
  0
ENDBLK
  5
1EFF
330
2E79
100
AcDbEntity
  8
0
100
AcDbBlockEnd
  0
BLOCK
  5
2E7C
330
2E7B
100
AcDbEntity
  8
0
100
AcDbBlockBegin
  2
*D26
 70
     1
 10
0.0
 20
0.0
 30
0.0
  3
*D26
  1

  0
LINE
  5
142C
330
2E7B
100
AcDbEntity
  8
SIZE
 62
     0
100
AcDbLine
 10
-22318.61521613997
 20
7718.167454177002
 30
0.0
 11
-22318.61521613997
 21
7822.154659243358
 31
0.0
  0
LINE
  5
142D
330
2E7B
100
AcDbEntity
  8
SIZE
 62
     0
100
AcDbLine
 10
-22038.61521613997
 20
7718.167454177002
 30
0.0
 11
-22038.61521613997
 21
7822.154659243358
 31
0.0
  0
LINE
  5
142E
330
2E7B
100
AcDbEntity
  8
SIZE
 62
     0
100
AcDbLine
 10
-22306.61521613997
 20
7802.154659243358
 30
0.0
 11
-22050.61521613997
 21
7802.154659243358
 31
0.0
  0
INSERT
  5
142F
330
2E7B
100
AcDbEntity
  8
SIZE
 62
     0
100
AcDbBlockReference
  2
_DOTBLANK
 10
-22318.61521613997
 20
7802.154659243358
 30
0.0
 41
12.0
 42
12.0
 43
12.0
 50
180.0
  0
INSERT
  5
1430
330
2E7B
100
AcDbEntity
  8
SIZE
 62
     0
100
AcDbBlockReference
  2
_DOTBLANK
 10
-22038.61521613997
 20
7802.154659243358
 30
0.0
 41
12.0
 42
12.0
 43
12.0
  0
INSERT
  5
1431
330
2E7B
100
AcDbEntity
  8
0
100
AcDbBlockReference
  2
*U27
 10
0.0
 20
0.0
 30
0.0
  0
POINT
  5
1432
330
2E7B
100
AcDbEntity
  8
DEFPOINTS
 62
     0
100
AcDbPoint
 10
-22318.61521613997
 20
7698.167454177002
 30
0.0
  0
POINT
  5
1433
330
2E7B
100
AcDbEntity
  8
DEFPOINTS
 62
     0
100
AcDbPoint
 10
-22038.61521613997
 20
7698.167454177002
 30
0.0
  0
POINT
  5
1434
330
2E7B
100
AcDbEntity
  8
DEFPOINTS
 62
     0
100
AcDbPoint
 10
-22038.61521613997
 20
7802.154659243358
 30
0.0
  0
ENDBLK
  5
1435
330
2E7B
100
AcDbEntity
  8
0
100
AcDbBlockEnd
  0
BLOCK
  5
2E7E
330
2E7D
100
AcDbEntity
  8
0
100
AcDbBlockBegin
  2
*U27
 70
     1
 10
0.0
 20
0.0
 30
0.0
  3
*U27
  1

  0
TEXT
  5
1F01
330
2E7D
100
AcDbEntity
  8
SIZE
 62
     0
100
AcDbText
 10
-22252.6723589971
 20
7812.154659243358
 30
0.0
 40
64.0
  1
280
 41
0.9
100
AcDbText
  0
ENDBLK
  5
1F03
330
2E7D
100
AcDbEntity
  8
0
100
AcDbBlockEnd
  0
BLOCK
  5
2E80
330
2E7F
100
AcDbEntity
  8
0
100
AcDbBlockBegin
  2
*D28
 70
     1
 10
0.0
 20
0.0
 30
0.0
  3
*D28
  1

  0
LINE
  5
1438
330
2E7F
100
AcDbEntity
  8
SIZE
 62
     0
100
AcDbLine
 10
-22336.11521613997
 20
7705.702971374808
 30
0.0
 11
-22336.11521613997
 21
7931.282433493766
 31
0.0
  0
LINE
  5
1439
330
2E7F
100
AcDbEntity
  8
SIZE
 62
     0
100
AcDbLine
 10
-22021.11521613997
 20
7705.702971374808
 30
0.0
 11
-22021.11521613997
 21
7931.282433493766
 31
0.0
  0
LINE
  5
143A
330
2E7F
100
AcDbEntity
  8
SIZE
 62
     0
100
AcDbLine
 10
-22324.11521613997
 20
7911.282433493766
 30
0.0
 11
-22033.11521613997
 21
7911.282433493766
 31
0.0
  0
INSERT
  5
143B
330
2E7F
100
AcDbEntity
  8
SIZE
 62
     0
100
AcDbBlockReference
  2
_DOTBLANK
 10
-22336.11521613997
 20
7911.282433493766
 30
0.0
 41
12.0
 42
12.0
 43
12.0
 50
180.0
  0
INSERT
  5
143C
330
2E7F
100
AcDbEntity
  8
SIZE
 62
     0
100
AcDbBlockReference
  2
_DOTBLANK
 10
-22021.11521613997
 20
7911.282433493766
 30
0.0
 41
12.0
 42
12.0
 43
12.0
  0
INSERT
  5
143D
330
2E7F
100
AcDbEntity
  8
0
100
AcDbBlockReference
  2
*U29
 10
0.0
 20
0.0
 30
0.0
  0
POINT
  5
143E
330
2E7F
100
AcDbEntity
  8
DEFPOINTS
 62
     0
100
AcDbPoint
 10
-22336.11521613997
 20
7685.702971374808
 30
0.0
  0
POINT
  5
143F
330
2E7F
100
AcDbEntity
  8
DEFPOINTS
 62
     0
100
AcDbPoint
 10
-22021.11521613997
 20
7685.702971374808
 30
0.0
  0
POINT
  5
1440
330
2E7F
100
AcDbEntity
  8
DEFPOINTS
 62
     0
100
AcDbPoint
 10
-22021.11521613997
 20
7911.282433493766
 30
0.0
  0
ENDBLK
  5
1441
330
2E7F
100
AcDbEntity
  8
0
100
AcDbBlockEnd
  0
BLOCK
  5
2E82
330
2E81
100
AcDbEntity
  8
0
100
AcDbBlockBegin
  2
*U29
 70
     1
 10
0.0
 20
0.0
 30
0.0
  3
*U29
  1

  0
TEXT
  5
1F05
330
2E81
100
AcDbEntity
  8
SIZE
 62
     0
100
AcDbText
 10
-22247.18664471139
 20
7921.282433493766
 30
0.0
 40
64.0
  1
315
 41
0.9
100
AcDbText
  0
ENDBLK
  5
1F07
330
2E81
100
AcDbEntity
  8
0
100
AcDbBlockEnd
  0
BLOCK
  5
2E84
330
2E83
100
AcDbEntity
  8
0
100
AcDbBlockBegin
  2
*D30
 70
     1
 10
0.0
 20
0.0
 30
0.0
  3
*D30
  1

  0
LINE
  5
166B
330
2E83
100
AcDbEntity
  8
SIZE
 62
     0
100
AcDbLine
 10
-134.5
 20
-320.0
 30
0.0
 11
-134.5
 21
-468.0173952306001
 31
0.0
  0
LINE
  5
166C
330
2E83
100
AcDbEntity
  8
SIZE
 62
     0
100
AcDbLine
 10
134.5
 20
-320.0
 30
0.0
 11
134.5
 21
-468.0173952306001
 31
0.0
  0
LINE
  5
166D
330
2E83
100
AcDbEntity
  8
SIZE
 62
     0
100
AcDbLine
 10
-122.5
 20
-448.0173952306
 30
0.0
 11
122.5
 21
-448.0173952306
 31
0.0
  0
INSERT
  5
166E
330
2E83
100
AcDbEntity
  8
SIZE
 62
     0
100
AcDbBlockReference
  2
_DOTBLANK
 10
-134.5
 20
-448.0173952306
 30
0.0
 41
12.0
 42
12.0
 43
12.0
 50
180.0
  0
INSERT
  5
166F
330
2E83
100
AcDbEntity
  8
SIZE
 62
     0
100
AcDbBlockReference
  2
_DOTBLANK
 10
134.5
 20
-448.0173952306
 30
0.0
 41
12.0
 42
12.0
 43
12.0
  0
INSERT
  5
1670
330
2E83
100
AcDbEntity
  8
0
100
AcDbBlockReference
  2
*U31
 10
0.0
 20
0.0
 30
0.0
  0
POINT
  5
1671
330
2E83
100
AcDbEntity
  8
DEFPOINTS
 62
     0
100
AcDbPoint
 10
-134.5
 20
-300.0
 30
0.0
  0
POINT
  5
1672
330
2E83
100
AcDbEntity
  8
DEFPOINTS
 62
     0
100
AcDbPoint
 10
134.5
 20
-300.0
 30
0.0
  0
POINT
  5
1673
330
2E83
100
AcDbEntity
  8
DEFPOINTS
 62
     0
100
AcDbPoint
 10
134.5
 20
-448.0173952306
 30
0.0
  0
ENDBLK
  5
14A7
330
2E83
100
AcDbEntity
  8
0
100
AcDbBlockEnd
  0
BLOCK
  5
2E86
330
2E85
100
AcDbEntity
  8
0
100
AcDbBlockBegin
  2
*U31
 70
     1
 10
0.0
 20
0.0
 30
0.0
  3
*U31
  1

  0
TEXT
  5
1F09
330
2E85
100
AcDbEntity
  8
SIZE
 62
     0
100
AcDbText
 10
-72.68571428571426
 20
-438.0173952306002
 30
0.0
 40
64.0
  1
269
 41
0.9
100
AcDbText
  0
ENDBLK
  5
1F0B
330
2E85
100
AcDbEntity
  8
0
100
AcDbBlockEnd
  0
BLOCK
  5
2E88
330
2E87
100
AcDbEntity
  8
0
100
AcDbBlockBegin
  2
*D32
 70
     1
 10
0.0
 20
0.0
 30
0.0
  3
*D32
  1

  0
LINE
  5
1674
330
2E87
100
AcDbEntity
  8
SIZE
  6
Continuous
 62
     0
100
AcDbLine
 10
143.5
 20
-300.0
 30
0.0
 11
304.6432844803784
 21
-300.0
 31
0.0
  0
LINE
  5
1675
330
2E87
100
AcDbEntity
  8
SIZE
  6
Continuous
 62
     0
100
AcDbLine
 10
177.5
 20
-0.0000000000000057
 30
0.0
 11
304.6432844803785
 21
-0.0000000000000417
 31
0.0
  0
LINE
  5
1676
330
2E87
100
AcDbEntity
  8
SIZE
  6
Continuous
 62
     0
100
AcDbLine
 10
284.6432844803784
 20
-288.0000000000001
 30
0.0
 11
284.6432844803785
 21
-12.00000000000003
 31
0.0
  0
INSERT
  5
1677
330
2E87
100
AcDbEntity
  8
SIZE
  6
Continuous
 62
     0
100
AcDbBlockReference
  2
_DOTBLANK
 10
284.6432844803784
 20
-300.0
 30
0.0
 41
12.0
 42
12.0
 43
12.0
 50
270.0
  0
INSERT
  5
1678
330
2E87
100
AcDbEntity
  8
SIZE
  6
Continuous
 62
     0
100
AcDbBlockReference
  2
_DOTBLANK
 10
284.6432844803785
 20
-0.000000000000036
 30
0.0
 41
12.0
 42
12.0
 43
12.0
 50
90.0
  0
INSERT
  5
1679
330
2E87
100
AcDbEntity
  8
0
100
AcDbBlockReference
  2
*U33
 10
0.0
 20
0.0
 30
0.0
  0
POINT
  5
167A
330
2E87
100
AcDbEntity
  8
DEFPOINTS
  6
Continuous
 62
     0
100
AcDbPoint
 10
123.5
 20
-300.0
 30
0.0
  0
POINT
  5
167B
330
2E87
100
AcDbEntity
  8
DEFPOINTS
  6
Continuous
 62
     0
100
AcDbPoint
 10
157.5
 20
0.0
 30
0.0
  0
POINT
  5
167C
330
2E87
100
AcDbEntity
  8
DEFPOINTS
  6
Continuous
 62
     0
100
AcDbPoint
 10
284.6432844803785
 20
-0.000000000000036
 30
0.0
  0
ENDBLK
  5
14B3
330
2E87
100
AcDbEntity
  8
0
100
AcDbBlockEnd
  0
BLOCK
  5
2E8A
330
2E89
100
AcDbEntity
  8
0
100
AcDbBlockBegin
  2
*U33
 70
     1
 10
0.0
 20
0.0
 30
0.0
  3
*U33
  1

  0
TEXT
  5
1F0D
330
2E89
100
AcDbEntity
  8
SIZE
 62
     0
100
AcDbText
 10
274.6432844803785
 20
-224.0571428571429
 30
0.0
 40
64.0
  1
300
 50
90.0
 41
0.9
100
AcDbText
  0
ENDBLK
  5
1F0F
330
2E89
100
AcDbEntity
  8
0
100
AcDbBlockEnd
  0
BLOCK
  5
2E8C
330
2E8B
100
AcDbEntity
  8
0
100
AcDbBlockBegin
  2
*D34
 70
     1
 10
0.0
 20
0.0
 30
0.0
  3
*D34
  1

  0
LINE
  5
167D
330
2E8B
100
AcDbEntity
  8
SIZE
 62
     0
100
AcDbLine
 10
-140.0
 20
32.46448280219375
 30
0.0
 11
-140.0
 21
136.4516878685507
 31
0.0
  0
LINE
  5
167E
330
2E8B
100
AcDbEntity
  8
SIZE
 62
     0
100
AcDbLine
 10
140.0
 20
32.46448280219375
 30
0.0
 11
140.0
 21
136.4516878685507
 31
0.0
  0
LINE
  5
167F
330
2E8B
100
AcDbEntity
  8
SIZE
 62
     0
100
AcDbLine
 10
-128.0
 20
116.4516878685508
 30
0.0
 11
128.0
 21
116.4516878685508
 31
0.0
  0
INSERT
  5
1680
330
2E8B
100
AcDbEntity
  8
SIZE
 62
     0
100
AcDbBlockReference
  2
_DOTBLANK
 10
-140.0
 20
116.4516878685508
 30
0.0
 41
12.0
 42
12.0
 43
12.0
 50
180.0
  0
INSERT
  5
1681
330
2E8B
100
AcDbEntity
  8
SIZE
 62
     0
100
AcDbBlockReference
  2
_DOTBLANK
 10
140.0
 20
116.4516878685508
 30
0.0
 41
12.0
 42
12.0
 43
12.0
  0
INSERT
  5
1682
330
2E8B
100
AcDbEntity
  8
0
100
AcDbBlockReference
  2
*U35
 10
0.0
 20
0.0
 30
0.0
  0
POINT
  5
1683
330
2E8B
100
AcDbEntity
  8
DEFPOINTS
 62
     0
100
AcDbPoint
 10
-140.0
 20
12.46448280219374
 30
0.0
  0
POINT
  5
1684
330
2E8B
100
AcDbEntity
  8
DEFPOINTS
 62
     0
100
AcDbPoint
 10
140.0
 20
12.46448280219374
 30
0.0
  0
POINT
  5
1685
330
2E8B
100
AcDbEntity
  8
DEFPOINTS
 62
     0
100
AcDbPoint
 10
140.0
 20
116.4516878685508
 30
0.0
  0
ENDBLK
  5
14BF
330
2E8B
100
AcDbEntity
  8
0
100
AcDbBlockEnd
  0
BLOCK
  5
2E8E
330
2E8D
100
AcDbEntity
  8
0
100
AcDbBlockBegin
  2
*U35
 70
     1
 10
0.0
 20
0.0
 30
0.0
  3
*U35
  1

  0
TEXT
  5
1F11
330
2E8D
100
AcDbEntity
  8
SIZE
 62
     0
100
AcDbText
 10
-74.05714285714283
 20
126.4516878685507
 30
0.0
 40
64.0
  1
280
 41
0.9
100
AcDbText
  0
ENDBLK
  5
1F13
330
2E8D
100
AcDbEntity
  8
0
100
AcDbBlockEnd
  0
BLOCK
  5
2E90
330
2E8F
100
AcDbEntity
  8
0
100
AcDbBlockBegin
  2
*D36
 70
     1
 10
0.0
 20
0.0
 30
0.0
  3
*D36
  1

  0
LINE
  5
1686
330
2E8F
100
AcDbEntity
  8
SIZE
 62
     0
100
AcDbLine
 10
-157.5
 20
20.0
 30
0.0
 11
-157.5
 21
245.5794621189598
 31
0.0
  0
LINE
  5
1687
330
2E8F
100
AcDbEntity
  8
SIZE
 62
     0
100
AcDbLine
 10
157.5
 20
20.0
 30
0.0
 11
157.5
 21
245.5794621189598
 31
0.0
  0
LINE
  5
1688
330
2E8F
100
AcDbEntity
  8
SIZE
 62
     0
100
AcDbLine
 10
-145.5
 20
225.5794621189598
 30
0.0
 11
145.5
 21
225.5794621189598
 31
0.0
  0
INSERT
  5
1689
330
2E8F
100
AcDbEntity
  8
SIZE
 62
     0
100
AcDbBlockReference
  2
_DOTBLANK
 10
-157.5
 20
225.5794621189598
 30
0.0
 41
12.0
 42
12.0
 43
12.0
 50
180.0
  0
INSERT
  5
168A
330
2E8F
100
AcDbEntity
  8
SIZE
 62
     0
100
AcDbBlockReference
  2
_DOTBLANK
 10
157.5
 20
225.5794621189598
 30
0.0
 41
12.0
 42
12.0
 43
12.0
  0
INSERT
  5
168B
330
2E8F
100
AcDbEntity
  8
0
100
AcDbBlockReference
  2
*U37
 10
0.0
 20
0.0
 30
0.0
  0
POINT
  5
168C
330
2E8F
100
AcDbEntity
  8
DEFPOINTS
 62
     0
100
AcDbPoint
 10
-157.5
 20
0.0
 30
0.0
  0
POINT
  5
168D
330
2E8F
100
AcDbEntity
  8
DEFPOINTS
 62
     0
100
AcDbPoint
 10
157.5
 20
0.0
 30
0.0
  0
POINT
  5
168E
330
2E8F
100
AcDbEntity
  8
DEFPOINTS
 62
     0
100
AcDbPoint
 10
157.5
 20
225.5794621189598
 30
0.0
  0
ENDBLK
  5
14CB
330
2E8F
100
AcDbEntity
  8
0
100
AcDbBlockEnd
  0
BLOCK
  5
2E92
330
2E91
100
AcDbEntity
  8
0
100
AcDbBlockBegin
  2
*U37
 70
     1
 10
0.0
 20
0.0
 30
0.0
  3
*U37
  1

  0
TEXT
  5
1F15
330
2E91
100
AcDbEntity
  8
SIZE
 62
     0
100
AcDbText
 10
-68.57142857142857
 20
235.5794621189598
 30
0.0
 40
64.0
  1
315
 41
0.9
100
AcDbText
  0
ENDBLK
  5
1F17
330
2E91
100
AcDbEntity
  8
0
100
AcDbBlockEnd
  0
BLOCK
  5
2E94
330
2E93
100
AcDbEntity
  8
0
100
AcDbBlockBegin
  2
*U38
 70
     1
 10
0.0
 20
0.0
 30
0.0
  3
*U38
  1

  0
ENDBLK
  5
15CF
330
2E93
100
AcDbEntity
  8
0
100
AcDbBlockEnd
  0
BLOCK
  5
2E96
330
2E95
100
AcDbEntity
  8
0
100
AcDbBlockBegin
  2
*D39
 70
     1
 10
0.0
 20
0.0
 30
0.0
  3
*D39
  1

  0
LINE
  5
1692
330
2E95
100
AcDbEntity
  8
SIZE
 62
     0
100
AcDbLine
 10
-25844.51823276502
 20
7685.702971374808
 30
0.0
 11
-25981.04465488371
 21
7685.702971374808
 31
0.0
  0
LINE
  5
1693
330
2E95
100
AcDbEntity
  8
SIZE
 62
     0
100
AcDbLine
 10
-25844.51823276502
 20
7677.702971374808
 30
0.0
 11
-25981.04465488371
 21
7677.702971374808
 31
0.0
  0
LINE
  5
1694
330
2E95
100
AcDbEntity
  8
SIZE
 62
     0
100
AcDbLine
 10
-25961.04465488371
 20
7697.702971374808
 30
0.0
 11
-25961.04465488371
 21
7709.702971374809
 31
0.0
  0
LINE
  5
1695
330
2E95
100
AcDbEntity
  8
SIZE
 62
     0
100
AcDbLine
 10
-25961.04465488371
 20
7665.70297137481
 30
0.0
 11
-25961.04465488371
 21
7595.302971374808
 31
0.0
  0
INSERT
  5
1696
330
2E95
100
AcDbEntity
  8
SIZE
 62
     0
100
AcDbBlockReference
  2
_DOTBLANK
 10
-25961.04465488371
 20
7685.702971374808
 30
0.0
 41
12.0
 42
12.0
 43
12.0
 50
270.0
  0
INSERT
  5
1697
330
2E95
100
AcDbEntity
  8
SIZE
 62
     0
100
AcDbBlockReference
  2
_DOTBLANK
 10
-25961.04465488371
 20
7677.702971374808
 30
0.0
 41
12.0
 42
12.0
 43
12.0
 50
90.0
  0
INSERT
  5
1698
330
2E95
100
AcDbEntity
  8
0
100
AcDbBlockReference
  2
*U40
 10
0.0
 20
0.0
 30
0.0
  0
POINT
  5
1699
330
2E95
100
AcDbEntity
  8
DEFPOINTS
 62
     0
100
AcDbPoint
 10
-25824.51823276501
 20
7685.702971374808
 30
0.0
  0
POINT
  5
169A
330
2E95
100
AcDbEntity
  8
DEFPOINTS
 62
     0
100
AcDbPoint
 10
-25824.51823276501
 20
7677.702971374808
 30
0.0
  0
POINT
  5
169B
330
2E95
100
AcDbEntity
  8
DEFPOINTS
 62
     0
100
AcDbPoint
 10
-25961.04465488371
 20
7677.702971374808
 30
0.0
  0
ENDBLK
  5
169C
330
2E95
100
AcDbEntity
  8
0
100
AcDbBlockEnd
  0
BLOCK
  5
2E98
330
2E97
100
AcDbEntity
  8
0
100
AcDbBlockBegin
  2
*U40
 70
     1
 10
0.0
 20
0.0
 30
0.0
  3
*U40
  1

  0
TEXT
  5
1F19
330
2E97
100
AcDbEntity
  8
SIZE
 62
     0
100
AcDbText
 10
-25971.04465488371
 20
7605.302971374804
 30
0.0
 40
64.0
  1
8
 50
90.0
 41
0.9
100
AcDbText
  0
ENDBLK
  5
1F1B
330
2E97
100
AcDbEntity
  8
0
100
AcDbBlockEnd
  0
BLOCK
  5
2E9A
330
2E99
100
AcDbEntity
  8
0
100
AcDbBlockBegin
  2
*D41
 70
     1
 10
0.0
 20
0.0
 30
0.0
  3
*D41
  1

  0
LINE
  5
169F
330
2E99
100
AcDbEntity
  8
SIZE
 62
     0
100
AcDbLine
 10
-25512.51823276502
 20
7385.702971374808
 30
0.0
 11
-25362.37494828464
 21
7385.702971374808
 31
0.0
  0
LINE
  5
16A0
330
2E99
100
AcDbEntity
  8
SIZE
 62
     0
100
AcDbLine
 10
-25523.51823276501
 20
7373.702971374808
 30
0.0
 11
-25362.37494828464
 21
7373.702971374808
 31
0.0
  0
LINE
  5
16A1
330
2E99
100
AcDbEntity
  8
SIZE
 62
     0
100
AcDbLine
 10
-25382.37494828464
 20
7397.702971374808
 30
0.0
 11
-25382.37494828464
 21
7409.70297137481
 31
0.0
  0
LINE
  5
16A2
330
2E99
100
AcDbEntity
  8
SIZE
 62
     0
100
AcDbLine
 10
-25382.37494828464
 20
7361.702971374808
 30
0.0
 11
-25382.37494828464
 21
7244.674399946238
 31
0.0
  0
INSERT
  5
16A3
330
2E99
100
AcDbEntity
  8
SIZE
 62
     0
100
AcDbBlockReference
  2
_DOTBLANK
 10
-25382.37494828464
 20
7385.702971374808
 30
0.0
 41
12.0
 42
12.0
 43
12.0
 50
270.0
  0
INSERT
  5
16A4
330
2E99
100
AcDbEntity
  8
SIZE
 62
     0
100
AcDbBlockReference
  2
_DOTBLANK
 10
-25382.37494828464
 20
7373.702971374808
 30
0.0
 41
12.0
 42
12.0
 43
12.0
 50
90.0
  0
INSERT
  5
16A5
330
2E99
100
AcDbEntity
  8
0
100
AcDbBlockReference
  2
*U42
 10
0.0
 20
0.0
 30
0.0
  0
POINT
  5
16A6
330
2E99
100
AcDbEntity
  8
DEFPOINTS
 62
     0
100
AcDbPoint
 10
-25532.51823276502
 20
7385.702971374808
 30
0.0
  0
POINT
  5
16A7
330
2E99
100
AcDbEntity
  8
DEFPOINTS
 62
     0
100
AcDbPoint
 10
-25543.51823276502
 20
7373.702971374808
 30
0.0
  0
POINT
  5
16A8
330
2E99
100
AcDbEntity
  8
DEFPOINTS
 62
     0
100
AcDbPoint
 10
-25382.37494828464
 20
7373.702971374808
 30
0.0
  0
ENDBLK
  5
16A9
330
2E99
100
AcDbEntity
  8
0
100
AcDbBlockEnd
  0
BLOCK
  5
2E9C
330
2E9B
100
AcDbEntity
  8
0
100
AcDbBlockBegin
  2
*U42
 70
     1
 10
0.0
 20
0.0
 30
0.0
  3
*U42
  1

  0
TEXT
  5
1F1D
330
2E9B
100
AcDbEntity
  8
SIZE
 62
     0
100
AcDbText
 10
-25392.37494828464
 20
7256.045828517662
 30
0.0
 40
64.0
  1
12
 50
90.0
 41
0.9
100
AcDbText
  0
ENDBLK
  5
1F1F
330
2E9B
100
AcDbEntity
  8
0
100
AcDbBlockEnd
  0
BLOCK
  5
2E9E
330
2E9D
100
AcDbEntity
  8
0
100
AcDbBlockBegin
  2
*D43
 70
     1
 10
0.0
 20
0.0
 30
0.0
  3
*D43
  1

  0
LINE
  5
16AC
330
2E9D
100
AcDbEntity
  8
SIZE
 62
     0
100
AcDbLine
 10
-25801.51823276501
 20
7365.702971374808
 30
0.0
 11
-25801.51823276501
 21
7217.685576144207
 31
0.0
  0
LINE
  5
16AD
330
2E9D
100
AcDbEntity
  8
SIZE
 62
     0
100
AcDbLine
 10
-25532.51823276502
 20
7365.702971374808
 30
0.0
 11
-25532.51823276502
 21
7217.685576144207
 31
0.0
  0
LINE
  5
16AE
330
2E9D
100
AcDbEntity
  8
SIZE
 62
     0
100
AcDbLine
 10
-25789.51823276502
 20
7237.685576144207
 30
0.0
 11
-25544.51823276501
 21
7237.685576144207
 31
0.0
  0
INSERT
  5
16AF
330
2E9D
100
AcDbEntity
  8
SIZE
 62
     0
100
AcDbBlockReference
  2
_DOTBLANK
 10
-25801.51823276501
 20
7237.685576144207
 30
0.0
 41
12.0
 42
12.0
 43
12.0
 50
180.0
  0
INSERT
  5
16B0
330
2E9D
100
AcDbEntity
  8
SIZE
 62
     0
100
AcDbBlockReference
  2
_DOTBLANK
 10
-25532.51823276502
 20
7237.685576144207
 30
0.0
 41
12.0
 42
12.0
 43
12.0
  0
INSERT
  5
16B1
330
2E9D
100
AcDbEntity
  8
0
100
AcDbBlockReference
  2
*U44
 10
0.0
 20
0.0
 30
0.0
  0
POINT
  5
16B2
330
2E9D
100
AcDbEntity
  8
DEFPOINTS
 62
     0
100
AcDbPoint
 10
-25801.51823276501
 20
7385.702971374808
 30
0.0
  0
POINT
  5
16B3
330
2E9D
100
AcDbEntity
  8
DEFPOINTS
 62
     0
100
AcDbPoint
 10
-25532.51823276502
 20
7385.702971374808
 30
0.0
  0
POINT
  5
16B4
330
2E9D
100
AcDbEntity
  8
DEFPOINTS
 62
     0
100
AcDbPoint
 10
-25532.51823276502
 20
7237.685576144207
 30
0.0
  0
ENDBLK
  5
16B5
330
2E9D
100
AcDbEntity
  8
0
100
AcDbBlockEnd
  0
BLOCK
  5
2EA0
330
2E9F
100
AcDbEntity
  8
0
100
AcDbBlockBegin
  2
*U44
 70
     1
 10
0.0
 20
0.0
 30
0.0
  3
*U44
  1

  0
TEXT
  5
1F21
330
2E9F
100
AcDbEntity
  8
SIZE
 62
     0
100
AcDbText
 10
-25739.70394705074
 20
7247.685576144205
 30
0.0
 40
64.0
  1
269
 41
0.9
100
AcDbText
  0
ENDBLK
  5
1F23
330
2E9F
100
AcDbEntity
  8
0
100
AcDbBlockEnd
  0
BLOCK
  5
2EA2
330
2EA1
100
AcDbEntity
  8
0
100
AcDbBlockBegin
  2
*D45
 70
     1
 10
0.0
 20
0.0
 30
0.0
  3
*D45
  1

  0
LINE
  5
16B8
330
2EA1
100
AcDbEntity
  8
SIZE
 62
     0
100
AcDbLine
 10
-25512.51823276502
 20
7385.702971374808
 30
0.0
 11
-25362.37494828464
 21
7385.702971374808
 31
0.0
  0
LINE
  5
16B9
330
2EA1
100
AcDbEntity
  8
SIZE
 62
     0
100
AcDbLine
 10
-25489.51823276501
 20
7685.702971374808
 30
0.0
 11
-25362.37494828464
 21
7685.702971374808
 31
0.0
  0
LINE
  5
16BA
330
2EA1
100
AcDbEntity
  8
SIZE
 62
     0
100
AcDbLine
 10
-25382.37494828464
 20
7397.702971374808
 30
0.0
 11
-25382.37494828464
 21
7673.702971374808
 31
0.0
  0
INSERT
  5
16BB
330
2EA1
100
AcDbEntity
  8
SIZE
 62
     0
100
AcDbBlockReference
  2
_DOTBLANK
 10
-25382.37494828464
 20
7385.702971374808
 30
0.0
 41
12.0
 42
12.0
 43
12.0
 50
270.0
  0
INSERT
  5
16BC
330
2EA1
100
AcDbEntity
  8
SIZE
 62
     0
100
AcDbBlockReference
  2
_DOTBLANK
 10
-25382.37494828464
 20
7685.702971374808
 30
0.0
 41
12.0
 42
12.0
 43
12.0
 50
90.0
  0
INSERT
  5
16BD
330
2EA1
100
AcDbEntity
  8
0
100
AcDbBlockReference
  2
*U46
 10
0.0
 20
0.0
 30
0.0
  0
POINT
  5
16BE
330
2EA1
100
AcDbEntity
  8
DEFPOINTS
 62
     0
100
AcDbPoint
 10
-25532.51823276502
 20
7385.702971374808
 30
0.0
  0
POINT
  5
16BF
330
2EA1
100
AcDbEntity
  8
DEFPOINTS
 62
     0
100
AcDbPoint
 10
-25509.51823276502
 20
7685.702971374808
 30
0.0
  0
POINT
  5
16C0
330
2EA1
100
AcDbEntity
  8
DEFPOINTS
 62
     0
100
AcDbPoint
 10
-25382.37494828464
 20
7685.702971374808
 30
0.0
  0
ENDBLK
  5
16C1
330
2EA1
100
AcDbEntity
  8
0
100
AcDbBlockEnd
  0
BLOCK
  5
2EA4
330
2EA3
100
AcDbEntity
  8
0
100
AcDbBlockBegin
  2
*U46
 70
     1
 10
0.0
 20
0.0
 30
0.0
  3
*U46
  1

  0
TEXT
  5
1F25
330
2EA3
100
AcDbEntity
  8
SIZE
 62
     0
100
AcDbText
 10
-25392.37494828464
 20
7461.645828517662
 30
0.0
 40
64.0
  1
300
 50
90.0
 41
0.9
100
AcDbText
  0
ENDBLK
  5
1F27
330
2EA3
100
AcDbEntity
  8
0
100
AcDbBlockEnd
  0
BLOCK
  5
2EA6
330
2EA5
100
AcDbEntity
  8
0
100
AcDbBlockBegin
  2
*D47
 70
     1
 10
0.0
 20
0.0
 30
0.0
  3
*D47
  1

  0
LINE
  5
16C4
330
2EA5
100
AcDbEntity
  8
SIZE
 62
     0
100
AcDbLine
 10
-25807.01823276501
 20
7718.167454177002
 30
0.0
 11
-25807.01823276501
 21
7822.154659243358
 31
0.0
  0
LINE
  5
16C5
330
2EA5
100
AcDbEntity
  8
SIZE
 62
     0
100
AcDbLine
 10
-25527.01823276501
 20
7718.167454177002
 30
0.0
 11
-25527.01823276501
 21
7822.154659243358
 31
0.0
  0
LINE
  5
16C6
330
2EA5
100
AcDbEntity
  8
SIZE
 62
     0
100
AcDbLine
 10
-25795.01823276502
 20
7802.154659243358
 30
0.0
 11
-25539.01823276501
 21
7802.154659243358
 31
0.0
  0
INSERT
  5
16C7
330
2EA5
100
AcDbEntity
  8
SIZE
 62
     0
100
AcDbBlockReference
  2
_DOTBLANK
 10
-25807.01823276501
 20
7802.154659243358
 30
0.0
 41
12.0
 42
12.0
 43
12.0
 50
180.0
  0
INSERT
  5
16C8
330
2EA5
100
AcDbEntity
  8
SIZE
 62
     0
100
AcDbBlockReference
  2
_DOTBLANK
 10
-25527.01823276501
 20
7802.154659243358
 30
0.0
 41
12.0
 42
12.0
 43
12.0
  0
INSERT
  5
16C9
330
2EA5
100
AcDbEntity
  8
0
100
AcDbBlockReference
  2
*U48
 10
0.0
 20
0.0
 30
0.0
  0
POINT
  5
16CA
330
2EA5
100
AcDbEntity
  8
DEFPOINTS
 62
     0
100
AcDbPoint
 10
-25807.01823276501
 20
7698.167454177002
 30
0.0
  0
POINT
  5
16CB
330
2EA5
100
AcDbEntity
  8
DEFPOINTS
 62
     0
100
AcDbPoint
 10
-25527.01823276501
 20
7698.167454177002
 30
0.0
  0
POINT
  5
16CC
330
2EA5
100
AcDbEntity
  8
DEFPOINTS
 62
     0
100
AcDbPoint
 10
-25527.01823276501
 20
7802.154659243358
 30
0.0
  0
ENDBLK
  5
16CD
330
2EA5
100
AcDbEntity
  8
0
100
AcDbBlockEnd
  0
BLOCK
  5
2EA8
330
2EA7
100
AcDbEntity
  8
0
100
AcDbBlockBegin
  2
*U48
 70
     1
 10
0.0
 20
0.0
 30
0.0
  3
*U48
  1

  0
TEXT
  5
1F29
330
2EA7
100
AcDbEntity
  8
SIZE
 62
     0
100
AcDbText
 10
-25741.07537562216
 20
7812.154659243358
 30
0.0
 40
64.0
  1
280
 41
0.9
100
AcDbText
  0
ENDBLK
  5
1F2B
330
2EA7
100
AcDbEntity
  8
0
100
AcDbBlockEnd
  0
BLOCK
  5
2EAA
330
2EA9
100
AcDbEntity
  8
0
100
AcDbBlockBegin
  2
*D49
 70
     1
 10
0.0
 20
0.0
 30
0.0
  3
*D49
  1

  0
LINE
  5
16D0
330
2EA9
100
AcDbEntity
  8
SIZE
 62
     0
100
AcDbLine
 10
-25824.51823276501
 20
7705.702971374808
 30
0.0
 11
-25824.51823276501
 21
7931.282433493766
 31
0.0
  0
LINE
  5
16D1
330
2EA9
100
AcDbEntity
  8
SIZE
 62
     0
100
AcDbLine
 10
-25509.51823276502
 20
7705.702971374808
 30
0.0
 11
-25509.51823276502
 21
7931.282433493766
 31
0.0
  0
LINE
  5
16D2
330
2EA9
100
AcDbEntity
  8
SIZE
 62
     0
100
AcDbLine
 10
-25812.51823276502
 20
7911.282433493766
 30
0.0
 11
-25521.51823276501
 21
7911.282433493766
 31
0.0
  0
INSERT
  5
16D3
330
2EA9
100
AcDbEntity
  8
SIZE
 62
     0
100
AcDbBlockReference
  2
_DOTBLANK
 10
-25824.51823276501
 20
7911.282433493766
 30
0.0
 41
12.0
 42
12.0
 43
12.0
 50
180.0
  0
INSERT
  5
16D4
330
2EA9
100
AcDbEntity
  8
SIZE
 62
     0
100
AcDbBlockReference
  2
_DOTBLANK
 10
-25509.51823276502
 20
7911.282433493766
 30
0.0
 41
12.0
 42
12.0
 43
12.0
  0
INSERT
  5
16D5
330
2EA9
100
AcDbEntity
  8
0
100
AcDbBlockReference
  2
*U50
 10
0.0
 20
0.0
 30
0.0
  0
POINT
  5
16D6
330
2EA9
100
AcDbEntity
  8
DEFPOINTS
 62
     0
100
AcDbPoint
 10
-25824.51823276501
 20
7685.702971374808
 30
0.0
  0
POINT
  5
16D7
330
2EA9
100
AcDbEntity
  8
DEFPOINTS
 62
     0
100
AcDbPoint
 10
-25509.51823276502
 20
7685.702971374808
 30
0.0
  0
POINT
  5
16D8
330
2EA9
100
AcDbEntity
  8
DEFPOINTS
 62
     0
100
AcDbPoint
 10
-25509.51823276502
 20
7911.282433493766
 30
0.0
  0
ENDBLK
  5
16D9
330
2EA9
100
AcDbEntity
  8
0
100
AcDbBlockEnd
  0
BLOCK
  5
2EAC
330
2EAB
100
AcDbEntity
  8
0
100
AcDbBlockBegin
  2
*U50
 70
     1
 10
0.0
 20
0.0
 30
0.0
  3
*U50
  1

  0
TEXT
  5
1F2D
330
2EAB
100
AcDbEntity
  8
SIZE
 62
     0
100
AcDbText
 10
-25735.58966133645
 20
7921.282433493766
 30
0.0
 40
64.0
  1
315
 41
0.9
100
AcDbText
  0
ENDBLK
  5
1F2F
330
2EAB
100
AcDbEntity
  8
0
100
AcDbBlockEnd
  0
BLOCK
  5
2EAE
330
2EAD
100
AcDbEntity
  8
0
100
AcDbBlockBegin
  2
*D51
 70
     1
 10
0.0
 20
0.0
 30
0.0
  3
*D51
  1

  0
LINE
  5
1D83
330
2EAD
100
AcDbEntity
  8
SIZE
 62
     0
100
AcDbLine
 10
-134.5
 20
-320.0
 30
0.0
 11
-134.5
 21
-468.0173952306001
 31
0.0
  0
LINE
  5
1D84
330
2EAD
100
AcDbEntity
  8
SIZE
 62
     0
100
AcDbLine
 10
134.5
 20
-320.0
 30
0.0
 11
134.5
 21
-468.0173952306001
 31
0.0
  0
LINE
  5
1D85
330
2EAD
100
AcDbEntity
  8
SIZE
 62
     0
100
AcDbLine
 10
-122.5
 20
-448.0173952306
 30
0.0
 11
122.5
 21
-448.0173952306
 31
0.0
  0
INSERT
  5
1D86
330
2EAD
100
AcDbEntity
  8
SIZE
 62
     0
100
AcDbBlockReference
  2
_DOTBLANK
 10
-134.5
 20
-448.0173952306
 30
0.0
 41
12.0
 42
12.0
 43
12.0
 50
180.0
  0
INSERT
  5
1D87
330
2EAD
100
AcDbEntity
  8
SIZE
 62
     0
100
AcDbBlockReference
  2
_DOTBLANK
 10
134.5
 20
-448.0173952306
 30
0.0
 41
12.0
 42
12.0
 43
12.0
  0
INSERT
  5
1D88
330
2EAD
100
AcDbEntity
  8
0
100
AcDbBlockReference
  2
*U52
 10
0.0
 20
0.0
 30
0.0
  0
POINT
  5
1D89
330
2EAD
100
AcDbEntity
  8
DEFPOINTS
 62
     0
100
AcDbPoint
 10
-134.5
 20
-300.0
 30
0.0
  0
POINT
  5
1D8A
330
2EAD
100
AcDbEntity
  8
DEFPOINTS
 62
     0
100
AcDbPoint
 10
134.5
 20
-300.0
 30
0.0
  0
POINT
  5
1D8B
330
2EAD
100
AcDbEntity
  8
DEFPOINTS
 62
     0
100
AcDbPoint
 10
134.5
 20
-448.0173952306
 30
0.0
  0
ENDBLK
  5
173D
330
2EAD
100
AcDbEntity
  8
0
100
AcDbBlockEnd
  0
BLOCK
  5
2EB0
330
2EAF
100
AcDbEntity
  8
0
100
AcDbBlockBegin
  2
*U52
 70
     1
 10
0.0
 20
0.0
 30
0.0
  3
*U52
  1

  0
TEXT
  5
1F31
330
2EAF
100
AcDbEntity
  8
SIZE
 62
     0
100
AcDbText
 10
-72.68571428571426
 20
-438.0173952306003
 30
0.0
 40
64.0
  1
269
 41
0.9
100
AcDbText
  0
ENDBLK
  5
1F33
330
2EAF
100
AcDbEntity
  8
0
100
AcDbBlockEnd
  0
BLOCK
  5
2EB2
330
2EB1
100
AcDbEntity
  8
0
100
AcDbBlockBegin
  2
*D53
 70
     1
 10
0.0
 20
0.0
 30
0.0
  3
*D53
  1

  0
LINE
  5
1D8C
330
2EB1
100
AcDbEntity
  8
SIZE
 62
     0
100
AcDbLine
 10
154.5
 20
-300.0
 30
0.0
 11
304.6432844803784
 21
-300.0
 31
0.0
  0
LINE
  5
1D8D
330
2EB1
100
AcDbEntity
  8
SIZE
 62
     0
100
AcDbLine
 10
177.5
 20
-0.0000000000000057
 30
0.0
 11
304.6432844803785
 21
-0.0000000000000417
 31
0.0
  0
LINE
  5
1D8E
330
2EB1
100
AcDbEntity
  8
SIZE
 62
     0
100
AcDbLine
 10
284.6432844803784
 20
-288.0
 30
0.0
 11
284.6432844803785
 21
-12.00000000000003
 31
0.0
  0
INSERT
  5
1D8F
330
2EB1
100
AcDbEntity
  8
SIZE
 62
     0
100
AcDbBlockReference
  2
_DOTBLANK
 10
284.6432844803784
 20
-300.0
 30
0.0
 41
12.0
 42
12.0
 43
12.0
 50
270.0
  0
INSERT
  5
1D90
330
2EB1
100
AcDbEntity
  8
SIZE
 62
     0
100
AcDbBlockReference
  2
_DOTBLANK
 10
284.6432844803785
 20
-0.000000000000036
 30
0.0
 41
12.0
 42
12.0
 43
12.0
 50
90.0
  0
INSERT
  5
1D91
330
2EB1
100
AcDbEntity
  8
0
100
AcDbBlockReference
  2
*U54
 10
0.0
 20
0.0
 30
0.0
  0
POINT
  5
1D92
330
2EB1
100
AcDbEntity
  8
DEFPOINTS
 62
     0
100
AcDbPoint
 10
134.5
 20
-300.0
 30
0.0
  0
POINT
  5
1D93
330
2EB1
100
AcDbEntity
  8
DEFPOINTS
 62
     0
100
AcDbPoint
 10
157.5
 20
0.0
 30
0.0
  0
POINT
  5
1D94
330
2EB1
100
AcDbEntity
  8
DEFPOINTS
 62
     0
100
AcDbPoint
 10
284.6432844803785
 20
-0.000000000000036
 30
0.0
  0
ENDBLK
  5
1749
330
2EB1
100
AcDbEntity
  8
0
100
AcDbBlockEnd
  0
BLOCK
  5
2EB4
330
2EB3
100
AcDbEntity
  8
0
100
AcDbBlockBegin
  2
*U54
 70
     1
 10
0.0
 20
0.0
 30
0.0
  3
*U54
  1

  0
TEXT
  5
1F35
330
2EB3
100
AcDbEntity
  8
SIZE
 62
     0
100
AcDbText
 10
274.6432844803785
 20
-224.0571428571429
 30
0.0
 40
64.0
  1
300
 50
90.0
 41
0.9
100
AcDbText
  0
ENDBLK
  5
1F37
330
2EB3
100
AcDbEntity
  8
0
100
AcDbBlockEnd
  0
BLOCK
  5
2EB6
330
2EB5
100
AcDbEntity
  8
0
100
AcDbBlockBegin
  2
*D55
 70
     1
 10
0.0
 20
0.0
 30
0.0
  3
*D55
  1

  0
LINE
  5
1D95
330
2EB5
100
AcDbEntity
  8
SIZE
 62
     0
100
AcDbLine
 10
-140.0
 20
32.46448280219375
 30
0.0
 11
-140.0
 21
136.4516878685508
 31
0.0
  0
LINE
  5
1D96
330
2EB5
100
AcDbEntity
  8
SIZE
 62
     0
100
AcDbLine
 10
140.0
 20
32.46448280219375
 30
0.0
 11
140.0
 21
136.4516878685508
 31
0.0
  0
LINE
  5
1D97
330
2EB5
100
AcDbEntity
  8
SIZE
 62
     0
100
AcDbLine
 10
-128.0
 20
116.4516878685508
 30
0.0
 11
128.0
 21
116.4516878685508
 31
0.0
  0
INSERT
  5
1D98
330
2EB5
100
AcDbEntity
  8
SIZE
 62
     0
100
AcDbBlockReference
  2
_DOTBLANK
 10
-140.0
 20
116.4516878685508
 30
0.0
 41
12.0
 42
12.0
 43
12.0
 50
180.0
  0
INSERT
  5
1D99
330
2EB5
100
AcDbEntity
  8
SIZE
 62
     0
100
AcDbBlockReference
  2
_DOTBLANK
 10
140.0
 20
116.4516878685508
 30
0.0
 41
12.0
 42
12.0
 43
12.0
  0
INSERT
  5
1D9A
330
2EB5
100
AcDbEntity
  8
0
100
AcDbBlockReference
  2
*U56
 10
0.0
 20
0.0
 30
0.0
  0
POINT
  5
1D9B
330
2EB5
100
AcDbEntity
  8
DEFPOINTS
 62
     0
100
AcDbPoint
 10
-140.0
 20
12.46448280219374
 30
0.0
  0
POINT
  5
1D9C
330
2EB5
100
AcDbEntity
  8
DEFPOINTS
 62
     0
100
AcDbPoint
 10
140.0
 20
12.46448280219374
 30
0.0
  0
POINT
  5
1D9D
330
2EB5
100
AcDbEntity
  8
DEFPOINTS
 62
     0
100
AcDbPoint
 10
140.0
 20
116.4516878685508
 30
0.0
  0
ENDBLK
  5
1755
330
2EB5
100
AcDbEntity
  8
0
100
AcDbBlockEnd
  0
BLOCK
  5
2EB8
330
2EB7
100
AcDbEntity
  8
0
100
AcDbBlockBegin
  2
*U56
 70
     1
 10
0.0
 20
0.0
 30
0.0
  3
*U56
  1

  0
TEXT
  5
1F39
330
2EB7
100
AcDbEntity
  8
SIZE
 62
     0
100
AcDbText
 10
-74.05714285714283
 20
126.4516878685508
 30
0.0
 40
64.0
  1
280
 41
0.9
100
AcDbText
  0
ENDBLK
  5
1F3B
330
2EB7
100
AcDbEntity
  8
0
100
AcDbBlockEnd
  0
BLOCK
  5
2EBA
330
2EB9
100
AcDbEntity
  8
0
100
AcDbBlockBegin
  2
*D57
 70
     1
 10
0.0
 20
0.0
 30
0.0
  3
*D57
  1

  0
LINE
  5
1D9E
330
2EB9
100
AcDbEntity
  8
SIZE
 62
     0
100
AcDbLine
 10
-157.5
 20
20.0
 30
0.0
 11
-157.5
 21
245.5794621189598
 31
0.0
  0
LINE
  5
1D9F
330
2EB9
100
AcDbEntity
  8
SIZE
 62
     0
100
AcDbLine
 10
157.5
 20
20.0
 30
0.0
 11
157.5
 21
245.5794621189598
 31
0.0
  0
LINE
  5
1DA0
330
2EB9
100
AcDbEntity
  8
SIZE
 62
     0
100
AcDbLine
 10
-145.5
 20
225.5794621189598
 30
0.0
 11
145.5
 21
225.5794621189598
 31
0.0
  0
INSERT
  5
1DA1
330
2EB9
100
AcDbEntity
  8
SIZE
 62
     0
100
AcDbBlockReference
  2
_DOTBLANK
 10
-157.5
 20
225.5794621189598
 30
0.0
 41
12.0
 42
12.0
 43
12.0
 50
180.0
  0
INSERT
  5
1DA2
330
2EB9
100
AcDbEntity
  8
SIZE
 62
     0
100
AcDbBlockReference
  2
_DOTBLANK
 10
157.5
 20
225.5794621189598
 30
0.0
 41
12.0
 42
12.0
 43
12.0
  0
INSERT
  5
1DA3
330
2EB9
100
AcDbEntity
  8
0
100
AcDbBlockReference
  2
*U58
 10
0.0
 20
0.0
 30
0.0
  0
POINT
  5
1DA4
330
2EB9
100
AcDbEntity
  8
DEFPOINTS
 62
     0
100
AcDbPoint
 10
-157.5
 20
0.0
 30
0.0
  0
POINT
  5
1DA5
330
2EB9
100
AcDbEntity
  8
DEFPOINTS
 62
     0
100
AcDbPoint
 10
157.5
 20
0.0
 30
0.0
  0
POINT
  5
1DA6
330
2EB9
100
AcDbEntity
  8
DEFPOINTS
 62
     0
100
AcDbPoint
 10
157.5
 20
225.5794621189598
 30
0.0
  0
ENDBLK
  5
1761
330
2EB9
100
AcDbEntity
  8
0
100
AcDbBlockEnd
  0
BLOCK
  5
2EBC
330
2EBB
100
AcDbEntity
  8
0
100
AcDbBlockBegin
  2
*U58
 70
     1
 10
0.0
 20
0.0
 30
0.0
  3
*U58
  1

  0
TEXT
  5
1F3D
330
2EBB
100
AcDbEntity
  8
SIZE
 62
     0
100
AcDbText
 10
-68.57142857142857
 20
235.5794621189599
 30
0.0
 40
64.0
  1
315
 41
0.9
100
AcDbText
  0
ENDBLK
  5
1F3F
330
2EBB
100
AcDbEntity
  8
0
100
AcDbBlockEnd
  0
BLOCK
  5
2EBE
330
2EBD
100
AcDbEntity
  8
0
100
AcDbBlockBegin
  2
*D59
 70
     1
 10
0.0
 20
0.0
 30
0.0
  3
*D59
  1

  0
LINE
  5
1DA7
330
2EBD
100
AcDbEntity
  8
SIZE
 62
     0
100
AcDbLine
 10
-177.5
 20
0.0000000000000057
 30
0.0
 11
-314.0264221186908
 21
0.0000000000000443
 31
0.0
  0
LINE
  5
1DA8
330
2EBD
100
AcDbEntity
  8
SIZE
 62
     0
100
AcDbLine
 10
-177.5
 20
-7.999999999999992
 30
0.0
 11
-314.0264221186908
 21
-7.999999999999957
 31
0.0
  0
LINE
  5
1DA9
330
2EBD
100
AcDbEntity
  8
SIZE
 62
     0
100
AcDbLine
 10
-294.0264221186908
 20
12.00000000000003
 30
0.0
 11
-294.0264221186908
 21
24.00000000000004
 31
0.0
  0
LINE
  5
1DAA
330
2EBD
100
AcDbEntity
  8
SIZE
 62
     0
100
AcDbLine
 10
-294.0264221186908
 20
-19.99999999999996
 30
0.0
 11
-294.0264221186908
 21
-90.39999999999997
 31
0.0
  0
INSERT
  5
1DAB
330
2EBD
100
AcDbEntity
  8
SIZE
 62
     0
100
AcDbBlockReference
  2
_DOTBLANK
 10
-294.0264221186908
 20
0.0000000000000387
 30
0.0
 41
12.0
 42
12.0
 43
12.0
 50
270.0
  0
INSERT
  5
1DAC
330
2EBD
100
AcDbEntity
  8
SIZE
 62
     0
100
AcDbBlockReference
  2
_DOTBLANK
 10
-294.0264221186908
 20
-7.999999999999959
 30
0.0
 41
12.0
 42
12.0
 43
12.0
 50
90.0
  0
INSERT
  5
1DAD
330
2EBD
100
AcDbEntity
  8
0
100
AcDbBlockReference
  2
*U60
 10
0.0
 20
0.0
 30
0.0
  0
POINT
  5
1DAE
330
2EBD
100
AcDbEntity
  8
DEFPOINTS
 62
     0
100
AcDbPoint
 10
-157.5
 20
0.0
 30
0.0
  0
POINT
  5
1DAF
330
2EBD
100
AcDbEntity
  8
DEFPOINTS
 62
     0
100
AcDbPoint
 10
-157.5
 20
-8.000000000000001
 30
0.0
  0
POINT
  5
1DB0
330
2EBD
100
AcDbEntity
  8
DEFPOINTS
 62
     0
100
AcDbPoint
 10
-294.0264221186908
 20
-7.999999999999959
 30
0.0
  0
ENDBLK
  5
176D
330
2EBD
100
AcDbEntity
  8
0
100
AcDbBlockEnd
  0
BLOCK
  5
2EC0
330
2EBF
100
AcDbEntity
  8
0
100
AcDbBlockBegin
  2
*U60
 70
     1
 10
0.0
 20
0.0
 30
0.0
  3
*U60
  1

  0
TEXT
  5
1F41
330
2EBF
100
AcDbEntity
  8
SIZE
 62
     0
100
AcDbText
 10
-304.0264221186908
 20
-80.4
 30
0.0
 40
64.0
  1
8
 50
90.0
 41
0.9
100
AcDbText
  0
ENDBLK
  5
1F43
330
2EBF
100
AcDbEntity
  8
0
100
AcDbBlockEnd
  0
BLOCK
  5
2EC2
330
2EC1
100
AcDbEntity
  8
0
100
AcDbBlockBegin
  2
*D61
 70
     1
 10
0.0
 20
0.0
 30
0.0
  3
*D61
  1

  0
LINE
  5
1DB1
330
2EC1
100
AcDbEntity
  8
SIZE
 62
     0
100
AcDbLine
 10
154.5
 20
-300.0
 30
0.0
 11
304.6432844803785
 21
-300.0
 31
0.0
  0
LINE
  5
1DB2
330
2EC1
100
AcDbEntity
  8
SIZE
 62
     0
100
AcDbLine
 10
143.5
 20
-312.0
 30
0.0
 11
304.6432844803785
 21
-312.0
 31
0.0
  0
LINE
  5
1DB3
330
2EC1
100
AcDbEntity
  8
SIZE
 62
     0
100
AcDbLine
 10
284.6432844803785
 20
-288.0
 30
0.0
 11
284.6432844803785
 21
-276.0
 31
0.0
  0
LINE
  5
1DB4
330
2EC1
100
AcDbEntity
  8
SIZE
 62
     0
100
AcDbLine
 10
284.6432844803785
 20
-324.0000000000001
 30
0.0
 11
284.6432844803784
 21
-438.2857142857143
 31
0.0
  0
INSERT
  5
1DB5
330
2EC1
100
AcDbEntity
  8
SIZE
 62
     0
100
AcDbBlockReference
  2
_DOTBLANK
 10
284.6432844803785
 20
-300.0
 30
0.0
 41
12.0
 42
12.0
 43
12.0
 50
270.0
  0
INSERT
  5
1DB6
330
2EC1
100
AcDbEntity
  8
SIZE
 62
     0
100
AcDbBlockReference
  2
_DOTBLANK
 10
284.6432844803785
 20
-312.0
 30
0.0
 41
12.0
 42
12.0
 43
12.0
 50
90.0
  0
INSERT
  5
1DB7
330
2EC1
100
AcDbEntity
  8
0
100
AcDbBlockReference
  2
*U62
 10
0.0
 20
0.0
 30
0.0
  0
POINT
  5
1DB8
330
2EC1
100
AcDbEntity
  8
DEFPOINTS
 62
     0
100
AcDbPoint
 10
134.5
 20
-300.0
 30
0.0
  0
POINT
  5
1DB9
330
2EC1
100
AcDbEntity
  8
DEFPOINTS
 62
     0
100
AcDbPoint
 10
123.5
 20
-312.0
 30
0.0
  0
POINT
  5
1DBA
330
2EC1
100
AcDbEntity
  8
DEFPOINTS
 62
     0
100
AcDbPoint
 10
284.6432844803785
 20
-312.0
 30
0.0
  0
ENDBLK
  5
177B
330
2EC1
100
AcDbEntity
  8
0
100
AcDbBlockEnd
  0
BLOCK
  5
2EC4
330
2EC3
100
AcDbEntity
  8
0
100
AcDbBlockBegin
  2
*U62
 70
     1
 10
0.0
 20
0.0
 30
0.0
  3
*U62
  1

  0
TEXT
  5
1F45
330
2EC3
100
AcDbEntity
  8
SIZE
 62
     0
100
AcDbText
 10
274.6432844803785
 20
-428.2857142857142
 30
0.0
 40
64.0
  1
12
 50
90.0
 41
0.9
100
AcDbText
  0
ENDBLK
  5
1F47
330
2EC3
100
AcDbEntity
  8
0
100
AcDbBlockEnd
  0
BLOCK
  5
2EC6
330
2EC5
100
AcDbEntity
  8
0
100
AcDbBlockBegin
  2
*U63
 70
     1
 10
0.0
 20
0.0
 30
0.0
  3
*U63
  1

  0
ENDBLK
  5
1D57
330
2EC5
100
AcDbEntity
  8
0
100
AcDbBlockEnd
  0
BLOCK
  5
2EC8
330
2EC7
100
AcDbEntity
  8
0
100
AcDbBlockBegin
  2
*U64
 70
     1
 10
0.0
 20
0.0
 30
0.0
  3
*U64
  1

  0
INSERT
  5
2088
330
2EC7
100
AcDbEntity
  8
NOTE
100
AcDbBlockReference
  2
_OPEN30
 10
-140.0
 20
0.0
 30
0.0
 41
12.0
 42
12.0
 43
12.0
 50
312.6090116116894
  0
POLYLINE
  5
2089
330
2EC7
100
AcDbEntity
  8
NOTE
100
AcDb2dPolyline
 66
     1
 10
0.0
 20
0.0
 30
0.0
  0
VERTEX
  5
2124
330
2089
100
AcDbEntity
  8
NOTE
100
AcDbVertex
100
AcDb2dVertex
 10
-148.1239008361894
 20
8.831887408915473
 30
0.0
  0
VERTEX
  5
2125
330
2089
100
AcDbEntity
  8
NOTE
100
AcDbVertex
100
AcDb2dVertex
 10
-227.8693999922543
 20
95.52709505801338
 30
0.0
  0
VERTEX
  5
2126
330
2089
100
AcDbEntity
  8
NOTE
100
AcDbVertex
100
AcDb2dVertex
 10
-773.7093999922541
 20
95.52709505801338
 30
0.0
  0
SEQEND
  5
2127
330
2089
100
AcDbEntity
  8
NOTE
  0
ENDBLK
  5
208A
330
2EC7
100
AcDbEntity
  8
0
100
AcDbBlockEnd
  0
BLOCK
  5
2ECA
330
2EC9
100
AcDbEntity
  8
0
100
AcDbBlockBegin
  2
*U65
 70
     1
 10
0.0
 20
0.0
 30
0.0
  3
*U65
  1

  0
TEXT
  5
208D
330
2EC9
100
AcDbEntity
  8
NOTE
100
AcDbText
 10
-773.7093999922541
 20
113.5270950580134
 30
0.0
 40
64.0
  1
4×φ10取付穴
 41
0.9
100
AcDbText
  0
ENDBLK
  5
208E
330
2EC9
100
AcDbEntity
  8
0
100
AcDbBlockEnd
  0
BLOCK
  5
2ECC
330
2ECB
100
AcDbEntity
  8
0
100
AcDbBlockBegin
  2
*U66
 70
     1
 10
0.0
 20
0.0
 30
0.0
  3
*U66
  1

  0
INSERT
  5
25A0
330
2ECB
100
AcDbEntity
  8
NOTE
100
AcDbBlockReference
  2
_OPEN30
 10
-325.0
 20
0.0
 30
0.0
 41
12.0
 42
12.0
 43
12.0
 50
312.6090116116894
  0
POLYLINE
  5
25A1
330
2ECB
100
AcDbEntity
  8
NOTE
100
AcDb2dPolyline
 66
     1
 10
0.0
 20
0.0
 30
0.0
  0
VERTEX
  5
25A2
330
25A1
100
AcDbEntity
  8
NOTE
100
AcDbVertex
100
AcDb2dVertex
 10
-333.1239008361895
 20
8.831887408915473
 30
0.0
  0
VERTEX
  5
25A3
330
25A1
100
AcDbEntity
  8
NOTE
100
AcDbVertex
100
AcDb2dVertex
 10
-412.8693999922543
 20
95.52709505801338
 30
0.0
  0
VERTEX
  5
25A4
330
25A1
100
AcDbEntity
  8
NOTE
100
AcDbVertex
100
AcDb2dVertex
 10
-958.7093999922544
 20
95.52709505801338
 30
0.0
  0
SEQEND
  5
25A5
330
25A1
100
AcDbEntity
  8
NOTE
  0
ENDBLK
  5
25A6
330
2ECB
100
AcDbEntity
  8
0
100
AcDbBlockEnd
  0
BLOCK
  5
2ECE
330
2ECD
100
AcDbEntity
  8
0
100
AcDbBlockBegin
  2
*U67
 70
     1
 10
0.0
 20
0.0
 30
0.0
  3
*U67
  1

  0
TEXT
  5
25A9
330
2ECD
100
AcDbEntity
  8
NOTE
100
AcDbText
 10
-958.7093999922544
 20
113.5270950580134
 30
0.0
 40
64.0
  1
4×φ15取付穴
 41
0.9
100
AcDbText
  0
ENDBLK
  5
25AA
330
2ECD
100
AcDbEntity
  8
0
100
AcDbBlockEnd
  0
BLOCK
  5
30A2
330
30A1
100
AcDbEntity
  8
0
100
AcDbBlockBegin
  2
*U68
 70
     1
 10
0.0
 20
0.0
 30
0.0
  3
*U68
  1

  0
ENDBLK
  5
30A3
330
30A1
100
AcDbEntity
  8
0
100
AcDbBlockEnd
  0
BLOCK
  5
320D
330
320C
100
AcDbEntity
  8
0
100
AcDbBlockBegin
  2
*U69
 70
     1
 10
0.0
 20
0.0
 30
0.0
  3
*U69
  1

  0
ENDBLK
  5
320E
330
320C
100
AcDbEntity
  8
0
100
AcDbBlockEnd
  0
BLOCK
  5
32ED
330
32EC
100
AcDbEntity
  8
0
100
AcDbBlockBegin
  2
*U70
 70
     1
 10
0.0
 20
0.0
 30
0.0
  3
*U70
  1

  0
ENDBLK
  5
32EE
330
32EC
100
AcDbEntity
  8
0
100
AcDbBlockEnd
  0
ENDSEC
  0
SECTION
  2
ENTITIES
  0
TEXT
  5
953
330
2DFB
100
AcDbEntity
  8
OUTLINE
  6
Continuous
 62
     3
100
AcDbText
 10
-418.231467
 20
13.715189
 30
0.0
 40
64.0
  1
 
 41
0.9
100
AcDbText
  0
TEXT
  5
954
330
2DFB
100
AcDbEntity
  8
OUTLINE
  6
Continuous
 62
     3
100
AcDbText
 10
-418.231467
 20
13.715189
 30
0.0
 40
64.0
  1
 
 41
0.9
100
AcDbText
  0
TEXT
  5
955
330
2DFB
100
AcDbEntity
  8
OUTLINE
  6
Continuous
 62
     3
100
AcDbText
 10
1341.41903
 20
-706.0588199999997
 30
0.0
 40
64.0
  1
 
 41
0.9
100
AcDbText
  0
TEXT
  5
956
330
2DFB
100
AcDbEntity
  8
OUTLINE
  6
Continuous
 62
     3
100
AcDbText
 10
1341.41903
 20
-706.0588199999997
 30
0.0
 40
64.0
  1
 
 41
0.9
100
AcDbText
  0
TEXT
  5
957
330
2DFB
100
AcDbEntity
  8
OUTLINE
  6
Continuous
 62
     3
100
AcDbText
 10
1341.41903
 20
-706.0588199999997
 30
0.0
 40
64.0
  1
 
 41
0.9
100
AcDbText
  0
TEXT
  5
958
330
2DFB
100
AcDbEntity
  8
OUTLINE
  6
Continuous
 62
     3
100
AcDbText
 10
1341.41903
 20
-706.0588199999997
 30
0.0
 40
64.0
  1
 
 41
0.9
100
AcDbText
  0
TEXT
  5
3119
330
2DFB
100
AcDbEntity
  8
ETC
100
AcDbText
 10
-506.4025644124113
 20
1406.996071675856
 30
0.0
 40
64.0
  1
システム部材
 41
0.9
100
AcDbText
  0
POINT
  5
311A
330
2DFB
100
AcDbEntity
  8
ARRANGE
100
AcDbPoint
 10
-762.649395304058
 20
1003.655771598821
 30
0.0
 39
50.0
  0
CIRCLE
  5
311B
330
2DFB
100
AcDbEntity
  8
ARRANGE
100
AcDbCircle
 10
-762.649395304058
 20
1003.655771598821
 30
0.0
 40
40.0
  0
LINE
  5
311C
330
2DFB
100
AcDbEntity
  8
BASIS
100
AcDbLine
 10
-762.649395304058
 20
1028.655771598821
 30
0.0
 11
-762.649395304058
 21
376.6557715988215
 31
0.0
  0
LINE
  5
311D
330
2DFB
100
AcDbEntity
  8
SIZE
100
AcDbLine
 10
-431.1493953040581
 20
401.6557715988215
 30
0.0
 11
-227.8605615157876
 21
401.6557715988206
 31
0.0
  0
LINE
  5
311E
330
2DFB
100
AcDbEntity
  8
SIZE
100
AcDbLine
 10
-397.6493953040582
 20
1003.655771598821
 30
0.0
 11
-227.8605615157876
 21
1003.65577159882
 31
0.0
  0
LINE
  5
311F
330
2DFB
100
AcDbEntity
  8
SIZE
100
AcDbLine
 10
-247.8605615157876
 20
413.6557715988206
 30
0.0
 11
-247.8605615157876
 21
991.6557715988206
 31
0.0
  0
INSERT
  5
3120
330
2DFB
100
AcDbEntity
  8
SIZE
100
AcDbBlockReference
  2
_DOTBLANK
 10
-247.8605615157876
 20
401.6557715988206
 30
0.0
 41
12.0
 42
12.0
 43
12.0
 50
270.0
  0
INSERT
  5
3121
330
2DFB
100
AcDbEntity
  8
SIZE
100
AcDbBlockReference
  2
_DOTBLANK
 10
-247.8605615157876
 20
1003.65577159882
 30
0.0
 41
12.0
 42
12.0
 43
12.0
 50
90.0
  0
MTEXT
  5
3122
330
2DFB
100
AcDbEntity
  8
SIZE
100
AcDbMText
 10
-289.8605615157894
 20
702.0557715988229
 30
0.0
 40
64.0
 41
0.0
 46
0.0
 71
     5
 72
     1
  1
\A1;602
 11
0.0000000000000001
 21
1.0
 31
0.0
 73
     1
 44
1.0
  0
LINE
  5
3123
330
2DFB
100
AcDbEntity
  8
SIZE
100
AcDbLine
 10
-1087.649395304058
 20
1036.155771598821
 30
0.0
 11
-1087.649395304058
 21
1157.625866267209
 31
0.0
  0
LINE
  5
3124
330
2DFB
100
AcDbEntity
  8
SIZE
100
AcDbLine
 10
-437.6493953040578
 20
1036.155771598821
 30
0.0
 11
-437.6493953040578
 21
1157.625866267209
 31
0.0
  0
LINE
  5
3125
330
2DFB
100
AcDbEntity
  8
SIZE
100
AcDbLine
 10
-1075.649395304058
 20
1137.625866267209
 30
0.0
 11
-449.6493953040578
 21
1137.625866267209
 31
0.0
  0
INSERT
  5
3126
330
2DFB
100
AcDbEntity
  8
SIZE
100
AcDbBlockReference
  2
_DOTBLANK
 10
-1087.649395304058
 20
1137.625866267209
 30
0.0
 41
12.0
 42
12.0
 43
12.0
 50
180.0
  0
INSERT
  5
3127
330
2DFB
100
AcDbEntity
  8
SIZE
100
AcDbBlockReference
  2
_DOTBLANK
 10
-437.6493953040578
 20
1137.625866267209
 30
0.0
 41
12.0
 42
12.0
 43
12.0
  0
MTEXT
  5
3128
330
2DFB
100
AcDbEntity
  8
SIZE
100
AcDbMText
 10
-762.649395304058
 20
1179.625866267209
 30
0.0
 40
64.0
 41
0.0
 46
0.0
 71
     5
 72
     1
  1
\A1;650
 73
     1
 44
1.0
  0
LINE
  5
3129
330
2DFB
100
AcDbEntity
  8
SIZE
100
AcDbLine
 10
-1107.64939530406
 20
1023.655771598821
 30
0.0
 11
-1107.64939530406
 21
1268.233484848469
 31
0.0
  0
LINE
  5
312A
330
2DFB
100
AcDbEntity
  8
SIZE
100
AcDbLine
 10
-417.6493953040581
 20
1023.655771598821
 30
0.0
 11
-417.6493953040581
 21
1268.233484848469
 31
0.0
  0
LINE
  5
312B
330
2DFB
100
AcDbEntity
  8
SIZE
100
AcDbLine
 10
-1095.64939530406
 20
1248.233484848469
 30
0.0
 11
-429.6493953040578
 21
1248.233484848469
 31
0.0
  0
INSERT
  5
312C
330
2DFB
100
AcDbEntity
  8
SIZE
100
AcDbBlockReference
  2
_DOTBLANK
 10
-1107.64939530406
 20
1248.233484848469
 30
0.0
 41
12.0
 42
12.0
 43
12.0
 50
180.0
  0
INSERT
  5
312D
330
2DFB
100
AcDbEntity
  8
SIZE
100
AcDbBlockReference
  2
_DOTBLANK
 10
-417.6493953040581
 20
1248.233484848469
 30
0.0
 41
12.0
 42
12.0
 43
12.0
  0
MTEXT
  5
312E
330
2DFB
100
AcDbEntity
  8
SIZE
100
AcDbMText
 10
-762.649395304058
 20
1290.233484848469
 30
0.0
 40
64.0
 41
0.0
 46
0.0
 71
     5
 72
     1
  1
\A1;690
 73
     1
 44
1.0
  0
LINE
  5
312F
330
2DFB
100
AcDbEntity
  8
SIZE
100
AcDbLine
 10
-1074.149395304058
 20
381.6557715988215
 30
0.0
 11
-1074.149395304058
 21
176.662588557659
 31
0.0
  0
LINE
  5
3130
330
2DFB
100
AcDbEntity
  8
SIZE
100
AcDbLine
 10
-451.1493953040581
 20
381.6557715988215
 30
0.0
 11
-451.1493953040581
 21
176.662588557659
 31
0.0
  0
LINE
  5
3131
330
2DFB
100
AcDbEntity
  8
SIZE
100
AcDbLine
 10
-1062.149395304058
 20
196.662588557659
 30
0.0
 11
-463.1493953040581
 21
196.662588557659
 31
0.0
  0
INSERT
  5
3132
330
2DFB
100
AcDbEntity
  8
SIZE
100
AcDbBlockReference
  2
_DOTBLANK
 10
-1074.149395304058
 20
196.662588557659
 30
0.0
 41
12.0
 42
12.0
 43
12.0
 50
180.0
  0
INSERT
  5
3133
330
2DFB
100
AcDbEntity
  8
SIZE
100
AcDbBlockReference
  2
_DOTBLANK
 10
-451.1493953040581
 20
196.662588557659
 30
0.0
 41
12.0
 42
12.0
 43
12.0
  0
MTEXT
  5
3134
330
2DFB
100
AcDbEntity
  8
SIZE
100
AcDbMText
 10
-762.649395304058
 20
238.6625885576591
 30
0.0
 40
64.0
 41
0.0
 46
0.0
 71
     5
 72
     1
  1
\A1;623
 73
     1
 44
1.0
  0
TEXT
  5
3135
330
2DFB
100
AcDbEntity
  8
ETC
100
AcDbText
 10
-500.1945664124114
 20
1507.879397675855
 30
0.0
 40
64.0
  1
W-60TDBCM_1
 41
0.9
100
AcDbText
  0
LINE
  5
3136
330
2DFB
100
AcDbEntity
  8
DETAIL
100
AcDbLine
 10
-1074.149395304058
 20
401.6557715988215
 30
0.0
 11
-1074.149395304058
 21
991.6557715988217
 31
0.0
  0
LINE
  5
3137
330
2DFB
100
AcDbEntity
  8
DETAIL
100
AcDbLine
 10
-451.1493953040581
 20
401.6557715988215
 30
0.0
 11
-451.1493953040581
 21
991.6557715988231
 31
0.0
  0
LINE
  5
3138
330
2DFB
100
AcDbEntity
  8
DETAIL
100
AcDbLine
 10
-451.1493953040581
 20
401.6557715988215
 30
0.0
 11
-1074.149395304058
 21
401.6557715988215
 31
0.0
  0
LINE
  5
3139
330
2DFB
100
AcDbEntity
  8
DETAIL
100
AcDbLine
 10
-619.1493953040581
 20
401.6557715988215
 30
0.0
 11
-482.6493953040579
 21
401.6557715988215
 31
0.0
  0
LINE
  5
313A
330
2DFB
100
AcDbEntity
  8
DETAIL
100
AcDbLine
 10
-1107.64939530406
 20
1003.655771598821
 30
0.0
 11
-417.6493953040581
 21
1003.655771598821
 31
0.0
  0
LINE
  5
313B
330
2DFB
100
AcDbEntity
  8
DETAIL
100
AcDbLine
 10
-1107.64939530406
 20
991.6557715988231
 30
0.0
 11
-417.6493953040581
 21
991.6557715988231
 31
0.0
  0
LINE
  5
313C
330
2DFB
100
AcDbEntity
  8
DETAIL
100
AcDbLine
 10
-1074.149395304058
 20
856.6557715988215
 30
0.0
 11
-1074.149395304058
 21
991.6557715988231
 31
0.0
  0
LINE
  5
313D
330
2DFB
100
AcDbEntity
  8
DETAIL
100
AcDbLine
 10
-1107.649395304058
 20
991.6557715988231
 30
0.0
 11
-1107.649395304058
 21
1003.655771598821
 31
0.0
  0
LINE
  5
313E
330
2DFB
100
AcDbEntity
  8
NOTE
100
AcDbLine
 10
-1087.649395304058
 20
1016.155771598821
 30
0.0
 11
-1087.649395304058
 21
991.1557715988214
 31
0.0
  0
LINE
  5
313F
330
2DFB
100
AcDbEntity
  8
NOTE
100
AcDbLine
 10
-437.6493953040578
 20
991.1557715988214
 30
0.0
 11
-437.6493953040578
 21
1016.155771598821
 31
0.0
  0
LINE
  5
3140
330
2DFB
100
AcDbEntity
  8
DETAIL
100
AcDbLine
 10
-417.6493953040581
 20
991.6557715988231
 30
0.0
 11
-417.6493953040581
 21
1003.655771598821
 31
0.0
  0
TEXT
  5
3141
330
2DFB
100
AcDbEntity
  8
ETC
100
AcDbText
 10
-506.4025644124113
 20
1306.996071675855
 30
0.0
 40
64.0
  1
W-60TDBCM
 41
0.9
100
AcDbText
  0
INSERT
  5
3142
330
2DFB
100
AcDbEntity
  8
NOTE
100
AcDbBlockReference
  2
_OPEN30
 10
-1087.649395304058
 20
1003.655771598821
 30
0.0
 41
12.00000000000029
 42
12.0
 43
12.0
 50
312.6090116116909
1001
ACAD
1000
DSTYLE
1002
{
1070
    41
1040
12.0
1070
    42
1040
20.0
1070
    43
1040
200.0
1070
    44
1040
20.0
1070
    73
1070
     0
1070
    74
1070
     0
1070
    77
1070
     1
1070
    78
1070
     8
1070
   140
1040
64.0
1070
   147
1040
50.0
1070
   172
1070
     1
1070
   174
1070
     1
1070
   275
1070
     0
1070
   284
1070
     0
1070
   285
1070
     0
1070
   286
1070
     0
1070
   341
1005
2E4F
1070
   342
1005
2E4D
1002
}
  0
LWPOLYLINE
  5
3143
330
2DFB
100
AcDbEntity
  8
NOTE
100
AcDbPolyline
 90
        3
 70
     0
 43
0.0
 10
-1095.773296140248
 20
1012.487659007737
 10
-1175.518795296312
 20
1099.182866656835
 10
-1724.10165243917
 20
1099.182866656835
1001
ACAD
1000
DSTYLE
1002
{
1070
    41
1040
12.0
1070
    42
1040
20.0
1070
    43
1040
200.0
1070
    44
1040
20.0
1070
    73
1070
     0
1070
    74
1070
     0
1070
    77
1070
     1
1070
    78
1070
     8
1070
   140
1040
64.0
1070
   147
1040
50.0
1070
   172
1070
     1
1070
   174
1070
     1
1070
   275
1070
     0
1070
   284
1070
     0
1070
   285
1070
     0
1070
   286
1070
     0
1070
   341
1005
2E4F
1070
   342
1005
2E4D
1002
}
  0
TEXT
  5
3144
330
2DFB
100
AcDbEntity
  8
NOTE
100
AcDbText
 10
-1732.330223867742
 20
1117.182866656835
 30
0.0
 40
64.0
  1
4×φ15取付穴
 41
0.9
100
AcDbText
  0
LINE
  5
3145
330
2DFB
100
AcDbEntity
  8
NOTE
100
AcDbLine
 39
50.0
 10
-1100.149395304058
 20
1003.655771598821
 30
0.0
 11
-1075.149395304058
 21
1003.655771598821
 31
0.0
  0
LINE
  5
3146
330
2DFB
100
AcDbEntity
  8
NOTE
100
AcDbLine
 39
50.0
 10
-450.1493953040578
 20
1003.655771598821
 30
0.0
 11
-425.1493953040578
 21
1003.655771598821
 31
0.0
  0
LINE
  5
3147
330
2DFB
100
AcDbEntity
  8
OUTLINE
100
AcDbLine
 10
-1074.149395304058
 20
401.6557715988215
 30
0.0
 11
-1074.149395304058
 21
991.6557715988217
 31
0.0
  0
LINE
  5
3148
330
2DFB
100
AcDbEntity
  8
OUTLINE
100
AcDbLine
 10
-451.1493953040581
 20
401.6557715988215
 30
0.0
 11
-451.1493953040581
 21
991.6557715988231
 31
0.0
  0
LINE
  5
3149
330
2DFB
100
AcDbEntity
  8
OUTLINE
100
AcDbLine
 10
-451.1493953040581
 20
401.6557715988215
 30
0.0
 11
-1074.149395304058
 21
401.6557715988215
 31
0.0
  0
LINE
  5
314A
330
2DFB
100
AcDbEntity
  8
OUTLINE
100
AcDbLine
 10
-619.1493953040581
 20
401.6557715988215
 30
0.0
 11
-482.6493953040579
 21
401.6557715988215
 31
0.0
  0
LINE
  5
314B
330
2DFB
100
AcDbEntity
  8
OUTLINE
100
AcDbLine
 10
-1107.64939530406
 20
991.6557715988231
 30
0.0
 11
-417.6493953040581
 21
991.6557715988231
 31
0.0
  0
LINE
  5
314C
330
2DFB
100
AcDbEntity
  8
OUTLINE
100
AcDbLine
 10
-1074.149395304058
 20
856.6557715988215
 30
0.0
 11
-1074.149395304058
 21
991.6557715988231
 31
0.0
  0
LINE
  5
314D
330
2DFB
100
AcDbEntity
  8
OUTLINE
100
AcDbLine
 39
50.0
 10
-417.6493953040581
 20
991.6557715988231
 30
0.0
 11
-417.6493953040581
 21
1003.655771598821
 31
0.0
  0
LINE
  5
314E
330
2DFB
100
AcDbEntity
  8
OUTLINE
100
AcDbLine
 39
50.0
 10
-417.6493953040581
 20
1003.655771598821
 30
0.0
 11
-1107.64939530406
 21
1003.655771598821
 31
0.0
  0
LINE
  5
314F
330
2DFB
100
AcDbEntity
  8
OUTLINE
100
AcDbLine
 39
50.0
 10
-1107.649395304058
 20
1003.655771598821
 30
0.0
 11
-1107.649395304058
 21
991.6557715988231
 31
0.0
  0
LINE
  5
3150
330
2DFB
100
AcDbEntity
  8
SIZE
100
AcDbLine
 10
-1127.649395304058
 20
1003.655771598821
 30
0.0
 11
-1188.366935933091
 21
1003.655771598821
 31
0.0
  0
LINE
  5
3151
330
2DFB
100
AcDbEntity
  8
SIZE
100
AcDbLine
 10
-1127.649395304058
 20
991.6557715988231
 30
0.0
 11
-1188.366935933091
 21
991.6557715988231
 31
0.0
  0
LINE
  5
3152
330
2DFB
100
AcDbEntity
  8
SIZE
100
AcDbLine
 10
-1168.366935933091
 20
1015.655771598821
 30
0.0
 11
-1168.366935933091
 21
1027.655771598821
 31
0.0
  0
LINE
  5
3153
330
2DFB
100
AcDbEntity
  8
SIZE
100
AcDbLine
 10
-1168.366935933091
 20
979.6557715988232
 30
0.0
 11
-1168.366935933091
 21
862.6272001702522
 31
0.0
  0
INSERT
  5
3154
330
2DFB
100
AcDbEntity
  8
SIZE
100
AcDbBlockReference
  2
_DOTBLANK
 10
-1168.366935933091
 20
1003.655771598821
 30
0.0
 41
12.0
 42
12.0
 43
12.0
 50
270.0
  0
INSERT
  5
3155
330
2DFB
100
AcDbEntity
  8
SIZE
100
AcDbBlockReference
  2
_DOTBLANK
 10
-1168.366935933091
 20
991.6557715988231
 30
0.0
 41
12.0
 42
12.0
 43
12.0
 50
90.0
  0
MTEXT
  5
3156
330
2DFB
100
AcDbEntity
  8
SIZE
100
AcDbMText
 10
-1210.366935933093
 20
915.141485884536
 30
0.0
 40
64.0
 41
0.0
 46
0.0
 71
     5
 72
     1
  1
\A1;12
 11
0.0000000000000001
 21
1.0
 31
0.0
 73
     1
 44
1.0
  0
ENDSEC
  0
SECTION
  2
OBJECTS
  0
DICTIONARY
  5
2D93
330
0
100
AcDbDictionary
281
     1
  3
ACAD_COLOR
350
2DF1
  3
ACAD_GROUP
350
2D94
  3
ACAD_LAYOUT
350
2DF0
  3
ACAD_MATERIAL
350
2D97
  3
ACAD_MLEADERSTYLE
350
2DF4
  3
ACAD_MLINESTYLE
350
2DED
  3
ACAD_PLOTSETTINGS
350
2DEF
  3
ACAD_PLOTSTYLENAME
350
2D95
  3
ACAD_SCALELIST
350
2DC1
  3
ACAD_TABLESTYLE
350
2DF2
  3
ACAD_VISUALSTYLE
350
2DB0
  3
ACDB_RECOMPOSE_DATA
350
2FDF
  3
AcDbVariableDictionary
350
2FD6
  3
AcmDictionary
350
2F82
  3
AMG
350
2ECF
  3
AMGSNAPSETTINGS
350
2FAA
  0
DICTIONARY
  5
30D2
330
2D89
100
AcDbDictionary
280
     1
281
     1
  3
ACAD_LAYERSTATES
360
30D3
  0
DICTIONARY
  5
2FB1
330
2DE3
100
AcDbDictionary
280
     1
281
     1
  3
ADSK_XREC_LAYER_RECONCILED
360
2FB2
  0
DICTIONARY
  5
2FB3
330
2E12
100
AcDbDictionary
280
     1
281
     1
  3
ADSK_XREC_LAYER_RECONCILED
360
2FB4
  0
DICTIONARY
  5
2FB5
330
2E13
100
AcDbDictionary
280
     1
281
     1
  3
ADSK_XREC_LAYER_RECONCILED
360
2FB6
  0
DICTIONARY
  5
2FB7
330
2E14
100
AcDbDictionary
280
     1
281
     1
  3
ADSK_XREC_LAYER_RECONCILED
360
2FB8
  0
DICTIONARY
  5
2FB9
330
2E15
100
AcDbDictionary
280
     1
281
     1
  3
ADSK_XREC_LAYER_RECONCILED
360
2FBA
  0
DICTIONARY
  5
2FBB
330
2E16
100
AcDbDictionary
280
     1
281
     1
  3
ADSK_XREC_LAYER_RECONCILED
360
2FBC
  0
DICTIONARY
  5
2FBD
330
2E18
100
AcDbDictionary
280
     1
281
     1
  3
ADSK_XREC_LAYER_RECONCILED
360
2FBE
  0
DICTIONARY
  5
2FBF
330
2E19
100
AcDbDictionary
280
     1
281
     1
  3
ADSK_XREC_LAYER_RECONCILED
360
2FC0
  0
DICTIONARY
  5
2FC1
330
2E1A
100
AcDbDictionary
280
     1
281
     1
  3
ADSK_XREC_LAYER_RECONCILED
360
2FC2
  0
DICTIONARY
  5
2FC3
330
2E1B
100
AcDbDictionary
280
     1
281
     1
  3
ADSK_XREC_LAYER_RECONCILED
360
2FC4
  0
DICTIONARY
  5
2FC5
330
2E1C
100
AcDbDictionary
280
     1
281
     1
  3
ADSK_XREC_LAYER_RECONCILED
360
2FC6
  0
DICTIONARY
  5
2FC7
330
2DFB
100
AcDbDictionary
280
     1
281
     1
  3
ACAD_INDEX
360
2FC8
  0
DICTIONARY
  5
2DF1
102
{ACAD_REACTORS
330
2D93
102
}
330
2D93
100
AcDbDictionary
281
     1
  0
DICTIONARY
  5
2D94
102
{ACAD_REACTORS
330
2D93
102
}
330
2D93
100
AcDbDictionary
281
     1
  0
DICTIONARY
  5
2DF0
102
{ACAD_REACTORS
330
2D93
102
}
330
2D93
100
AcDbDictionary
281
     1
  3
Model
350
2DFE
  3
レイアウト1
350
2DFA
  0
DICTIONARY
  5
2D97
102
{ACAD_REACTORS
330
2D93
102
}
330
2D93
100
AcDbDictionary
281
     1
  3
ByBlock
350
2DA0
  3
ByLayer
350
2D98
  3
Global
350
2DA8
  0
DICTIONARY
  5
2DF4
102
{ACAD_REACTORS
330
2D93
102
}
330
2D93
100
AcDbDictionary
281
     1
  3
Standard
350
2DF5
  0
DICTIONARY
  5
2DED
102
{ACAD_REACTORS
330
2D93
102
}
330
2D93
100
AcDbDictionary
281
     1
  3
Standard
350
2DEE
  0
DICTIONARY
  5
2DEF
102
{ACAD_REACTORS
330
2D93
102
}
330
2D93
100
AcDbDictionary
281
     1
  0
ACDBDICTIONARYWDFLT
  5
2D95
102
{ACAD_REACTORS
330
2D93
102
}
330
2D93
100
AcDbDictionary
281
     1
  3
Normal
350
2D96
100
AcDbDictionaryWithDefault
340
2D96
  0
DICTIONARY
  5
2DC1
102
{ACAD_REACTORS
330
2D93
102
}
330
2D93
100
AcDbDictionary
281
     1
  3
A0
350
2DC2
  3
A1
350
2DC3
  3
A2
350
2DC4
  3
A3
350
2DC5
  3
A4
350
2DC6
  3
A5
350
2DC7
  3
A6
350
2DC8
  3
A7
350
2DC9
  3
A8
350
2DCA
  3
A9
350
2DCB
  3
B0
350
2DCC
  3
B1
350
2DCD
  3
B2
350
2DCE
  3
B3
350
2DCF
  3
B4
350
2DD0
  3
B5
350
2DD1
  3
B6
350
2DD2
  3
B7
350
2DD3
  3
B8
350
2DD4
  3
B9
350
2DD5
  3
C0
350
2DD6
  3
C1
350
2DD7
  3
C2
350
2DD8
  3
C3
350
2DD9
  3
C4
350
2DDA
  3
C5
350
2DDB
  3
C6
350
2DDC
  3
C7
350
2DDD
  3
C8
350
2DDE
  3
C9
350
2DDF
  3
D0
350
2DE0
  3
D1
350
2DE1
  3
D2
350
2DE2
  0
DICTIONARY
  5
2DF2
102
{ACAD_REACTORS
330
2D93
102
}
330
2D93
100
AcDbDictionary
281
     1
  3
Standard
350
2DF3
  0
DICTIONARY
  5
2DB0
102
{ACAD_REACTORS
330
2D93
102
}
330
2D93
100
AcDbDictionary
281
     1
  3
2dWireframe
350
2DB6
  3
3D Hidden
350
2DB8
  3
3dWireframe
350
2DB7
  3
Basic
350
2DB5
  3
Brighten
350
2DBC
  3
ColorChange
350
2DC0
  3
Conceptual
350
2DB9
  3
Dim
350
2DBB
  3
Facepattern
350
2DBF
  3
Flat
350
2DB1
  3
FlatWithEdges
350
2DB2
  3
Gouraud
350
2DB3
  3
GouraudWithEdges
350
2DB4
  3
Linepattern
350
2DBE
  3
Realistic
350
2DBA
  3
Thicken
350
2DBD
  0
XRECORD
  5
2FDF
102
{ACAD_REACTORS
330
2D93
102
}
330
2D93
100
AcDbXrecord
280
     1
 90
        1
330
2DF3
  0
DICTIONARY
  5
2FD6
102
{ACAD_REACTORS
330
2D93
102
}
330
2D93
100
AcDbDictionary
281
     1
  3
CANNOSCALE
350
2FD9
  3
CMLEADERSTYLE
350
2FD8
  3
CTABLESTYLE
350
2FD7
  3
DIMASSOC
350
2FDC
  3
INDEXCTL
350
2FDB
  3
LAYEREVAL
350
3159
  3
LAYERNOTIFY
350
315A
  3
LIGHTINGUNITS
350
3158
  3
MSLTSCALE
350
3157
  3
SORTENTS
350
2FDA
  0
DICTIONARY
  5
2F82
102
{ACAD_REACTORS
330
2D93
102
}
330
2D93
100
AcDbDictionary
281
     1
  3
AcmStdDictionary
350
2F90
  0
DICTIONARY
  5
2ECF
102
{ACAD_REACTORS
330
2D93
102
}
330
2D93
100
AcDbDictionary
281
     1
  3
AcMgSettings
350
2ED0
  3
AMGLAYCFG
350
3313
  0
DICTIONARY
  5
2FAA
102
{ACAD_REACTORS
330
2D93
102
}
330
2D93
100
AcDbDictionary
281
     1
  3
DIMENSION
350
2FAF
  3
FEA
350
2FAE
  3
HATCH (1)
350
2FAB
  3
HATCH (2)
350
2FAC
  3
SIMPLE WELD
350
2FB0
  3
SYMBOLS
350
2FAD
  0
DICTIONARY
  5
30D3
102
{ACAD_REACTORS
330
30D2
102
}
330
30D2
100
AcDbDictionary
281
     1
  0
XRECORD
  5
2FB2
102
{ACAD_REACTORS
330
2FB1
102
}
330
2FB1
100
AcDbXrecord
280
     1
290
     1
  0
XRECORD
  5
2FB4
102
{ACAD_REACTORS
330
2FB3
102
}
330
2FB3
100
AcDbXrecord
280
     1
290
     1
  0
XRECORD
  5
2FB6
102
{ACAD_REACTORS
330
2FB5
102
}
330
2FB5
100
AcDbXrecord
280
     1
290
     1
  0
XRECORD
  5
2FB8
102
{ACAD_REACTORS
330
2FB7
102
}
330
2FB7
100
AcDbXrecord
280
     1
290
     1
  0
XRECORD
  5
2FBA
102
{ACAD_REACTORS
330
2FB9
102
}
330
2FB9
100
AcDbXrecord
280
     1
290
     1
  0
XRECORD
  5
2FBC
102
{ACAD_REACTORS
330
2FBB
102
}
330
2FBB
100
AcDbXrecord
280
     1
290
     1
  0
XRECORD
  5
2FBE
102
{ACAD_REACTORS
330
2FBD
102
}
330
2FBD
100
AcDbXrecord
280
     1
290
     1
  0
XRECORD
  5
2FC0
102
{ACAD_REACTORS
330
2FBF
102
}
330
2FBF
100
AcDbXrecord
280
     1
290
     1
  0
XRECORD
  5
2FC2
102
{ACAD_REACTORS
330
2FC1
102
}
330
2FC1
100
AcDbXrecord
280
     1
290
     1
  0
XRECORD
  5
2FC4
102
{ACAD_REACTORS
330
2FC3
102
}
330
2FC3
100
AcDbXrecord
280
     1
290
     1
  0
XRECORD
  5
2FC6
102
{ACAD_REACTORS
330
2FC5
102
}
330
2FC5
100
AcDbXrecord
280
     1
290
     1
  0
DICTIONARY
  5
2FC8
102
{ACAD_REACTORS
330
2FC7
102
}
330
2FC7
100
AcDbDictionary
281
     1
  3
*A1
350
2FC9
  0
LAYOUT
  5
2DFE
102
{ACAD_REACTORS
330
2DF0
102
}
330
2DF0
100
AcDbPlotSettings
  1

  2
自動 EPSON LP-9600S (W2450527 上)
  4

  6

 40
0.0
 41
0.0
 42
0.0
 43
0.0
 44
0.0
 45
0.0
 46
0.0
 47
0.0
 48
0.0
 49
0.0
140
0.0
141
0.0
142
1.0
143
1.0
 70
  1712
 72
     0
 73
     0
 74
     0
  7

 75
     0
147
1.0
 76
     0
 77
     2
 78
   300
148
0.0
149
0.0
100
AcDbLayout
  1
Model
 70
     1
 71
     0
 10
0.0
 20
0.0
 11
12.0
 21
9.0
 12
0.0
 22
0.0
 32
0.0
 14
0.0
 24
0.0
 34
0.0
 15
0.0
 25
0.0
 35
0.0
146
0.0
 13
0.0
 23
0.0
 33
0.0
 16
1.0
 26
0.0
 36
0.0
 17
0.0
 27
1.0
 37
0.0
 76
     0
330
2DFB
331
2DFF
  0
LAYOUT
  5
2DFA
102
{ACAD_REACTORS
330
2DF0
102
}
330
2DF0
100
AcDbPlotSettings
  1

  2
自動 EPSON LP-9600S (W2450527 上)
  4

  6

 40
0.0
 41
0.0
 42
0.0
 43
0.0
 44
0.0
 45
0.0
 46
0.0
 47
0.0
 48
0.0
 49
0.0
140
0.0
141
0.0
142
1.0
143
1.0
 70
   688
 72
     0
 73
     0
 74
     5
  7

 75
    16
147
1.0
 76
     0
 77
     2
 78
   300
148
0.0
149
0.0
100
AcDbLayout
  1
レイアウト1
 70
     1
 71
     1
 10
0.0
 20
0.0
 11
12.0
 21
9.0
 12
0.0
 22
0.0
 32
0.0
 14
1.000000000000000E+20
 24
1.000000000000000E+20
 34
1.000000000000000E+20
 15
-1.000000000000000E+20
 25
-1.000000000000000E+20
 35
-1.000000000000000E+20
146
0.0
 13
0.0
 23
0.0
 33
0.0
 16
1.0
 26
0.0
 36
0.0
 17
0.0
 27
1.0
 37
0.0
 76
     0
330
2DF7
  0
MATERIAL
  5
2DA0
102
{ACAD_XDICTIONARY
360
2DA1
102
}
102
{ACAD_REACTORS
330
2D97
102
}
330
2D97
100
AcDbMaterial
  1
ByBlock
 72
     0
 43
0.0208333333333333
 43
0.0
 43
0.0
 43
0.0
 43
0.0
 43
0.0208333333333333
 43
0.0
 43
0.0
 43
0.0
 43
0.0
 43
1.0
 43
0.0
 43
0.0
 43
0.0
 43
0.0
 43
1.0
 77
     0
 47
0.0208333333333333
 47
0.0
 47
0.0
 47
0.0
 47
0.0
 47
0.0208333333333333
 47
0.0
 47
0.0
 47
0.0
 47
0.0
 47
1.0
 47
0.0
 47
0.0
 47
0.0
 47
0.0
 47
1.0
171
     0
 49
0.0208333333333333
 49
0.0
 49
0.0
 49
0.0
 49
0.0
 49
0.0208333333333333
 49
0.0
 49
0.0
 49
0.0
 49
0.0
 49
1.0
 49
0.0
 49
0.0
 49
0.0
 49
0.0
 49
1.0
175
     0
142
0.0208333333333333
142
0.0
142
0.0
142
0.0
142
0.0
142
0.0208333333333333
142
0.0
142
0.0
142
0.0
142
0.0
142
1.0
142
0.0
142
0.0
142
0.0
142
0.0
142
1.0
179
     0
144
0.0208333333333333
144
0.0
144
0.0
144
0.0
144
0.0
144
0.0208333333333333
144
0.0
144
0.0
144
0.0
144
0.0
144
1.0
144
0.0
144
0.0
144
0.0
144
0.0
144
1.0
147
0.0208333333333333
147
0.0
147
0.0
147
0.0
147
0.0
147
0.0208333333333333
147
0.0
147
0.0
147
0.0
147
0.0
147
1.0
147
0.0
147
0.0
147
0.0
147
0.0
147
1.0
  0
MATERIAL
  5
2D98
102
{ACAD_XDICTIONARY
360
2D99
102
}
102
{ACAD_REACTORS
330
2D97
102
}
330
2D97
100
AcDbMaterial
  1
ByLayer
 72
     0
 43
0.0208333333333333
 43
0.0
 43
0.0
 43
0.0
 43
0.0
 43
0.0208333333333333
 43
0.0
 43
0.0
 43
0.0
 43
0.0
 43
1.0
 43
0.0
 43
0.0
 43
0.0
 43
0.0
 43
1.0
 77
     0
 47
0.0208333333333333
 47
0.0
 47
0.0
 47
0.0
 47
0.0
 47
0.0208333333333333
 47
0.0
 47
0.0
 47
0.0
 47
0.0
 47
1.0
 47
0.0
 47
0.0
 47
0.0
 47
0.0
 47
1.0
171
     0
 49
0.0208333333333333
 49
0.0
 49
0.0
 49
0.0
 49
0.0
 49
0.0208333333333333
 49
0.0
 49
0.0
 49
0.0
 49
0.0
 49
1.0
 49
0.0
 49
0.0
 49
0.0
 49
0.0
 49
1.0
175
     0
142
0.0208333333333333
142
0.0
142
0.0
142
0.0
142
0.0
142
0.0208333333333333
142
0.0
142
0.0
142
0.0
142
0.0
142
1.0
142
0.0
142
0.0
142
0.0
142
0.0
142
1.0
179
     0
144
0.0208333333333333
144
0.0
144
0.0
144
0.0
144
0.0
144
0.0208333333333333
144
0.0
144
0.0
144
0.0
144
0.0
144
1.0
144
0.0
144
0.0
144
0.0
144
0.0
144
1.0
147
0.0208333333333333
147
0.0
147
0.0
147
0.0
147
0.0
147
0.0208333333333333
147
0.0
147
0.0
147
0.0
147
0.0
147
1.0
147
0.0
147
0.0
147
0.0
147
0.0
147
1.0
  0
MATERIAL
  5
2DA8
102
{ACAD_XDICTIONARY
360
2DA9
102
}
102
{ACAD_REACTORS
330
2D97
102
}
330
2D97
100
AcDbMaterial
  1
Global
 72
     0
 43
0.0208333333333333
 43
0.0
 43
0.0
 43
0.0
 43
0.0
 43
0.0208333333333333
 43
0.0
 43
0.0
 43
0.0
 43
0.0
 43
1.0
 43
0.0
 43
0.0
 43
0.0
 43
0.0
 43
1.0
 77
     0
 47
0.0208333333333333
 47
0.0
 47
0.0
 47
0.0
 47
0.0
 47
0.0208333333333333
 47
0.0
 47
0.0
 47
0.0
 47
0.0
 47
1.0
 47
0.0
 47
0.0
 47
0.0
 47
0.0
 47
1.0
171
     0
 49
0.0208333333333333
 49
0.0
 49
0.0
 49
0.0
 49
0.0
 49
0.0208333333333333
 49
0.0
 49
0.0
 49
0.0
 49
0.0
 49
1.0
 49
0.0
 49
0.0
 49
0.0
 49
0.0
 49
1.0
175
     0
142
0.0208333333333333
142
0.0
142
0.0
142
0.0
142
0.0
142
0.0208333333333333
142
0.0
142
0.0
142
0.0
142
0.0
142
1.0
142
0.0
142
0.0
142
0.0
142
0.0
142
1.0
179
     0
144
0.0208333333333333
144
0.0
144
0.0
144
0.0
144
0.0
144
0.0208333333333333
144
0.0
144
0.0
144
0.0
144
0.0
144
1.0
144
0.0
144
0.0
144
0.0
144
0.0
144
1.0
147
0.0208333333333333
147
0.0
147
0.0
147
0.0
147
0.0
147
0.0208333333333333
147
0.0
147
0.0
147
0.0
147
0.0
147
1.0
147
0.0
147
0.0
147
0.0
147
0.0
147
1.0
  0
MLEADERSTYLE
  5
2DF5
102
{ACAD_REACTORS
330
2DF4
102
}
330
2DF4
100
AcDbMLeaderStyle
170
     2
171
     1
172
     0
 90
        2
 40
0.0
 41
0.0
173
     1
 91
-1056964608
340
2DE9
 92
       -2
290
     1
 42
0.09
291
     1
 43
0.36
  3
Standard
 44
0.18
300

342
2DE4
174
     1
178
     6
175
     1
176
     0
 93
-1056964608
 45
0.18
292
     0
297
     0
 46
0.18
 94
-1056964608
 47
1.0
 49
1.0
140
1.0
293
     1
141
0.0
294
     1
177
     0
142
1.0
295
     0
296
     0
143
0.125
1001
ACAD_MLEADERVER
1070
     2
  0
MLINESTYLE
  5
2DEE
102
{ACAD_REACTORS
330
2DED
102
}
330
2DED
100
AcDbMlineStyle
  2
STANDARD
 70
     0
  3

 62
   256
 51
90.0
 52
90.0
 71
     2
 49
0.5
 62
   256
  6
BYLAYER
 49
-0.5
 62
   256
  6
BYLAYER
  0
ACDBPLACEHOLDER
  5
2D96
102
{ACAD_REACTORS
330
2D95
102
}
330
2D95
  0
SCALE
  5
2DC2
102
{ACAD_REACTORS
330
2DC1
102
}
330
2DC1
100
AcDbScale
 70
     0
300
1:1
140
1.0
141
1.0
290
     1
  0
SCALE
  5
2DC3
102
{ACAD_REACTORS
330
2DC1
102
}
330
2DC1
100
AcDbScale
 70
     0
300
1:2
140
1.0
141
2.0
290
     0
  0
SCALE
  5
2DC4
102
{ACAD_REACTORS
330
2DC1
102
}
330
2DC1
100
AcDbScale
 70
     0
300
1:4
140
1.0
141
4.0
290
     0
  0
SCALE
  5
2DC5
102
{ACAD_REACTORS
330
2DC1
102
}
330
2DC1
100
AcDbScale
 70
     0
300
1:5
140
1.0
141
5.0
290
     0
  0
SCALE
  5
2DC6
102
{ACAD_REACTORS
330
2DC1
102
}
330
2DC1
100
AcDbScale
 70
     0
300
1:8
140
1.0
141
8.0
290
     0
  0
SCALE
  5
2DC7
102
{ACAD_REACTORS
330
2DC1
102
}
330
2DC1
100
AcDbScale
 70
     0
300
1:10
140
1.0
141
10.0
290
     0
  0
SCALE
  5
2DC8
102
{ACAD_REACTORS
330
2DC1
102
}
330
2DC1
100
AcDbScale
 70
     0
300
1:16
140
1.0
141
16.0
290
     0
  0
SCALE
  5
2DC9
102
{ACAD_REACTORS
330
2DC1
102
}
330
2DC1
100
AcDbScale
 70
     0
300
1:20
140
1.0
141
20.0
290
     0
  0
SCALE
  5
2DCA
102
{ACAD_REACTORS
330
2DC1
102
}
330
2DC1
100
AcDbScale
 70
     0
300
1:30
140
1.0
141
30.0
290
     0
  0
SCALE
  5
2DCB
102
{ACAD_REACTORS
330
2DC1
102
}
330
2DC1
100
AcDbScale
 70
     0
300
1:40
140
1.0
141
40.0
290
     0
  0
SCALE
  5
2DCC
102
{ACAD_REACTORS
330
2DC1
102
}
330
2DC1
100
AcDbScale
 70
     0
300
1:50
140
1.0
141
50.0
290
     0
  0
SCALE
  5
2DCD
102
{ACAD_REACTORS
330
2DC1
102
}
330
2DC1
100
AcDbScale
 70
     0
300
1:100
140
1.0
141
100.0
290
     0
  0
SCALE
  5
2DCE
102
{ACAD_REACTORS
330
2DC1
102
}
330
2DC1
100
AcDbScale
 70
     0
300
2:1
140
2.0
141
1.0
290
     0
  0
SCALE
  5
2DCF
102
{ACAD_REACTORS
330
2DC1
102
}
330
2DC1
100
AcDbScale
 70
     0
300
4:1
140
4.0
141
1.0
290
     0
  0
SCALE
  5
2DD0
102
{ACAD_REACTORS
330
2DC1
102
}
330
2DC1
100
AcDbScale
 70
     0
300
8:1
140
8.0
141
1.0
290
     0
  0
SCALE
  5
2DD1
102
{ACAD_REACTORS
330
2DC1
102
}
330
2DC1
100
AcDbScale
 70
     0
300
10:1
140
10.0
141
1.0
290
     0
  0
SCALE
  5
2DD2
102
{ACAD_REACTORS
330
2DC1
102
}
330
2DC1
100
AcDbScale
 70
     0
300
100:1
140
100.0
141
1.0
290
     0
  0
SCALE
  5
2DD3
102
{ACAD_REACTORS
330
2DC1
102
}
330
2DC1
100
AcDbScale
 70
     0
300
1/128" = 1'-0"
140
0.0078125
141
12.0
290
     0
  0
SCALE
  5
2DD4
102
{ACAD_REACTORS
330
2DC1
102
}
330
2DC1
100
AcDbScale
 70
     0
300
1/64" = 1'-0"
140
0.015625
141
12.0
290
     0
  0
SCALE
  5
2DD5
102
{ACAD_REACTORS
330
2DC1
102
}
330
2DC1
100
AcDbScale
 70
     0
300
1/32" = 1'-0"
140
0.03125
141
12.0
290
     0
  0
SCALE
  5
2DD6
102
{ACAD_REACTORS
330
2DC1
102
}
330
2DC1
100
AcDbScale
 70
     0
300
1/16" = 1'-0"
140
0.0625
141
12.0
290
     0
  0
SCALE
  5
2DD7
102
{ACAD_REACTORS
330
2DC1
102
}
330
2DC1
100
AcDbScale
 70
     0
300
3/32" = 1'-0"
140
0.09375
141
12.0
290
     0
  0
SCALE
  5
2DD8
102
{ACAD_REACTORS
330
2DC1
102
}
330
2DC1
100
AcDbScale
 70
     0
300
1/8" = 1'-0"
140
0.125
141
12.0
290
     0
  0
SCALE
  5
2DD9
102
{ACAD_REACTORS
330
2DC1
102
}
330
2DC1
100
AcDbScale
 70
     0
300
3/16" = 1'-0"
140
0.1875
141
12.0
290
     0
  0
SCALE
  5
2DDA
102
{ACAD_REACTORS
330
2DC1
102
}
330
2DC1
100
AcDbScale
 70
     0
300
1/4" = 1'-0"
140
0.25
141
12.0
290
     0
  0
SCALE
  5
2DDB
102
{ACAD_REACTORS
330
2DC1
102
}
330
2DC1
100
AcDbScale
 70
     0
300
3/8" = 1'-0"
140
0.375
141
12.0
290
     0
  0
SCALE
  5
2DDC
102
{ACAD_REACTORS
330
2DC1
102
}
330
2DC1
100
AcDbScale
 70
     0
300
1/2" = 1'-0"
140
0.5
141
12.0
290
     0
  0
SCALE
  5
2DDD
102
{ACAD_REACTORS
330
2DC1
102
}
330
2DC1
100
AcDbScale
 70
     0
300
3/4" = 1'-0"
140
0.75
141
12.0
290
     0
  0
SCALE
  5
2DDE
102
{ACAD_REACTORS
330
2DC1
102
}
330
2DC1
100
AcDbScale
 70
     0
300
1" = 1'-0"
140
1.0
141
12.0
290
     0
  0
SCALE
  5
2DDF
102
{ACAD_REACTORS
330
2DC1
102
}
330
2DC1
100
AcDbScale
 70
     0
300
1-1/2" = 1'-0"
140
1.5
141
12.0
290
     0
  0
SCALE
  5
2DE0
102
{ACAD_REACTORS
330
2DC1
102
}
330
2DC1
100
AcDbScale
 70
     0
300
3" = 1'-0"
140
3.0
141
12.0
290
     0
  0
SCALE
  5
2DE1
102
{ACAD_REACTORS
330
2DC1
102
}
330
2DC1
100
AcDbScale
 70
     0
300
6" = 1'-0"
140
6.0
141
12.0
290
     0
  0
SCALE
  5
2DE2
102
{ACAD_REACTORS
330
2DC1
102
}
330
2DC1
100
AcDbScale
 70
     0
300
1'-0" = 1'-0"
140
12.0
141
12.0
290
     0
  0
TABLESTYLE
  5
2DF3
102
{ACAD_XDICTIONARY
360
2FDD
102
}
102
{ACAD_REACTORS
330
2DF2
102
}
330
2DF2
100
AcDbTableStyle
  3
Standard
 70
     0
 71
     0
 40
0.06
 41
0.06
280
     0
281
     0
  7
STANDARD
140
0.18
170
     2
 62
     0
 63
     7
283
     0
 90
      512
 91
        0
  1

274
    -2
284
     1
 64
     0
275
    -2
285
     1
 65
     0
276
    -2
286
     1
 66
     0
277
    -2
287
     1
 67
     0
278
    -2
288
     1
 68
     0
279
    -2
289
     1
 69
     0
  7
STANDARD
140
0.25
170
     5
 62
     0
 63
     7
283
     0
 90
      512
 91
        0
  1

274
    -2
284
     1
 64
     0
275
    -2
285
     1
 65
     0
276
    -2
286
     1
 66
     0
277
    -2
287
     1
 67
     0
278
    -2
288
     1
 68
     0
279
    -2
289
     1
 69
     0
  7
STANDARD
140
0.18
170
     5
 62
     0
 63
     7
283
     0
 90
      512
 91
        0
  1

274
    -2
284
     1
 64
     0
275
    -2
285
     1
 65
     0
276
    -2
286
     1
 66
     0
277
    -2
287
     1
 67
     0
278
    -2
288
     1
 68
     0
279
    -2
289
     1
 69
     0
  0
VISUALSTYLE
  5
2DB6
102
{ACAD_REACTORS
330
2DB0
102
}
330
2DB0
100
AcDbVisualStyle
  2
2dWireframe
 70
     4
 71
     0
 72
     2
 73
     0
 90
        0
 40
-0.6
 41
-30.0
 62
     5
 63
     7
 74
     1
 91
        4
 64
     7
 65
   257
 75
     1
175
     1
 42
1.0
 92
        0
 66
   257
 43
1.0
 76
     1
 77
     6
 78
     2
 67
     7
 79
     5
170
     0
171
     0
290
     0
174
     0
 93
        1
 44
0.0
173
     0
291
     0
 45
0.0
1001
ACAD
1000
AcDbSavedByObjectVersion
1070
     0
  0
VISUALSTYLE
  5
2DB8
102
{ACAD_REACTORS
330
2DB0
102
}
330
2DB0
100
AcDbVisualStyle
  2
3D Hidden
 70
     6
 71
     1
 72
     2
 73
     2
 90
        0
 40
-0.6
 41
-30.0
 62
     5
 63
     7
 74
     2
 91
        2
 64
     7
 65
   257
 75
     2
175
     1
 42
40.0
 92
        0
 66
   257
 43
1.0
 76
     1
 77
     6
 78
     2
 67
     7
 79
     3
170
     0
171
     0
290
     0
174
     0
 93
        1
 44
0.0
173
     0
291
     0
 45
0.0
1001
ACAD
1000
AcDbSavedByObjectVersion
1070
     0
  0
VISUALSTYLE
  5
2DB7
102
{ACAD_REACTORS
330
2DB0
102
}
330
2DB0
100
AcDbVisualStyle
  2
3dWireframe
 70
     5
 71
     0
 72
     2
 73
     0
 90
        0
 40
-0.6
 41
-30.0
 62
     5
 63
     7
 74
     1
 91
        4
 64
     7
 65
   257
 75
     1
175
     1
 42
1.0
 92
        0
 66
   257
 43
1.0
 76
     1
 77
     6
 78
     2
 67
     7
 79
     5
170
     0
171
     0
290
     0
174
     0
 93
        1
 44
0.0
173
     0
291
     0
 45
0.0
1001
ACAD
1000
AcDbSavedByObjectVersion
1070
     0
  0
VISUALSTYLE
  5
2DB5
102
{ACAD_REACTORS
330
2DB0
102
}
330
2DB0
100
AcDbVisualStyle
  2
Basic
 70
     7
 71
     1
 72
     0
 73
     1
 90
        0
 40
-0.6
 41
-30.0
 62
     5
 63
     7
 74
     0
 91
        4
 64
     7
 65
   257
 75
     1
175
     1
 42
1.0
 92
        8
 66
     7
 43
1.0
 76
     1
 77
     6
 78
     2
 67
     7
 79
     5
170
     0
171
     0
290
     0
174
     0
 93
        1
 44
0.0
173
     0
291
     1
 45
0.0
1001
ACAD
1000
AcDbSavedByObjectVersion
1070
     0
  0
VISUALSTYLE
  5
2DBC
102
{ACAD_REACTORS
330
2DB0
102
}
330
2DB0
100
AcDbVisualStyle
  2
Brighten
 70
    12
 71
     2
 72
     2
 73
     0
 90
        0
 40
-0.6
 41
-30.0
 62
     5
 63
     7
 74
     1
 91
        4
 64
     7
 65
   257
 75
     1
175
     1
 42
1.0
 92
        8
 66
     7
 43
1.0
 76
     1
 77
     6
 78
     2
 67
     7
 79
     5
170
     0
171
     0
290
     0
174
     0
 93
        1
 44
50.0
173
     0
291
     1
 45
0.0
1001
ACAD
1000
AcDbSavedByObjectVersion
1070
     0
  0
VISUALSTYLE
  5
2DC0
102
{ACAD_REACTORS
330
2DB0
102
}
330
2DB0
100
AcDbVisualStyle
  2
ColorChange
 70
    16
 71
     2
 72
     2
 73
     3
 90
        0
 40
-0.6
 41
-30.0
 62
     5
 63
     8
 74
     1
 91
        4
 64
     7
 65
   257
 75
     1
175
     1
 42
1.0
 92
        8
 66
     8
 43
1.0
 76
     1
 77
     6
 78
     2
 67
     7
 79
     5
170
     0
171
     0
290
     0
174
     0
 93
        1
 44
0.0
173
     0
291
     1
 45
0.0
1001
ACAD
1000
AcDbSavedByObjectVersion
1070
     0
  0
VISUALSTYLE
  5
2DB9
102
{ACAD_REACTORS
330
2DB0
102
}
330
2DB0
100
AcDbVisualStyle
  2
Conceptual
 70
     9
 71
     3
 72
     2
 73
     0
 90
        0
 40
-0.6
 41
-30.0
 62
     5
 63
     7
 74
     2
 91
        2
 64
     7
 65
   257
 75
     1
175
     1
 42
40.0
 92
        8
 66
     7
 43
1.0
 76
     1
 77
     6
 78
     2
 67
     7
 79
     3
170
     0
171
     0
290
     0
174
     0
 93
        1
 44
0.0
173
     0
291
     0
 45
0.0
1001
ACAD
1000
AcDbSavedByObjectVersion
1070
     0
  0
VISUALSTYLE
  5
2DBB
102
{ACAD_REACTORS
330
2DB0
102
}
330
2DB0
100
AcDbVisualStyle
  2
Dim
 70
    11
 71
     2
 72
     2
 73
     0
 90
        0
 40
-0.6
 41
-30.0
 62
     5
 63
     7
 74
     1
 91
        4
 64
     7
 65
   257
 75
     1
175
     1
 42
1.0
 92
        8
 66
     7
 43
1.0
 76
     1
 77
     6
 78
     2
 67
     7
 79
     5
170
     0
171
     0
290
     0
174
     0
 93
        1
 44
-50.0
173
     0
291
     1
 45
0.0
1001
ACAD
1000
AcDbSavedByObjectVersion
1070
     0
  0
VISUALSTYLE
  5
2DBF
102
{ACAD_REACTORS
330
2DB0
102
}
330
2DB0
100
AcDbVisualStyle
  2
Facepattern
 70
    15
 71
     2
 72
     2
 73
     0
 90
        0
 40
-0.6
 41
-30.0
 62
     5
 63
     7
 74
     1
 91
        4
 64
     7
 65
   257
 75
     1
175
     1
 42
1.0
 92
        8
 66
     7
 43
1.0
 76
     1
 77
     6
 78
     2
 67
     7
 79
     5
170
     0
171
     0
290
     0
174
     0
 93
        1
 44
0.0
173
     0
291
     1
 45
0.0
1001
ACAD
1000
AcDbSavedByObjectVersion
1070
     0
  0
VISUALSTYLE
  5
2DB1
102
{ACAD_REACTORS
330
2DB0
102
}
330
2DB0
100
AcDbVisualStyle
  2
Flat
 70
     0
 71
     2
 72
     1
 73
     1
 90
        2
 40
-0.6
 41
30.0
 62
     5
 63
     7
 74
     0
 91
        4
 64
     7
 65
   257
 75
     1
175
     1
 42
1.0
 92
        8
 66
     7
 43
1.0
 76
     1
 77
     6
 78
     2
 67
     7
 79
     5
170
     0
171
     0
290
     0
174
     0
 93
       13
 44
0.0
173
     0
291
     1
 45
0.0
1001
ACAD
1000
AcDbSavedByObjectVersion
1070
     0
  0
VISUALSTYLE
  5
2DB2
102
{ACAD_REACTORS
330
2DB0
102
}
330
2DB0
100
AcDbVisualStyle
  2
FlatWithEdges
 70
     1
 71
     2
 72
     1
 73
     1
 90
        2
 40
-0.6
 41
30.0
 62
     5
 63
     7
 74
     1
 91
        4
 64
     7
 65
   257
 75
     1
175
     1
 42
1.0
 92
        0
 66
   257
 43
1.0
 76
     1
 77
     6
 78
     2
 67
     7
 79
     5
170
     0
171
     0
290
     0
174
     0
 93
       13
 44
0.0
173
     0
291
     1
 45
0.0
1001
ACAD
1000
AcDbSavedByObjectVersion
1070
     0
  0
VISUALSTYLE
  5
2DB3
102
{ACAD_REACTORS
330
2DB0
102
}
330
2DB0
100
AcDbVisualStyle
  2
Gouraud
 70
     2
 71
     2
 72
     2
 73
     1
 90
        2
 40
-0.6
 41
30.0
 62
     5
 63
     7
 74
     0
 91
        4
 64
     7
 65
   257
 75
     1
175
     1
 42
1.0
 92
        0
 66
     7
 43
1.0
 76
     1
 77
     6
 78
     2
 67
     7
 79
     5
170
     0
171
     0
290
     0
174
     0
 93
       13
 44
0.0
173
     0
291
     1
 45
0.0
1001
ACAD
1000
AcDbSavedByObjectVersion
1070
     0
  0
VISUALSTYLE
  5
2DB4
102
{ACAD_REACTORS
330
2DB0
102
}
330
2DB0
100
AcDbVisualStyle
  2
GouraudWithEdges
 70
     3
 71
     2
 72
     2
 73
     1
 90
        2
 40
-0.6
 41
30.0
 62
     5
 63
     7
 74
     1
 91
        4
 64
     7
 65
   257
 75
     1
175
     1
 42
1.0
 92
        0
 66
   257
 43
1.0
 76
     1
 77
     6
 78
     2
 67
     7
 79
     5
170
     0
171
     0
290
     0
174
     0
 93
       13
 44
0.0
173
     0
291
     1
 45
0.0
1001
ACAD
1000
AcDbSavedByObjectVersion
1070
     0
  0
VISUALSTYLE
  5
2DBE
102
{ACAD_REACTORS
330
2DB0
102
}
330
2DB0
100
AcDbVisualStyle
  2
Linepattern
 70
    14
 71
     2
 72
     2
 73
     0
 90
        0
 40
-0.6
 41
-30.0
 62
     5
 63
     7
 74
     1
 91
        4
 64
     7
 65
   257
 75
     7
175
     7
 42
1.0
 92
        8
 66
     7
 43
1.0
 76
     1
 77
     6
 78
     2
 67
     7
 79
     5
170
     0
171
     0
290
     0
174
     0
 93
        1
 44
0.0
173
     0
291
     1
 45
0.0
1001
ACAD
1000
AcDbSavedByObjectVersion
1070
     0
  0
VISUALSTYLE
  5
2DBA
102
{ACAD_REACTORS
330
2DB0
102
}
330
2DB0
100
AcDbVisualStyle
  2
Realistic
 70
     8
 71
     2
 72
     2
 73
     0
 90
        0
 40
-0.6
 41
-30.0
 62
     5
 63
     7
 74
     1
 91
        0
 64
     7
 65
   257
 75
     1
175
     1
 42
1.0
 92
        8
 66
     8
 43
1.0
 76
     1
 77
     6
 78
     2
 67
     7
 79
     5
170
     0
171
     0
290
     0
174
     0
 93
       13
 44
0.0
173
     0
291
     0
 45
0.0
1001
ACAD
1000
AcDbSavedByObjectVersion
1070
     0
  0
VISUALSTYLE
  5
2DBD
102
{ACAD_REACTORS
330
2DB0
102
}
330
2DB0
100
AcDbVisualStyle
  2
Thicken
 70
    13
 71
     2
 72
     2
 73
     0
 90
        0
 40
-0.6
 41
-30.0
 62
     5
 63
     7
 74
     1
 91
        4
 64
     7
 65
   257
 75
     1
175
     1
 42
1.0
 92
       12
 66
     7
 43
1.0
 76
     1
 77
     6
 78
     2
 67
     7
 79
     5
170
     0
171
     0
290
     0
174
     0
 93
        1
 44
0.0
173
     0
291
     1
 45
0.0
1001
ACAD
1000
AcDbSavedByObjectVersion
1070
     0
  0
DICTIONARYVAR
  5
2FD9
102
{ACAD_REACTORS
330
2FD6
102
}
330
2FD6
100
DictionaryVariables
280
     0
  1
1:1
  0
DICTIONARYVAR
  5
2FD8
102
{ACAD_REACTORS
330
2FD6
102
}
330
2FD6
100
DictionaryVariables
280
     0
  1
STANDARD
  0
DICTIONARYVAR
  5
2FD7
102
{ACAD_REACTORS
330
2FD6
102
}
330
2FD6
100
DictionaryVariables
280
     0
  1
STANDARD
  0
DICTIONARYVAR
  5
2FDC
102
{ACAD_REACTORS
330
2FD6
102
}
330
2FD6
100
DictionaryVariables
280
     0
  1
1
  0
DICTIONARYVAR
  5
2FDB
102
{ACAD_REACTORS
330
2FD6
102
}
330
2FD6
100
DictionaryVariables
280
     0
  1
1
  0
DICTIONARYVAR
  5
3159
102
{ACAD_REACTORS
330
2FD6
102
}
330
2FD6
100
DictionaryVariables
280
     0
  1
1
  0
DICTIONARYVAR
  5
315A
102
{ACAD_REACTORS
330
2FD6
102
}
330
2FD6
100
DictionaryVariables
280
     0
  1
15
  0
DICTIONARYVAR
  5
3158
102
{ACAD_REACTORS
330
2FD6
102
}
330
2FD6
100
DictionaryVariables
280
     0
  1
0
  0
DICTIONARYVAR
  5
3157
102
{ACAD_REACTORS
330
2FD6
102
}
330
2FD6
100
DictionaryVariables
280
     0
  1
0
  0
DICTIONARYVAR
  5
2FDA
102
{ACAD_REACTORS
330
2FD6
102
}
330
2FD6
100
DictionaryVariables
280
     0
  1
127
  0
DICTIONARY
  5
2F90
102
{ACAD_REACTORS
330
2F82
102
}
330
2F82
100
AcDbDictionary
281
     1
  0
DICTIONARY
  5
2ED0
102
{ACAD_REACTORS
330
2ECF
102
}
330
2ECF
100
AcDbDictionary
281
     1
  3
DWGSETTINGS
350
3246
  3
TRANSSETTINGS
350
3247
  0
ACAMGFILTERDAT
  5
2FAF
102
{ACAD_REACTORS
330
2FAA
102
}
330
2FAA
100
AcAmgFilterDat
 70
    15
  1
DIMENSION,AMDT_*_DIM
  2
*
  3
*
  4
*
  5
*
290
     1
  0
ACAMGFILTERDAT
  5
2FAE
102
{ACAD_REACTORS
330
2FAA
102
}
330
2FAA
100
AcAmgFilterDat
 70
    15
  1
*
  2
AM_FEA-AM_*
  3
*
  4
*
  5
*
290
     1
  0
ACAMGFILTERDAT
  5
2FAB
102
{ACAD_REACTORS
330
2FAA
102
}
330
2FAA
100
AcAmgFilterDat
 70
    15
  1
HATCH
  2
*
  3
*
  4
*
  5
*
290
     1
  0
ACAMGFILTERDAT
  5
2FAC
102
{ACAD_REACTORS
330
2FAA
102
}
330
2FAA
100
AcAmgFilterDat
 70
    15
  1
LINE
  2
8,8N,*-8,*-8N,AM_8,AM_8N,*-AM_8,*-AM_8N
  3
*
  4
*
  5
INSERT,STDPART2D
290
     1
  0
ACAMGFILTERDAT
  5
2FB0
102
{ACAD_REACTORS
330
2FAA
102
}
330
2FAA
100
AcAmgFilterDat
 70
    15
  1
ARC
  2
AM_5
  3
*
  4
2
  5
INSERT
290
     0
  0
ACAMGFILTERDAT
  5
2FAD
102
{ACAD_REACTORS
330
2FAA
102
}
330
2FAA
100
AcAmgFilterDat
 70
    15
  1
ACMFCFRAME,ACMDATUMTARGET,ACMDATUMID,ACMWELDSYM,ACMSURFSYM,ACMFEATID,ACMPARTREF,ACMBALLOON,AMDTEDGESYM,AMGSCREWCALCTABLE,ACMMARKSTAMP
  2
*
  3
*
  4
*
  5
*
290
     1
  0
LAYER_INDEX
  5
2FC9
102
{ACAD_REACTORS
330
2FC8
102
}
330
2FC8
100
AcDbIndex
 40
2457472.823578496
100
AcDbLayerIndex
  8
0
360
2FCA
 90
        0
  8
OUTLINE
360
2FCB
 90
       15
  8
SIZE
360
2FCC
 90
       31
  8
BASIS
360
2FCD
 90
        1
  8
DETAIL
360
2FCE
 90
        9
  8
ARRANGE
360
2FCF
 90
        2
  8
DEFPOINTS
360
2FD0
 90
        0
  8
ETC
360
2FD1
 90
        3
  8
FIX
360
2FD2
 90
        0
  8
NOTE
360
2FD3
 90
        7
  8
SERVICESPACE
360
2FD4
 90
        0
  8
SYMBOLLINE
360
2FD5
 90
        0
  0
DICTIONARY
  5
2DA1
330
2DA0
100
AcDbDictionary
280
     1
281
     1
  3
ACAD_XREC_ROUNDTRIP
360
2FE7
  3
BUMPTILE
360
2DA3
  3
DIFFUSETILE
360
2DA2
  3
OPACITYTILE
360
2DA6
  3
REFLECTIONTILE
360
2DA5
  3
REFRACTIONTILE
360
2DA7
  3
SPECULARTILE
360
2DA4
  0
DICTIONARY
  5
2D99
330
2D98
100
AcDbDictionary
280
     1
281
     1
  3
ACAD_XREC_ROUNDTRIP
360
2FE6
  3
BUMPTILE
360
2D9B
  3
DIFFUSETILE
360
2D9A
  3
OPACITYTILE
360
2D9E
  3
REFLECTIONTILE
360
2D9D
  3
REFRACTIONTILE
360
2D9F
  3
SPECULARTILE
360
2D9C
  0
DICTIONARY
  5
2DA9
330
2DA8
100
AcDbDictionary
280
     1
281
     1
  3
ACAD_XREC_ROUNDTRIP
360
2FE8
  3
BUMPTILE
360
2DAB
  3
DIFFUSETILE
360
2DAA
  3
OPACITYTILE
360
2DAE
  3
REFLECTIONTILE
360
2DAD
  3
REFRACTIONTILE
360
2DAF
  3
SPECULARTILE
360
2DAC
  0
DICTIONARY
  5
2FDD
330
2DF3
100
AcDbDictionary
280
     1
281
     1
  3
ACAD_ROUNDTRIP_2008_TABLESTYLE_CELLSTYLEMAP
360
331C
  0
IDBUFFER
  5
2FCA
330
0
100
AcDbIdBuffer
  0
IDBUFFER
  5
2FCB
330
0
100
AcDbIdBuffer
330
953
330
954
330
955
330
956
330
957
330
958
330
3147
330
3148
330
3149
330
314A
330
314B
330
314C
330
314D
330
314E
330
314F
  0
IDBUFFER
  5
2FCC
330
0
100
AcDbIdBuffer
330
311D
330
311E
330
311F
330
3120
330
3121
330
3122
330
3123
330
3124
330
3125
330
3126
330
3127
330
3128
330
3129
330
312A
330
312B
330
312C
330
312D
330
312E
330
312F
330
3130
330
3131
330
3132
330
3133
330
3134
330
3150
330
3151
330
3152
330
3153
330
3154
330
3155
330
3156
  0
IDBUFFER
  5
2FCD
330
0
100
AcDbIdBuffer
330
311C
  0
IDBUFFER
  5
2FCE
330
0
100
AcDbIdBuffer
330
3136
330
3137
330
3138
330
3139
330
313A
330
313B
330
313C
330
313D
330
3140
  0
IDBUFFER
  5
2FCF
330
0
100
AcDbIdBuffer
330
311A
330
311B
  0
IDBUFFER
  5
2FD0
330
0
100
AcDbIdBuffer
  0
IDBUFFER
  5
2FD1
330
0
100
AcDbIdBuffer
330
3119
330
3135
330
3141
  0
IDBUFFER
  5
2FD2
330
0
100
AcDbIdBuffer
  0
IDBUFFER
  5
2FD3
330
0
100
AcDbIdBuffer
330
313E
330
313F
330
3142
330
3143
330
3144
330
3145
330
3146
  0
IDBUFFER
  5
2FD4
330
0
100
AcDbIdBuffer
  0
IDBUFFER
  5
2FD5
330
0
100
AcDbIdBuffer
  0
XRECORD
  5
2FE7
102
{ACAD_REACTORS
330
2DA1
102
}
330
2DA1
100
AcDbXrecord
280
     1
102
MATERIAL
148
0.0
149
0.0
149
0.0
 93
        0
 94
      127
282
     0
 72
     0
 77
     0
171
     0
175
     0
179
     0
273
     0
  0
XRECORD
  5
2DA3
102
{ACAD_REACTORS
330
2DA1
102
}
330
2DA1
100
AcDbXrecord
280
     1
270
     1
271
     1
  0
XRECORD
  5
2DA2
102
{ACAD_REACTORS
330
2DA1
102
}
330
2DA1
100
AcDbXrecord
280
     1
270
     1
271
     1
  0
XRECORD
  5
2DA6
102
{ACAD_REACTORS
330
2DA1
102
}
330
2DA1
100
AcDbXrecord
280
     1
270
     1
271
     1
  0
XRECORD
  5
2DA5
102
{ACAD_REACTORS
330
2DA1
102
}
330
2DA1
100
AcDbXrecord
280
     1
270
     1
271
     1
  0
XRECORD
  5
2DA7
102
{ACAD_REACTORS
330
2DA1
102
}
330
2DA1
100
AcDbXrecord
280
     1
270
     1
271
     1
  0
XRECORD
  5
2DA4
102
{ACAD_REACTORS
330
2DA1
102
}
330
2DA1
100
AcDbXrecord
280
     1
270
     1
271
     1
  0
XRECORD
  5
2FE6
102
{ACAD_REACTORS
330
2D99
102
}
330
2D99
100
AcDbXrecord
280
     1
102
MATERIAL
148
0.0
149
0.0
149
0.0
 93
        0
 94
      127
282
     0
 72
     0
 77
     0
171
     0
175
     0
179
     0
273
     0
  0
XRECORD
  5
2D9B
102
{ACAD_REACTORS
330
2D99
102
}
330
2D99
100
AcDbXrecord
280
     1
270
     1
271
     1
  0
XRECORD
  5
2D9A
102
{ACAD_REACTORS
330
2D99
102
}
330
2D99
100
AcDbXrecord
280
     1
270
     1
271
     1
  0
XRECORD
  5
2D9E
102
{ACAD_REACTORS
330
2D99
102
}
330
2D99
100
AcDbXrecord
280
     1
270
     1
271
     1
  0
XRECORD
  5
2D9D
102
{ACAD_REACTORS
330
2D99
102
}
330
2D99
100
AcDbXrecord
280
     1
270
     1
271
     1
  0
XRECORD
  5
2D9F
102
{ACAD_REACTORS
330
2D99
102
}
330
2D99
100
AcDbXrecord
280
     1
270
     1
271
     1
  0
XRECORD
  5
2D9C
102
{ACAD_REACTORS
330
2D99
102
}
330
2D99
100
AcDbXrecord
280
     1
270
     1
271
     1
  0
XRECORD
  5
2FE8
102
{ACAD_REACTORS
330
2DA9
102
}
330
2DA9
100
AcDbXrecord
280
     1
102
MATERIAL
148
0.0
149
0.0
149
0.0
 93
        0
 94
      127
282
     0
 72
     0
 77
     0
171
     0
175
     0
179
     0
273
     0
  0
XRECORD
  5
2DAB
102
{ACAD_REACTORS
330
2DA9
102
}
330
2DA9
100
AcDbXrecord
280
     1
270
     1
271
     1
  0
XRECORD
  5
2DAA
102
{ACAD_REACTORS
330
2DA9
102
}
330
2DA9
100
AcDbXrecord
280
     1
270
     1
271
     1
  0
XRECORD
  5
2DAE
102
{ACAD_REACTORS
330
2DA9
102
}
330
2DA9
100
AcDbXrecord
280
     1
270
     1
271
     1
  0
XRECORD
  5
2DAD
102
{ACAD_REACTORS
330
2DA9
102
}
330
2DA9
100
AcDbXrecord
280
     1
270
     1
271
     1
  0
XRECORD
  5
2DAF
102
{ACAD_REACTORS
330
2DA9
102
}
330
2DA9
100
AcDbXrecord
280
     1
270
     1
271
     1
  0
XRECORD
  5
2DAC
102
{ACAD_REACTORS
330
2DA9
102
}
330
2DA9
100
AcDbXrecord
280
     1
270
     1
271
     1
  0
CELLSTYLEMAP
  5
331C
102
{ACAD_REACTORS
330
2FDD
102
}
330
2FDD
100
AcDbCellStyleMap
 90
        3
300
CELLSTYLE
  1
TABLEFORMAT_BEGIN
 90
        5
170
     1
 91
        0
 92
    32768
 62
   257
 93
        1
300
CONTENTFORMAT
  1
CONTENTFORMAT_BEGIN
 90
        0
 91
        0
 92
      512
 93
        0
300

 40
0.0
140
1.0
 94
        5
 62
     0
340
2DE4
144
0.25
309
CONTENTFORMAT_END
171
     1
301
MARGIN
  1
CELLMARGIN_BEGIN
 40
0.06
 40
0.06
 40
0.06
 40
0.06
 40
0.18
 40
0.18
309
CELLMARGIN_END
 94
        6
 95
        1
302
GRIDFORMAT
  1
GRIDFORMAT_BEGIN
 90
        0
 91
        1
 62
     0
 92
       -2
340
0
 93
        0
 40
0.045
309
GRIDFORMAT_END
 95
        2
302
GRIDFORMAT
  1
GRIDFORMAT_BEGIN
 90
        0
 91
        1
 62
     0
 92
       -2
340
0
 93
        0
 40
0.045
309
GRIDFORMAT_END
 95
        4
302
GRIDFORMAT
  1
GRIDFORMAT_BEGIN
 90
        0
 91
        1
 62
     0
 92
       -2
340
0
 93
        0
 40
0.045
309
GRIDFORMAT_END
 95
        8
302
GRIDFORMAT
  1
GRIDFORMAT_BEGIN
 90
        0
 91
        1
 62
     0
 92
       -2
340
0
 93
        0
 40
0.045
309
GRIDFORMAT_END
 95
       16
302
GRIDFORMAT
  1
GRIDFORMAT_BEGIN
 90
        0
 91
        1
 62
     0
 92
       -2
340
0
 93
        0
 40
0.045
309
GRIDFORMAT_END
 95
       32
302
GRIDFORMAT
  1
GRIDFORMAT_BEGIN
 90
        0
 91
        1
 62
     0
 92
       -2
340
0
 93
        0
 40
0.045
309
GRIDFORMAT_END
309
TABLEFORMAT_END
  1
CELLSTYLE_BEGIN
 90
        1
 91
        1
300
_TITLE
309
CELLSTYLE_END
300
CELLSTYLE
  1
TABLEFORMAT_BEGIN
 90
        5
170
     1
 91
        0
 92
        0
 62
   257
 93
        1
300
CONTENTFORMAT
  1
CONTENTFORMAT_BEGIN
 90
        0
 91
        0
 92
      512
 93
        0
300

 40
0.0
140
1.0
 94
        5
 62
     0
340
2DE4
144
0.18
309
CONTENTFORMAT_END
171
     1
301
MARGIN
  1
CELLMARGIN_BEGIN
 40
0.06
 40
0.06
 40
0.06
 40
0.06
 40
0.18
 40
0.18
309
CELLMARGIN_END
 94
        6
 95
        1
302
GRIDFORMAT
  1
GRIDFORMAT_BEGIN
 90
        0
 91
        1
 62
     0
 92
       -2
340
0
 93
        0
 40
0.045
309
GRIDFORMAT_END
 95
        2
302
GRIDFORMAT
  1
GRIDFORMAT_BEGIN
 90
        0
 91
        1
 62
     0
 92
       -2
340
0
 93
        0
 40
0.045
309
GRIDFORMAT_END
 95
        4
302
GRIDFORMAT
  1
GRIDFORMAT_BEGIN
 90
        0
 91
        1
 62
     0
 92
       -2
340
0
 93
        0
 40
0.045
309
GRIDFORMAT_END
 95
        8
302
GRIDFORMAT
  1
GRIDFORMAT_BEGIN
 90
        0
 91
        1
 62
     0
 92
       -2
340
0
 93
        0
 40
0.045
309
GRIDFORMAT_END
 95
       16
302
GRIDFORMAT
  1
GRIDFORMAT_BEGIN
 90
        0
 91
        1
 62
     0
 92
       -2
340
0
 93
        0
 40
0.045
309
GRIDFORMAT_END
 95
       32
302
GRIDFORMAT
  1
GRIDFORMAT_BEGIN
 90
        0
 91
        1
 62
     0
 92
       -2
340
0
 93
        0
 40
0.045
309
GRIDFORMAT_END
309
TABLEFORMAT_END
  1
CELLSTYLE_BEGIN
 90
        2
 91
        1
300
_HEADER
309
CELLSTYLE_END
300
CELLSTYLE
  1
TABLEFORMAT_BEGIN
 90
        5
170
     1
 91
        0
 92
        0
 62
   257
 93
        1
300
CONTENTFORMAT
  1
CONTENTFORMAT_BEGIN
 90
        0
 91
        0
 92
      512
 93
        0
300

 40
0.0
140
1.0
 94
        2
 62
     0
340
2DE4
144
0.18
309
CONTENTFORMAT_END
171
     1
301
MARGIN
  1
CELLMARGIN_BEGIN
 40
0.06
 40
0.06
 40
0.06
 40
0.06
 40
0.18
 40
0.18
309
CELLMARGIN_END
 94
        6
 95
        1
302
GRIDFORMAT
  1
GRIDFORMAT_BEGIN
 90
        0
 91
        1
 62
     0
 92
       -2
340
0
 93
        0
 40
0.045
309
GRIDFORMAT_END
 95
        2
302
GRIDFORMAT
  1
GRIDFORMAT_BEGIN
 90
        0
 91
        1
 62
     0
 92
       -2
340
0
 93
        0
 40
0.045
309
GRIDFORMAT_END
 95
        4
302
GRIDFORMAT
  1
GRIDFORMAT_BEGIN
 90
        0
 91
        1
 62
     0
 92
       -2
340
0
 93
        0
 40
0.045
309
GRIDFORMAT_END
 95
        8
302
GRIDFORMAT
  1
GRIDFORMAT_BEGIN
 90
        0
 91
        1
 62
     0
 92
       -2
340
0
 93
        0
 40
0.045
309
GRIDFORMAT_END
 95
       16
302
GRIDFORMAT
  1
GRIDFORMAT_BEGIN
 90
        0
 91
        1
 62
     0
 92
       -2
340
0
 93
        0
 40
0.045
309
GRIDFORMAT_END
 95
       32
302
GRIDFORMAT
  1
GRIDFORMAT_BEGIN
 90
        0
 91
        1
 62
     0
 92
       -2
340
0
 93
        0
 40
0.045
309
GRIDFORMAT_END
309
TABLEFORMAT_END
  1
CELLSTYLE_BEGIN
 90
        3
 91
        2
300
_DATA
309
CELLSTYLE_END
  0
ENDSEC
  0
EOF
